  0
SECTION
  2
HEADER
  9
$ACADVER
  1
AC1009
  9
$INSBASE
 10
0.0
 20
0.0
 30
0.0
  9
$EXTMIN
 10
0.0
 20
-2.960436562073669
 30
0.0
  9
$EXTMAX
 10
850.20828066762249
 20
702.73855146830692
 30
0.0
  9
$LIMMIN
 10
0.0
 20
0.0
  9
$LIMMAX
 10
375.0
 20
270.0
  9
$ORTHOMODE
 70
     1
  9
$REGENMODE
 70
     1
  9
$FILLMODE
 70
     1
  9
$QTEXTMODE
 70
     0
  9
$MIRRTEXT
 70
     1
  9
$DRAGMODE
 70
     2
  9
$LTSCALE
 40
10.0
  9
$OSMODE
 70
  3071
  9
$ATTMODE
 70
     1
  9
$TEXTSIZE
 40
5.0
  9
$TRACEWID
 40
0.05
  9
$TEXTSTYLE
  7
STANDARD
  9
$CLAYER
  8
0
  9
$CELTYPE
  6
BYLAYER
  9
$CECOLOR
 62
     6
  9
$DIMSCALE
 40
2.0
  9
$DIMASZ
 40
3.0
  9
$DIMEXO
 40
2.0
  9
$DIMDLI
 40
0.38
  9
$DIMRND
 40
0.0
  9
$DIMDLE
 40
0.0
  9
$DIMEXE
 40
2.0
  9
$DIMTP
 40
0.0
  9
$DIMTM
 40
0.0
  9
$DIMTXT
 40
3.2000000000000002
  9
$DIMCEN
 40
0.0
  9
$DIMTSZ
 40
0.0
  9
$DIMTOL
 70
     0
  9
$DIMLIM
 70
     0
  9
$DIMTIH
 70
     0
  9
$DIMTOH
 70
     0
  9
$DIMSE1
 70
     0
  9
$DIMSE2
 70
     0
  9
$DIMTAD
 70
     1
  9
$DIMZIN
 70
     8
  9
$DIMBLK
  1

  9
$DIMASO
 70
     0
  9
$DIMSHO
 70
     0
  9
$DIMPOST
  1

  9
$DIMAPOST
  1

  9
$DIMALT
 70
     0
  9
$DIMALTD
 70
     2
  9
$DIMALTF
 40
25.399999999999999
  9
$DIMLFAC
 40
1.0
  9
$DIMTOFL
 70
     0
  9
$DIMTVP
 40
1.6000000000000001
  9
$DIMTIX
 70
     1
  9
$DIMSOXD
 70
     0
  9
$DIMSAH
 70
     0
  9
$DIMBLK1
  1

  9
$DIMBLK2
  1

  9
$DIMSTYLE
  2
STANDARD
  9
$DIMCLRD
 70
     0
  9
$DIMCLRE
 70
     0
  9
$DIMCLRT
 70
     0
  9
$DIMTFAC
 40
1.0
  9
$DIMGAP
 40
1.1999999999999991
  9
$LUNITS
 70
     2
  9
$LUPREC
 70
     4
  9
$SKETCHINC
 40
0.1
  9
$FILLETRAD
 40
0.0
  9
$AUNITS
 70
     0
  9
$AUPREC
 70
     4
  9
$MENU
  1
ACAD
  9
$ELEVATION
 40
0.0
  9
$PELEVATION
 40
0.0
  9
$THICKNESS
 40
0.0
  9
$LIMCHECK
 70
     0
  9
$BLIPMODE
 70
     0
  9
$CHAMFERA
 40
0.0
  9
$CHAMFERB
 40
0.0
  9
$SKPOLY
 70
     0
  9
$TDCREATE
 40
2448055.7149187499
  9
$TDUPDATE
 40
2456598.5587977888
  9
$TDINDWG
 40
2.7321881481000001
  9
$TDUSRTIMER
 40
2.7321881481000001
  9
$USRTIMER
 70
     1
  9
$ANGBASE
 50
0.0
  9
$ANGDIR
 70
     0
  9
$PDMODE
 70
     0
  9
$PDSIZE
 40
0.0
  9
$PLINEWID
 40
0.0
  9
$COORDS
 70
     1
  9
$SPLFRAME
 70
     0
  9
$SPLINETYPE
 70
     6
  9
$SPLINESEGS
 70
     8
  9
$ATTDIA
 70
     0
  9
$ATTREQ
 70
     1
  9
$HANDLING
 70
     1
  9
$HANDSEED
  5
2765E
  9
$SURFTAB1
 70
     6
  9
$SURFTAB2
 70
     6
  9
$SURFTYPE
 70
     6
  9
$SURFU
 70
     6
  9
$SURFV
 70
     6
  9
$UCSNAME
  2

  9
$UCSORG
 10
0.0
 20
0.0
 30
0.0
  9
$UCSXDIR
 10
1.0
 20
0.0
 30
0.0
  9
$UCSYDIR
 10
0.0
 20
1.0
 30
0.0
  9
$PUCSNAME
  2

  9
$PUCSORG
 10
0.0
 20
0.0
 30
0.0
  9
$PUCSXDIR
 10
1.0
 20
0.0
 30
0.0
  9
$PUCSYDIR
 10
0.0
 20
1.0
 30
0.0
  9
$USERI1
 70
     0
  9
$USERI2
 70
     0
  9
$USERI3
 70
     0
  9
$USERI4
 70
     0
  9
$USERI5
 70
     0
  9
$USERR1
 40
0.0
  9
$USERR2
 40
0.0
  9
$USERR3
 40
0.0
  9
$USERR4
 40
0.0
  9
$USERR5
 40
0.0
  9
$WORLDVIEW
 70
     1
  9
$SHADEDGE
 70
     3
  9
$SHADEDIF
 70
    70
  9
$TILEMODE
 70
     1
  9
$MAXACTVP
 70
    16
  9
$PLIMCHECK
 70
     0
  9
$PEXTMIN
 10
1.0000000000000000E+020
 20
1.0000000000000000E+020
 30
1.0000000000000000E+020
  9
$PEXTMAX
 10
-1.0000000000000000E+020
 20
-1.0000000000000000E+020
 30
-1.0000000000000000E+020
  9
$PLIMMIN
 10
0.0
 20
0.0
  9
$PLIMMAX
 10
12.0
 20
9.0
  9
$UNITMODE
 70
     0
  9
$VISRETAIN
 70
     0
  9
$PLINEGEN
 70
     1
  9
$PSLTSCALE
 70
     0
  0
ENDSEC
  0
SECTION
  2
TABLES
  0
TABLE
  2
VPORT
 70
     1
  0
VPORT
  2
*ACTIVE
 70
     0
 10
0.0
 20
0.0
 11
1.0
 21
1.0
 12
444.65916549000951
 22
349.89487321172322
 13
0.0
 23
0.0
 14
5.0
 24
5.0
 15
10.0
 25
10.0
 16
0.0
 26
0.0
 36
1.0
 17
0.0
 27
0.0
 37
0.0
 40
712.05967083923895
 41
1.831871345029239
 42
50.0
 43
0.0
 44
0.0
 50
0.0
 51
0.0
 71
     0
 72
   500
 73
     1
 74
     1
 75
     0
 76
     0
 77
     0
 78
     2
  0
ENDTAB
  0
TABLE
  2
LTYPE
 70
     3
  0
LTYPE
  2
CONTINUOUS
 70
     0
  3
実線
 72
    65
 73
     0
 40
0.0
  0
LTYPE
  2
CENTER
 70
     0
  3
____ _ ____ _ ____ _ ____ _ ____ _ ____ _ ____
 72
    65
 73
     4
 40
2.0
 49
1.25
 49
-0.25
 49
0.25
 49
-0.25
  0
LTYPE
  2
PHANTOM2
 70
     0
  3
___ _ _ ___ _ _ ___ _ _ ___ _ _
 72
    65
 73
     6
 40
1.25
 49
0.625
 49
-0.125
 49
0.125
 49
-0.125
 49
0.125
 49
-0.125
  0
ENDTAB
  0
TABLE
  2
LAYER
 70
     4
  0
LAYER
  2
0
 70
     0
 62
     7
  6
CONTINUOUS
  0
LAYER
  2
1
 70
     0
 62
     1
  6
CENTER
  0
LAYER
  2
DEFPOINTS
 70
     0
 62
     7
  6
CONTINUOUS
  0
LAYER
  2
3
 70
     0
 62
     3
  6
CONTINUOUS
  0
ENDTAB
  0
TABLE
  2
STYLE
 70
     3
  0
STYLE
  2
STANDARD
 70
     0
 40
0.0
 41
1.0
 50
0.0
 71
     0
 42
5.0
  3
simplex.shx
  4
bigfont.shx
  0
STYLE
  2
07500
 70
     0
 40
0.0
 41
0.75
 50
0.0
 71
     0
 42
0.2
  3
simplex.shx
  4
bigfont.shx
  0
STYLE
  2
STANDARD1
 70
     0
 40
0.0
 41
1.0
 50
0.0
 71
     0
 42
3.0
  3
txt
  4

  0
ENDTAB
  0
TABLE
  2
VIEW
 70
     2
  0
VIEW
  2
ALL
 70
     0
 40
270.0
 10
220.99159663865549
 20
135.0
 41
0.0
 11
0.0
 21
0.0
 31
1.0
 12
0.0
 22
0.0
 32
0.0
 42
0.0
 43
0.0
 44
0.0
 50
0.0
 71
     0
  0
VIEW
  2
OLE1
 70
     0
 40
168.2487151179721
 10
2892.3009567448912
 20
702.51600084347126
 41
162.5749581879237
 11
0.0
 21
0.0
 31
1.0
 12
0.0
 22
0.0
 32
0.0
 42
50.0
 43
0.0
 44
0.0
 50
0.0
 71
     0
  0
ENDTAB
  0
TABLE
  2
UCS
 70
     0
  0
ENDTAB
  0
TABLE
  2
APPID
 70
    48
  0
APPID
  2
ACAD
 70
     0
  0
APPID
  2
DCO15
 70
     0
  0
APPID
  2
GENIUS_GENOREF_13
 70
     0
  0
APPID
  2
GENIUS_GENOENT_13
 70
     0
  0
APPID
  2
GENIUS_GENBH_13
 70
     0
  0
APPID
  2
GENIUS_GENOBJ_13
 70
     0
  0
APPID
  2
GENIUS_GENODEF_13
 70
     0
  0
APPID
  2
GENIUS_GENOLIS_13
 70
     0
  0
APPID
  2
GENIUS_GENOBJ-NBEHI-BHF_13
 70
     0
  0
APPID
  2
GENIUS_GENOBJ-NBEHI-BHB_13
 70
     0
  0
APPID
  2
GENIUS_GENOBJ-F-PART_13
 70
     0
  0
APPID
  2
GENIUS_GEFSTDP_13
 70
     0
  0
APPID
  2
GENIUS_GENOBJ-N-RSSYM_13
 70
     0
  0
APPID
  2
GENIUS_GENSYMENT_13
 70
     0
  0
APPID
  2
GENIUS_GENOBJ-N-TIT_13
 70
     0
  0
APPID
  2
GENIUS_GENTITLE_13
 70
     0
  0
APPID
  2
GENIUS_GENZVEED_13
 70
     0
  0
APPID
  2
GENIUS_GENOBJ-N-LEADER_13
 70
     0
  0
APPID
  2
GENIUS_GENOBJ-N-FIL_13
 70
     0
  0
APPID
  2
GENIUS_GENOBJ-N-SEC_13
 70
     0
  0
APPID
  2
GENIUS_GENOBJ-N-CRS_13
 70
     0
  0
APPID
  2
GENIUS_GENOBJ-N-ZOO_13
 70
     0
  0
APPID
  2
GENIUS_GENZOO_13
 70
     0
  0
APPID
  2
GENIUS_GENOBJ-F-TOL_13
 70
     0
  0
APPID
  2
GENIUS_GENFIL_13
 70
     0
  0
APPID
  2
GENIUS_GENOBJ-N-CHA_13
 70
     0
  0
APPID
  2
_CALL_MAC$
 70
     0
  0
APPID
  2
ASM_BASE
 70
     0
  0
APPID
  2
ASM_EXPLO_VER_2_00
 70
     0
  0
APPID
  2
ASM_CADM_VER_12_00
 70
     0
  0
APPID
  2
ASM_BASEFORO
 70
     0
  0
APPID
  2
ASM_BASETRAVI
 70
     0
  0
APPID
  2
ASM_BASETRAVI1
 70
     0
  0
APPID
  2
ASM_GRUPPI
 70
     0
  0
APPID
  2
ASM_CADM_ALBERO
 70
     0
  0
APPID
  2
ASM_GOLE
 70
     0
  0
APPID
  2
ACAD_MLEADERVER
 70
     0
  0
APPID
  2
ACAD_DSTYLE_DIMJAG
 70
     0
  0
APPID
  2
ACAD_DSTYLE_DIMTALN
 70
     0
  0
APPID
  2
ACAD_EXEMPT_FROM_CAD_STANDARDS
 70
     0
  0
APPID
  2
ACAD_DSTYLE_DIMRADIAL_EXTENSION
 70
     0
  0
APPID
  2
ACAD_PSEXT
 70
     0
  0
APPID
  2
ACAD_DSTYLE_DIMBREAK
 70
     0
  0
APPID
  2
ACAECLAYERSTANDARD
 70
     0
  0
APPID
  2
ACCMTRANSPARENCY
 70
     0
  0
APPID
  2
GRADIENTCOLOR1ACI
 70
     0
  0
APPID
  2
GRADIENTCOLOR2ACI
 70
     0
  0
APPID
  2
ACAD_NAV_VCDISPLAY
 70
     0
  0
ENDTAB
  0
TABLE
  2
DIMSTYLE
 70
     1
  0
DIMSTYLE
  2
STANDARD
 70
     0
  3

  4

  5

  6

  7

 40
1.0
 41
0.18
 42
0.0625
 43
0.38
 44
0.18
 45
0.0
 46
0.0
 47
0.0
 48
0.0
140
0.18
141
0.09
142
0.0
143
25.399999999999999
144
1.0
145
0.0
146
1.0
147
0.09
 71
     0
 72
     0
 73
     1
 74
     1
 75
     0
 76
     0
 77
     0
 78
     0
170
     0
171
     2
172
     0
173
     0
174
     0
175
     0
176
     0
177
     0
178
     0
  0
ENDTAB
  0
ENDSEC
  0
SECTION
  2
BLOCKS
  0
BLOCK
  8
0
  2
$MODEL_SPACE
 70
     0
 10
0.0
 20
0.0
 30
0.0
  3
$MODEL_SPACE
  1

  0
ENDBLK
  5
36
  8
0
  0
BLOCK
 67
     1
  8
0
  2
$PAPER_SPACE
 70
     0
 10
0.0
 20
0.0
 30
0.0
  3
$PAPER_SPACE
  1

  0
ENDBLK
  5
34
 67
     1
  8
0
  0
ENDSEC
  0
SECTION
  2
ENTITIES
  0
LINE
  5
25A63
  8
1
 10
486.03039257076853
 20
565.32535390132705
 30
0.0
 11
486.03039257076853
 21
691.76773025804141
 31
0.0
  0
LINE
  5
25A64
  8
0
 10
491.84539257076858
 20
594.54654207968395
 30
0.0
 11
491.84539257076858
 21
593.94654207968415
 31
0.0
  0
LINE
  5
25A65
  8
0
 10
490.03039257076853
 20
671.77954207968423
 30
0.0
 11
490.03039257076853
 21
670.54654207968406
 31
0.0
  0
LINE
  5
25A66
  8
0
 10
489.2633925707687
 20
672.54654207968395
 30
0.0
 11
490.03039257076853
 21
671.77954207968423
 31
0.0
  0
LINE
  5
25A67
  8
0
 10
491.84539257076858
 20
670.54654207968406
 30
0.0
 11
491.84539257076858
 21
668.04654207968395
 31
0.0
  0
LINE
  5
25A68
  8
0
 10
484.02818926249893
 20
671.77954207968423
 30
0.0
 11
490.03039257076853
 21
671.77954207968423
 31
0.0
  0
LINE
  5
25A69
  8
0
 10
484.0512407799369
 20
672.54654207968395
 30
0.0
 11
489.2633925707687
 21
672.54654207968395
 31
0.0
  0
LINE
  5
25A6A
  8
0
 10
484.02976364742011
 20
589.24654207968376
 30
0.0
 11
492.28872590410168
 21
589.24654207968376
 31
0.0
  0
LINE
  5
25A6B
  8
0
 10
484.36727703870469
 20
593.94654207968415
 30
0.0
 11
492.28872590410168
 21
593.94654207968415
 31
0.0
  0
POLYLINE
  5
25A6C
  8
0
 66
     1
 10
0.0
 20
0.0
 30
0.0
  0
VERTEX
  5
2723E
  8
0
 10
489.15955923743508
 20
593.94654207968415
 30
0.0
  0
VERTEX
  5
2723F
  8
0
 10
488.65712148551938
 20
593.93935194606411
 30
0.0
  0
VERTEX
  5
27240
  8
0
 10
487.64836094160722
 20
593.88257736227979
 30
0.0
  0
VERTEX
  5
27241
  8
0
 10
486.5925710488836
 20
593.76796702352647
 30
0.0
  0
VERTEX
  5
27242
  8
0
 10
486.03039257076853
 20
593.68712237026875
 30
0.0
  0
SEQEND
  5
27243
  8
0
  0
POLYLINE
  5
25A6D
  8
0
 66
     1
 10
0.0
 20
0.0
 30
0.0
  0
VERTEX
  5
27244
  8
0
 10
486.03039257076853
 20
589.50596178909973
 30
0.0
  0
VERTEX
  5
27245
  8
0
 10
486.5925710488836
 20
589.42511713584145
 30
0.0
  0
VERTEX
  5
27246
  8
0
 10
487.64836094160722
 20
589.31050679708824
 30
0.0
  0
VERTEX
  5
27247
  8
0
 10
488.65712148551938
 20
589.25373221330392
 30
0.0
  0
VERTEX
  5
27248
  8
0
 10
489.15955923743508
 20
589.24654207968376
 30
0.0
  0
SEQEND
  5
27249
  8
0
  0
POLYLINE
  5
25A6E
  8
0
 66
     1
 10
0.0
 20
0.0
 30
0.0
  0
VERTEX
  5
2724A
  8
0
 10
489.15955923743508
 20
589.24654207968376
 30
0.0
  0
VERTEX
  5
2724B
  8
0
 10
489.66199698935083
 20
589.25373221330392
 30
0.0
  0
VERTEX
  5
2724C
  8
0
 10
490.67075753326299
 20
589.31050679708824
 30
0.0
  0
VERTEX
  5
2724D
  8
0
 10
491.72654742598701
 20
589.42511713584145
 30
0.0
  0
VERTEX
  5
2724E
  8
0
 10
492.28872590410168
 20
589.50596178909973
 30
0.0
  0
SEQEND
  5
2724F
  8
0
  0
POLYLINE
  5
25A6F
  8
0
 66
     1
 10
0.0
 20
0.0
 30
0.0
  0
VERTEX
  5
27250
  8
0
 10
492.28872590410168
 20
593.68712237026875
 30
0.0
  0
VERTEX
  5
27251
  8
0
 10
491.72654742598701
 20
593.76796702352647
 30
0.0
  0
VERTEX
  5
27252
  8
0
 10
490.67075753326299
 20
593.88257736227979
 30
0.0
  0
VERTEX
  5
27253
  8
0
 10
489.66199698935083
 20
593.93935194606411
 30
0.0
  0
VERTEX
  5
27254
  8
0
 10
489.15955923743508
 20
593.94654207968415
 30
0.0
  0
SEQEND
  5
27255
  8
0
  0
POLYLINE
  5
25A70
  8
0
 66
     1
 10
0.0
 20
0.0
 30
0.0
  0
VERTEX
  5
27256
  8
0
 10
484.02818442116489
 20
589.28240936383872
 30
0.0
  0
VERTEX
  5
27257
  8
0
 10
484.34586761805622
 20
589.3050893710888
 30
0.0
  0
VERTEX
  5
27258
  8
0
 10
484.99556690658841
 20
589.36738586046113
 30
0.0
  0
VERTEX
  5
27259
  8
0
 10
485.67509783641981
 20
589.45340463667014
 30
0.0
  0
VERTEX
  5
2725A
  8
0
 10
486.03039257076853
 20
589.50596178909973
 30
0.0
  0
SEQEND
  5
2725B
  8
0
  0
LINE
  5
25A71
  8
0
 10
486.03039257076853
 20
589.50596178909973
 30
0.0
 11
486.03039257076853
 21
593.68712237026875
 31
0.0
  0
POLYLINE
  5
25A72
  8
0
 66
     1
 10
0.0
 20
0.0
 30
0.0
  0
VERTEX
  5
2725C
  8
0
 10
486.03039257076853
 20
593.68712237026875
 30
0.0
  0
VERTEX
  5
2725D
  8
0
 10
485.73370201705711
 20
593.73134974395953
 30
0.0
  0
VERTEX
  5
2725E
  8
0
 10
485.16270447741817
 20
593.80641845291211
 30
0.0
  0
VERTEX
  5
2725F
  8
0
 10
484.61471371720961
 20
593.86473363503399
 30
0.0
  0
VERTEX
  5
27260
  8
0
 10
484.34696178281911
 20
593.88790756653486
 30
0.0
  0
SEQEND
  5
27261
  8
0
  0
LINE
  5
25A73
  8
0
 10
492.28872590410168
 20
593.94654207968415
 30
0.0
 11
492.28872590410168
 21
589.24654207968376
 31
0.0
  0
LINE
  5
25A74
  8
0
 10
484.0280773338817
 20
670.54654207968406
 30
0.0
 11
491.84539257076858
 21
670.54654207968406
 31
0.0
  0
LINE
  5
25A75
  8
0
 10
484.02976364742011
 20
668.04654207968395
 30
0.0
 11
492.28872590410168
 21
668.04654207968395
 31
0.0
  0
POLYLINE
  5
25A76
  8
0
 66
     1
 10
0.0
 20
0.0
 30
0.0
  0
VERTEX
  5
27262
  8
0
 10
489.15955923743508
 20
668.04654207968395
 30
0.0
  0
VERTEX
  5
27263
  8
0
 10
488.65712148551938
 20
668.03935194606402
 30
0.0
  0
VERTEX
  5
27264
  8
0
 10
487.64836094160722
 20
667.9825773622797
 30
0.0
  0
VERTEX
  5
27265
  8
0
 10
486.5925710488836
 20
667.86796702352649
 30
0.0
  0
VERTEX
  5
27266
  8
0
 10
486.03039257076853
 20
667.78712237026866
 30
0.0
  0
SEQEND
  5
27267
  8
0
  0
POLYLINE
  5
25A77
  8
0
 66
     1
 10
0.0
 20
0.0
 30
0.0
  0
VERTEX
  5
27268
  8
0
 10
486.03039257076853
 20
662.80596178909946
 30
0.0
  0
VERTEX
  5
27269
  8
0
 10
486.59257104885461
 20
662.72511713584515
 30
0.0
  0
VERTEX
  5
2726A
  8
0
 10
487.64836094152719
 20
662.61050679709524
 30
0.0
  0
VERTEX
  5
2726B
  8
0
 10
488.65712148538881
 20
662.55373221330774
 30
0.0
  0
VERTEX
  5
2726C
  8
0
 10
489.15955923727688
 20
662.54654207968406
 30
0.0
  0
SEQEND
  5
2726D
  8
0
  0
POLYLINE
  5
25A78
  8
0
 66
     1
 10
0.0
 20
0.0
 30
0.0
  0
VERTEX
  5
2726E
  8
0
 10
489.15955923743508
 20
662.54654207968406
 30
0.0
  0
VERTEX
  5
2726F
  8
0
 10
489.66199698935083
 20
662.5537322133041
 30
0.0
  0
VERTEX
  5
27270
  8
0
 10
490.67075753326299
 20
662.61050679708831
 30
0.0
  0
VERTEX
  5
27271
  8
0
 10
491.72654742598701
 20
662.72511713584163
 30
0.0
  0
VERTEX
  5
27272
  8
0
 10
492.28872590410168
 20
662.80596178909946
 30
0.0
  0
SEQEND
  5
27273
  8
0
  0
POLYLINE
  5
25A79
  8
0
 66
     1
 10
0.0
 20
0.0
 30
0.0
  0
VERTEX
  5
27274
  8
0
 10
492.28872590410168
 20
667.78712237026866
 30
0.0
  0
VERTEX
  5
27275
  8
0
 10
491.72654742598701
 20
667.86796702352649
 30
0.0
  0
VERTEX
  5
27276
  8
0
 10
490.67075753326299
 20
667.9825773622797
 30
0.0
  0
VERTEX
  5
27277
  8
0
 10
489.66199698935083
 20
668.03935194606402
 30
0.0
  0
VERTEX
  5
27278
  8
0
 10
489.15955923743508
 20
668.04654207968395
 30
0.0
  0
SEQEND
  5
27279
  8
0
  0
POLYLINE
  5
25A7A
  8
0
 66
     1
 10
0.0
 20
0.0
 30
0.0
  0
VERTEX
  5
2727A
  8
0
 10
484.58820736215051
 20
662.62589576986045
 30
0.0
  0
VERTEX
  5
2727B
  8
0
 10
484.81836764751552
 20
662.64835961000472
 30
0.0
  0
VERTEX
  5
2727C
  8
0
 10
485.28911474547522
 20
662.70208225463966
 30
0.0
  0
VERTEX
  5
2727D
  8
0
 10
485.77775795203979
 20
662.7680863280284
 30
0.0
  0
VERTEX
  5
2727E
  8
0
 10
486.03039257076853
 20
662.80596178909946
 30
0.0
  0
SEQEND
  5
2727F
  8
0
  0
LINE
  5
25A7B
  8
0
 10
486.03039257076853
 20
662.80596178909946
 30
0.0
 11
486.03039257076853
 21
667.78712237026866
 31
0.0
  0
POLYLINE
  5
25A7C
  8
0
 66
     1
 10
0.0
 20
0.0
 30
0.0
  0
VERTEX
  5
27280
  8
0
 10
486.03039257076853
 20
667.78712237026866
 30
0.0
  0
VERTEX
  5
27281
  8
0
 10
485.67509783641981
 20
667.83967952269757
 30
0.0
  0
VERTEX
  5
27282
  8
0
 10
484.99556690658841
 20
667.92569829890715
 30
0.0
  0
VERTEX
  5
27283
  8
0
 10
484.34586761805622
 20
667.98799478827914
 30
0.0
  0
VERTEX
  5
27284
  8
0
 10
484.02818442116489
 20
668.01067479552921
 30
0.0
  0
SEQEND
  5
27285
  8
0
  0
LINE
  5
25A7D
  8
0
 10
492.28872590410168
 20
668.04654207968395
 30
0.0
 11
492.28872590410168
 21
662.54654207968406
 31
0.0
  0
LINE
  5
25A7E
  8
1
 10
376.83838318214572
 20
628.54654207968395
 30
0.0
 11
631.22240195939128
 21
628.54654207968451
 31
0.0
  0
LINE
  5
25A7F
  8
1
 10
542.03039257076853
 20
702.73855146830692
 30
0.0
 11
542.03039257076853
 21
554.35453269106119
 31
0.0
  0
LINE
  5
25A80
  8
1
 10
588.75539257076844
 20
665.04654207968395
 30
0.0
 11
600.30539257076862
 21
665.04654207968395
 31
0.0
  0
LINE
  5
25A81
  8
1
 10
594.53039257076853
 20
677.82154207968415
 30
0.0
 11
594.53039257076853
 21
659.27154207968397
 31
0.0
  0
LINE
  5
25A82
  8
1
 10
588.75539257076844
 20
672.04654207968395
 30
0.0
 11
600.30539257076862
 21
672.04654207968395
 31
0.0
  0
LINE
  5
25A83
  8
1
 10
588.75539257076844
 20
592.04654207968406
 30
0.0
 11
600.30539257076862
 21
592.04654207968406
 31
0.0
  0
LINE
  5
25A84
  8
1
 10
594.53039257076853
 20
597.82154207968415
 30
0.0
 11
594.53039257076853
 21
579.27154207968385
 31
0.0
  0
LINE
  5
25A85
  8
1
 10
588.75539257076844
 20
585.04654207968395
 30
0.0
 11
600.30539257076862
 21
585.04654207968395
 31
0.0
  0
LINE
  5
25A86
  8
1
 10
483.75539257076838
 20
672.04654207968395
 30
0.0
 11
495.30539257076862
 21
672.04654207968395
 31
0.0
  0
LINE
  5
25A87
  8
1
 10
489.53039257076853
 20
677.82154207968415
 30
0.0
 11
489.53039257076853
 21
659.27154207968397
 31
0.0
  0
LINE
  5
25A88
  8
1
 10
483.75539257076838
 20
665.04654207968395
 30
0.0
 11
495.30539257076862
 21
665.04654207968395
 31
0.0
  0
LINE
  5
25A89
  8
1
 10
483.75539257076838
 20
585.04654207968395
 30
0.0
 11
495.30539257076862
 21
585.04654207968395
 31
0.0
  0
LINE
  5
25A8A
  8
1
 10
489.53039257076853
 20
597.82154207968415
 30
0.0
 11
489.53039257076853
 21
579.27154207968385
 31
0.0
  0
LINE
  5
25A8B
  8
1
 10
483.75539257076838
 20
592.04654207968406
 30
0.0
 11
495.30539257076862
 21
592.04654207968406
 31
0.0
  0
LINE
  5
25A8C
  8
0
 10
472.03039257076853
 20
584.54654207968395
 30
0.0
 11
472.03039257076853
 21
672.54654207968395
 31
0.0
  0
ARC
  5
25A8D
  8
0
 10
483.03039257076853
 20
584.54654207968395
 30
0.0
 40
11.000000000000011
 50
180.0
 51
270.0
  0
LINE
  5
25A8E
  8
0
 10
601.03039257076853
 20
573.54654207968395
 30
0.0
 11
483.03039257076853
 21
573.54654207968395
 31
0.0
  0
ARC
  5
25A8F
  8
0
 10
601.03039257076853
 20
584.54654207968395
 30
0.0
 40
11.0
 50
270.0
 51
0.0
  0
LINE
  5
25A90
  8
0
 10
612.03039257076853
 20
672.54654207968395
 30
0.0
 11
612.03039257076853
 21
584.54654207968395
 31
0.0
  0
ARC
  5
25A91
  8
0
 10
601.03039257076853
 20
672.54654207968395
 30
0.0
 40
11.00000000000003
 50
0.0
 51
90.0
  0
LINE
  5
25A92
  8
0
 10
483.03039257076853
 20
683.54654207968406
 30
0.0
 11
601.03039257076853
 21
683.54654207968406
 31
0.0
  0
ARC
  5
25A93
  8
0
 10
483.03039257076853
 20
672.54654207968395
 30
0.0
 40
11.000000000000011
 50
90.0
 51
180.0000008537736
  0
ARC
  5
25A94
  8
0
 10
594.53039257076853
 20
665.04654207968395
 30
0.0
 40
5.5
 50
180.0
 51
0.0
  0
LINE
  5
25A95
  8
0
 10
589.03039257076853
 20
665.04654207968395
 30
0.0
 11
589.03039257076853
 21
672.04654207968395
 31
0.0
  0
ARC
  5
25A96
  8
0
 10
594.53039257076853
 20
672.04654207968395
 30
0.0
 40
5.5
 50
0.0
 51
180.0
  0
LINE
  5
25A97
  8
0
 10
600.03039257076853
 20
672.04654207968395
 30
0.0
 11
600.03039257076853
 21
665.04654207968395
 31
0.0
  0
LINE
  5
25A98
  8
0
 10
589.03039257076853
 20
585.04654207968395
 30
0.0
 11
589.03039257076853
 21
592.04654207968406
 31
0.0
  0
ARC
  5
25A99
  8
0
 10
594.53039257076853
 20
592.04654207968406
 30
0.0
 40
5.5
 50
0.0
 51
180.0
  0
LINE
  5
25A9A
  8
0
 10
600.03039257076853
 20
592.04654207968406
 30
0.0
 11
600.03039257076853
 21
585.04654207968395
 31
0.0
  0
ARC
  5
25A9B
  8
0
 10
594.53039257076853
 20
585.04654207968395
 30
0.0
 40
5.5
 50
180.0
 51
0.0
  0
CIRCLE
  5
25A9C
  8
0
 10
542.03039257076853
 20
628.54654207968395
 30
0.0
 40
31.175000000000001
  0
LINE
  5
25A9D
  8
0
 10
484.03039257076853
 20
665.04654207968395
 30
0.0
 11
484.03039257076853
 21
672.04654207968395
 31
0.0
  0
ARC
  5
25A9E
  8
0
 10
489.53039257076853
 20
672.04654207968395
 30
0.0
 40
5.4999999999999973
 50
0.0
 51
180.0
  0
LINE
  5
25A9F
  8
0
 10
495.03039257076853
 20
672.04654207968395
 30
0.0
 11
495.03039257076853
 21
665.04654207968395
 31
0.0
  0
ARC
  5
25AA0
  8
0
 10
489.53039257076853
 20
665.04654207968395
 30
0.0
 40
5.5000000000000009
 50
180.0
 51
0.0
  0
ARC
  5
25AA1
  8
0
 10
489.53039257076853
 20
585.04654207968395
 30
0.0
 40
5.5000000000000009
 50
180.0
 51
0.0
  0
LINE
  5
25AA2
  8
0
 10
484.03039257076853
 20
585.04654207968395
 30
0.0
 11
484.03039257076853
 21
592.04654207968406
 31
0.0
  0
ARC
  5
25AA3
  8
0
 10
489.53039257076853
 20
592.04654207968406
 30
0.0
 40
5.4999999999999973
 50
0.0
 51
180.0
  0
LINE
  5
25AA4
  8
0
 10
495.03039257076853
 20
592.04654207968406
 30
0.0
 11
495.03039257076853
 21
585.04654207968395
 31
0.0
  0
LINE
  5
25AA5
  8
0
 10
494.4293720563345
 20
662.54654207968406
 30
0.0
 11
484.63141308520238
 21
662.54654207968406
 31
0.0
  0
LINE
  5
25AA6
  8
0
 10
494.4293720563345
 20
594.54654207968395
 30
0.0
 11
484.63141308520238
 21
594.54654207968395
 31
0.0
  0
LINE
  5
25AA7
  8
0
 10
486.03039257076853
 20
594.54654207968395
 30
0.0
 11
486.03039257076853
 21
596.28918276680315
 31
0.0
  0
LINE
  5
25AA8
  8
0
 10
486.03039257076853
 20
660.80390139256485
 30
0.0
 11
486.03039257076853
 21
662.54654207968406
 31
0.0
  0
LINE
  5
25ACB
  8
0
 10
757.75543782997283
 20
276.86649017266791
 30
0.0
 11
757.15543782997293
 21
276.86649017266791
 31
0.0
  0
LINE
  5
25ACC
  8
0
 10
834.98843782997301
 20
278.68149017266802
 30
0.0
 11
833.75543782997283
 21
278.68149017266802
 31
0.0
  0
LINE
  5
25ACD
  8
0
 10
833.75543782997283
 20
286.68149017266802
 30
0.0
 11
834.98843782997301
 21
286.68149017266802
 31
0.0
  0
LINE
  5
25ACE
  8
0
 10
835.75543782997272
 20
279.44849017266779
 30
0.0
 11
834.98843782997301
 21
278.68149017266802
 31
0.0
  0
LINE
  5
25ACF
  8
0
 10
834.98843782997301
 20
286.68149017266802
 30
0.0
 11
835.75543782997272
 21
285.91449017266808
 31
0.0
  0
LINE
  5
25AD0
  8
0
 10
752.71485753938839
 20
275.45498930331132
 30
0.0
 11
752.45543782997265
 21
276.42315683933481
 31
0.0
  0
LINE
  5
25AD1
  8
0
 10
757.15543782997293
 20
276.42315683933481
 30
0.0
 11
756.89601812055753
 21
275.45498930331132
 31
0.0
  0
LINE
  5
25AD2
  8
0
 10
833.75543782997283
 20
276.86649017266791
 30
0.0
 11
831.25543782997272
 21
276.86649017266791
 31
0.0
  0
LINE
  5
25AD3
  8
0
 10
832.91026693923914
 20
288.49649017266802
 30
0.0
 11
833.75543782997283
 21
288.49649017266802
 31
0.0
  0
LINE
  5
25AD4
  8
0
 10
826.01485753938823
 20
275.45498930331132
 30
0.0
 11
825.75543782997283
 21
276.42315683933481
 31
0.0
  0
LINE
  5
25AD5
  8
0
 10
831.25543782997272
 20
276.42315683933481
 30
0.0
 11
830.99601812055687
 21
275.45498930331132
 31
0.0
  0
LINE
  5
25AD6
  8
0
 10
821.25543782997283
 20
272.68149017266802
 30
0.0
 11
814.25543782997283
 21
272.68149017266802
 31
0.0
  0
LINE
  5
25AD7
  8
0
 10
769.25543782997283
 20
272.68149017266802
 30
0.0
 11
762.25543782997283
 21
272.68149017266802
 31
0.0
  0
LINE
  5
25AD8
  8
0
 10
762.25543782997283
 20
292.68149017266802
 30
0.0
 11
769.25543782997283
 21
292.68149017266802
 31
0.0
  0
LINE
  5
25AD9
  8
0
 10
814.25543782997283
 20
292.68149017266802
 30
0.0
 11
821.25543782997283
 21
292.68149017266802
 31
0.0
  0
LINE
  5
25ADA
  8
0
 10
834.98843782997301
 20
286.68149017266802
 30
0.0
 11
834.98843782997301
 21
278.68149017266802
 31
0.0
  0
LINE
  5
25ADB
  8
0
 10
835.75543782997272
 20
285.91449017266808
 30
0.0
 11
835.75543782997272
 21
279.44849017266779
 31
0.0
  0
LINE
  5
25ADC
  8
0
 10
752.45543782997265
 20
286.06479544600143
 30
0.0
 11
752.45543782997265
 21
276.42315683933481
 31
0.0
  0
LINE
  5
25ADD
  8
0
 10
757.15543782997293
 20
280.97407395585509
 30
0.0
 11
757.15543782997293
 21
276.42315683933481
 31
0.0
  0
POLYLINE
  5
25ADE
  8
0
 66
     1
 10
0.0
 20
0.0
 30
0.0
  0
VERTEX
  5
27286
  8
0
 10
752.71485753938839
 20
279.06823973798959
 30
0.0
  0
VERTEX
  5
27287
  8
0
 10
752.63401288613022
 20
278.74366584231711
 30
0.0
  0
VERTEX
  5
27288
  8
0
 10
752.51940254737701
 20
278.13410526354528
 30
0.0
  0
VERTEX
  5
27289
  8
0
 10
752.46262796359269
 20
277.5516970919698
 30
0.0
  0
VERTEX
  5
2728A
  8
0
 10
752.45543782997265
 20
277.26161452065031
 30
0.0
  0
SEQEND
  5
2728B
  8
0
  0
POLYLINE
  5
25ADF
  8
0
 66
     1
 10
0.0
 20
0.0
 30
0.0
  0
VERTEX
  5
2728C
  8
0
 10
752.45543782997265
 20
277.26161452065031
 30
0.0
  0
VERTEX
  5
2728D
  8
0
 10
752.46262796359269
 20
276.97153194933071
 30
0.0
  0
VERTEX
  5
2728E
  8
0
 10
752.51940254737701
 20
276.38912377775517
 30
0.0
  0
VERTEX
  5
2728F
  8
0
 10
752.63401288613022
 20
275.7795631989834
 30
0.0
  0
VERTEX
  5
27290
  8
0
 10
752.71485753938839
 20
275.45498930331132
 30
0.0
  0
SEQEND
  5
27291
  8
0
  0
POLYLINE
  5
25AE0
  8
0
 66
     1
 10
0.0
 20
0.0
 30
0.0
  0
VERTEX
  5
27292
  8
0
 10
756.89601812055753
 20
275.45498930331132
 30
0.0
  0
VERTEX
  5
27293
  8
0
 10
756.97686277381536
 20
275.7795631989834
 30
0.0
  0
VERTEX
  5
27294
  8
0
 10
757.09147311256845
 20
276.38912377775517
 30
0.0
  0
VERTEX
  5
27295
  8
0
 10
757.14824769635277
 20
276.97153194933071
 30
0.0
  0
VERTEX
  5
27296
  8
0
 10
757.15543782997293
 20
277.26161452065031
 30
0.0
  0
SEQEND
  5
27297
  8
0
  0
POLYLINE
  5
25AE1
  8
0
 66
     1
 10
0.0
 20
0.0
 30
0.0
  0
VERTEX
  5
27298
  8
0
 10
757.15543782997293
 20
277.26161452065031
 30
0.0
  0
VERTEX
  5
27299
  8
0
 10
757.14824769635277
 20
277.5516970919698
 30
0.0
  0
VERTEX
  5
2729A
  8
0
 10
757.09147311256845
 20
278.13410526354528
 30
0.0
  0
VERTEX
  5
2729B
  8
0
 10
756.97686277381536
 20
278.74366584231711
 30
0.0
  0
VERTEX
  5
2729C
  8
0
 10
756.89601812055753
 20
279.06823973798959
 30
0.0
  0
SEQEND
  5
2729D
  8
0
  0
LINE
  5
25AE2
  8
0
 10
752.71485753938839
 20
275.45498930331132
 30
0.0
 11
756.89601812055753
 21
275.45498930331132
 31
0.0
  0
POLYLINE
  5
25AE3
  8
0
 66
     1
 10
0.0
 20
0.0
 30
0.0
  0
VERTEX
  5
2729E
  8
0
 10
752.65341488443482
 20
285.811024386307
 30
0.0
  0
VERTEX
  5
2729F
  8
0
 10
752.59220900659511
 20
285.26015561156868
 30
0.0
  0
VERTEX
  5
272A0
  8
0
 10
752.504635292687
 20
284.20853460326629
 30
0.0
  0
VERTEX
  5
272A1
  8
0
 10
752.46097012009875
 20
283.19026836685771
 30
0.0
  0
VERTEX
  5
272A2
  8
0
 10
752.45543782997265
 20
282.68149017266802
 30
0.0
  0
SEQEND
  5
272A3
  8
0
  0
POLYLINE
  5
25AE4
  8
0
 66
     1
 10
0.0
 20
0.0
 30
0.0
  0
VERTEX
  5
272A4
  8
0
 10
752.45543782997265
 20
282.68149017266802
 30
0.0
  0
VERTEX
  5
272A5
  8
0
 10
752.46262796359269
 20
282.10132503002887
 30
0.0
  0
VERTEX
  5
272A6
  8
0
 10
752.51940254737701
 20
280.93650868687791
 30
0.0
  0
VERTEX
  5
272A7
  8
0
 10
752.63401288613022
 20
279.71738752933379
 30
0.0
  0
VERTEX
  5
272A8
  8
0
 10
752.71485753938839
 20
279.06823973798959
 30
0.0
  0
SEQEND
  5
272A9
  8
0
  0
LINE
  5
25AE5
  8
0
 10
752.71485753938839
 20
279.06823973798959
 30
0.0
 11
756.89601812055753
 21
279.06823973798959
 31
0.0
  0
POLYLINE
  5
25AE6
  8
0
 66
     1
 10
0.0
 20
0.0
 30
0.0
  0
VERTEX
  5
272AA
  8
0
 10
756.89601812055753
 20
279.06823973798959
 30
0.0
  0
VERTEX
  5
272AB
  8
0
 10
756.94066184740677
 20
279.41418463719992
 30
0.0
  0
VERTEX
  5
272AC
  8
0
 10
757.01630340287829
 20
280.07976166259641
 30
0.0
  0
VERTEX
  5
272AD
  8
0
 10
757.07487321138876
 20
280.71837911847842
 30
0.0
  0
VERTEX
  5
272AE
  8
0
 10
757.09806142891375
 20
281.03040968689078
 30
0.0
  0
SEQEND
  5
272AF
  8
0
  0
LINE
  5
25AE7
  8
0
 10
833.75543782997283
 20
288.49649017266802
 30
0.0
 11
833.75543782997283
 21
276.86649017266791
 31
0.0
  0
LINE
  5
25AE8
  8
0
 10
831.25543782997272
 20
286.31760347585941
 30
0.0
 11
831.25543782997272
 21
276.42315683933481
 31
0.0
  0
POLYLINE
  5
25AE9
  8
0
 66
     1
 10
0.0
 20
0.0
 30
0.0
  0
VERTEX
  5
272B0
  8
0
 10
826.01485753938823
 20
279.06823973798959
 30
0.0
  0
VERTEX
  5
272B1
  8
0
 10
825.93401288613029
 20
278.74366584231711
 30
0.0
  0
VERTEX
  5
272B2
  8
0
 10
825.81940254737719
 20
278.13410526354528
 30
0.0
  0
VERTEX
  5
272B3
  8
0
 10
825.76262796359254
 20
277.5516970919698
 30
0.0
  0
VERTEX
  5
272B4
  8
0
 10
825.75543782997283
 20
277.26161452065031
 30
0.0
  0
SEQEND
  5
272B5
  8
0
  0
POLYLINE
  5
25AEA
  8
0
 66
     1
 10
0.0
 20
0.0
 30
0.0
  0
VERTEX
  5
272B6
  8
0
 10
825.75543782997283
 20
277.26161452065031
 30
0.0
  0
VERTEX
  5
272B7
  8
0
 10
825.76262796359254
 20
276.97153194933071
 30
0.0
  0
VERTEX
  5
272B8
  8
0
 10
825.81940254737719
 20
276.38912377775517
 30
0.0
  0
VERTEX
  5
272B9
  8
0
 10
825.93401288613029
 20
275.7795631989834
 30
0.0
  0
VERTEX
  5
272BA
  8
0
 10
826.01485753938823
 20
275.45498930331132
 30
0.0
  0
SEQEND
  5
272BB
  8
0
  0
POLYLINE
  5
25AEB
  8
0
 66
     1
 10
0.0
 20
0.0
 30
0.0
  0
VERTEX
  5
272BC
  8
0
 10
830.99601812055687
 20
275.45498930331132
 30
0.0
  0
VERTEX
  5
272BD
  8
0
 10
831.07686277381515
 20
275.7795631989834
 30
0.0
  0
VERTEX
  5
272BE
  8
0
 10
831.19147311256836
 20
276.38912377775517
 30
0.0
  0
VERTEX
  5
272BF
  8
0
 10
831.24824769635268
 20
276.97153194933071
 30
0.0
  0
VERTEX
  5
272C0
  8
0
 10
831.25543782997272
 20
277.26161452065031
 30
0.0
  0
SEQEND
  5
272C1
  8
0
  0
POLYLINE
  5
25AEC
  8
0
 66
     1
 10
0.0
 20
0.0
 30
0.0
  0
VERTEX
  5
272C2
  8
0
 10
831.25543782997272
 20
277.26161452065031
 30
0.0
  0
VERTEX
  5
272C3
  8
0
 10
831.24824769635268
 20
277.5516970919698
 30
0.0
  0
VERTEX
  5
272C4
  8
0
 10
831.19147311256836
 20
278.13410526354528
 30
0.0
  0
VERTEX
  5
272C5
  8
0
 10
831.07686277381515
 20
278.74366584231711
 30
0.0
  0
VERTEX
  5
272C6
  8
0
 10
830.99601812055687
 20
279.06823973798959
 30
0.0
  0
SEQEND
  5
272C7
  8
0
  0
LINE
  5
25AED
  8
0
 10
826.01485753938823
 20
275.45498930331132
 30
0.0
 11
830.99601812055687
 21
275.45498930331132
 31
0.0
  0
POLYLINE
  5
25AEE
  8
0
 66
     1
 10
0.0
 20
0.0
 30
0.0
  0
VERTEX
  5
272C8
  8
0
 10
831.25543782997272
 20
282.68149017266802
 30
0.0
  0
VERTEX
  5
272C9
  8
0
 10
831.24918744252034
 20
283.222339006933
 30
0.0
  0
VERTEX
  5
272CA
  8
0
 10
831.19984840752886
 20
284.30623023800399
 30
0.0
  0
VERTEX
  5
272CB
  8
0
 10
831.10062375047335
 20
285.43205875101552
 30
0.0
  0
VERTEX
  5
272CC
  8
0
 10
831.03100198996469
 20
286.02598091334221
 30
0.0
  0
SEQEND
  5
272CD
  8
0
  0
POLYLINE
  5
25AEF
  8
0
 66
     1
 10
0.0
 20
0.0
 30
0.0
  0
VERTEX
  5
272CE
  8
0
 10
825.85348087476666
 20
280.51037233490121
 30
0.0
  0
VERTEX
  5
272CF
  8
0
 10
825.87471857766411
 20
280.27938463051942
 30
0.0
  0
VERTEX
  5
272D0
  8
0
 10
825.92380325611509
 20
279.80752981340169
 30
0.0
  0
VERTEX
  5
272D1
  8
0
 10
825.9820872086292
 20
279.31950768945808
 30
0.0
  0
VERTEX
  5
272D2
  8
0
 10
826.01485753938823
 20
279.06823973798959
 30
0.0
  0
SEQEND
  5
272D3
  8
0
  0
LINE
  5
25AF0
  8
0
 10
826.01485753938823
 20
279.06823973798959
 30
0.0
 11
830.99601812055687
 21
279.06823973798959
 31
0.0
  0
POLYLINE
  5
25AF1
  8
0
 66
     1
 10
0.0
 20
0.0
 30
0.0
  0
VERTEX
  5
272D4
  8
0
 10
830.99601812055687
 20
279.06823973798959
 30
0.0
  0
VERTEX
  5
272D5
  8
0
 10
831.07686277381515
 20
279.71738752933379
 30
0.0
  0
VERTEX
  5
272D6
  8
0
 10
831.19147311256836
 20
280.93650868687791
 30
0.0
  0
VERTEX
  5
272D7
  8
0
 10
831.24824769635268
 20
282.10132503002887
 30
0.0
  0
VERTEX
  5
272D8
  8
0
 10
831.25543782997272
 20
282.68149017266802
 30
0.0
  0
SEQEND
  5
272D9
  8
0
  0
LINE
  5
25AF2
  8
0
 10
756.95543782997265
 20
408.38149017266772
 30
0.0
 11
756.95543782997265
 21
409.18149017266791
 31
0.0
  0
LINE
  5
25AF3
  8
0
 10
826.55543782997302
 20
409.18149017266791
 30
0.0
 11
826.55543782997302
 21
408.38149017266772
 31
0.0
  0
LINE
  5
25AF4
  8
0
 10
741.61162953217718
 20
400.6901448280409
 30
0.0
 11
740.25543782997283
 21
408.38149017266772
 31
0.0
  0
LINE
  5
25AF5
  8
0
 10
843.25543782997283
 20
408.38149017266772
 30
0.0
 11
841.89924612776849
 21
400.6901448280409
 31
0.0
  0
LINE
  5
25AF6
  8
0
 10
740.25543782997283
 20
320.90548746792678
 30
0.0
 11
740.25543782997283
 21
400.68149017266791
 31
0.0
  0
LINE
  5
25AF7
  8
0
 10
843.25543782997283
 20
400.68149017266791
 30
0.0
 11
843.25543782997283
 21
320.90548746792678
 31
0.0
  0
LINE
  5
25AF8
  8
0
 10
736.75543782997283
 20
411.68149017266791
 30
0.0
 11
736.75543782997283
 21
409.18149017266791
 31
0.0
  0
LINE
  5
25AF9
  8
0
 10
846.75543782997295
 20
411.68149017266791
 30
0.0
 11
736.75543782997283
 21
411.68149017266791
 31
0.0
  0
LINE
  5
25AFA
  8
0
 10
846.75543782997295
 20
409.18149017266791
 30
0.0
 11
736.75543782997283
 21
409.18149017266791
 31
0.0
  0
LINE
  5
25AFB
  8
0
 10
846.75543782997295
 20
411.68149017266791
 30
0.0
 11
846.75543782997295
 21
409.18149017266791
 31
0.0
  0
LINE
  5
25AFC
  8
0
 10
843.25543782997283
 20
408.38149017266772
 30
0.0
 11
740.25543782997283
 21
408.38149017266772
 31
0.0
  0
LINE
  5
25AFD
  8
0
 10
843.25543782997283
 20
400.68149017266791
 30
0.0
 11
740.25543782997283
 21
400.68149017266791
 31
0.0
  0
LINE
  5
25AFE
  8
0
 10
762.25543782997283
 20
271.68149017266802
 30
0.0
 11
757.75543782997283
 21
271.68149017266802
 31
0.0
  0
LINE
  5
25AFF
  8
0
 10
825.75543782997283
 20
271.68149017266802
 30
0.0
 11
825.75543782997283
 21
280.41380600569261
 31
0.0
  0
LINE
  5
25B00
  8
0
 10
825.75543782997283
 20
271.68149017266802
 30
0.0
 11
821.25543782997283
 21
271.68149017266802
 31
0.0
  0
POLYLINE
  5
25B01
  8
0
 66
     1
 10
0.0
 20
0.0
 30
0.0
  0
VERTEX
  5
272DA
  8
0
 10
821.25543782997283
 20
281.93414691155891
 30
0.0
  0
VERTEX
  5
272DB
  8
0
 10
822.17756891214685
 20
282.71888864712582
 30
0.0
  0
VERTEX
  5
272DC
  8
0
 10
823.96413706875126
 20
284.35957529441248
 30
0.0
  0
VERTEX
  5
272DD
  8
0
 10
825.67007297619057
 20
286.09175210323968
 30
0.0
  0
VERTEX
  5
272DE
  8
0
 10
826.49146106411263
 20
286.99080285180747
 30
0.0
  0
VERTEX
  5
272DF
  8
0
 10
827.29110594199926
 20
287.91108268886143
 30
0.0
  0
VERTEX
  5
272E0
  8
0
 10
828.82317782234941
 20
289.813012483085
 30
0.0
  0
VERTEX
  5
272E1
  8
0
 10
830.26245318133385
 20
291.7927801363162
 30
0.0
  0
VERTEX
  5
272E2
  8
0
 10
831.60532889271326
 20
293.84542943726728
 30
0.0
  0
VERTEX
  5
272E3
  8
0
 10
832.84844316009367
 20
295.96582172049142
 30
0.0
  0
VERTEX
  5
272E4
  8
0
 10
833.98868393295095
 20
298.14864873067381
 30
0.0
  0
VERTEX
  5
272E5
  8
0
 10
834.51932446343983
 20
299.26177331848839
 30
0.0
  0
VERTEX
  5
272E6
  8
0
 10
835.02319669743338
 20
300.3884459114829
 30
0.0
  0
VERTEX
  5
272E7
  8
0
 10
835.949391622441
 20
302.67960608570678
 30
0.0
  0
VERTEX
  5
272E8
  8
0
 10
836.76495004308697
 20
305.01639349243669
 30
0.0
  0
VERTEX
  5
272E9
  8
0
 10
837.46783026531602
 20
307.39295814614439
 30
0.0
  0
VERTEX
  5
272EA
  8
0
 10
838.05627267714215
 20
309.80335048171668
 30
0.0
  0
VERTEX
  5
272EB
  8
0
 10
838.52880415371737
 20
312.24153624878141
 30
0.0
  0
VERTEX
  5
272EC
  8
0
 10
838.72122219852099
 20
313.46914652358919
 30
0.0
  0
VERTEX
  5
272ED
  8
0
 10
838.88424174519787
 20
314.70141161803349
 30
0.0
  0
VERTEX
  5
272EE
  8
0
 10
839.12169563817451
 20
317.17681846174992
 30
0.0
  0
VERTEX
  5
272EF
  8
0
 10
839.24057138326259
 20
319.6615597702376
 30
0.0
  0
VERTEX
  5
272F0
  8
0
 10
839.25543782997283
 20
320.90548746792678
 30
0.0
  0
SEQEND
  5
272F1
  8
0
  0
POLYLINE
  5
25B02
  8
0
 66
     1
 10
0.0
 20
0.0
 30
0.0
  0
VERTEX
  5
272F2
  8
0
 10
839.25543782997283
 20
320.90548746792678
 30
0.0
  0
VERTEX
  5
272F3
  8
0
 10
839.25041384651013
 20
321.6286537175497
 30
0.0
  0
VERTEX
  5
272F4
  8
0
 10
839.21022835511121
 20
323.07437434595067
 30
0.0
  0
VERTEX
  5
272F5
  8
0
 10
839.12989137324985
 20
324.51825987952088
 30
0.0
  0
VERTEX
  5
272F6
  8
0
 10
839.07468598933065
 20
325.23913262453061
 30
0.0
  0
VERTEX
  5
272F7
  8
0
 10
839.00947087403438
 20
325.95908864694729
 30
0.0
  0
VERTEX
  5
272F8
  8
0
 10
838.84906874522858
 20
327.3956415632469
 30
0.0
  0
VERTEX
  5
272F9
  8
0
 10
838.64882070304793
 20
328.82670316123358
 30
0.0
  0
VERTEX
  5
272FA
  8
0
 10
838.40889617732785
 20
330.2510626199246
 30
0.0
  0
VERTEX
  5
272FB
  8
0
 10
838.12949816816945
 20
331.66751478901602
 30
0.0
  0
VERTEX
  5
272FC
  8
0
 10
837.81086307418343
 20
333.07486120855992
 30
0.0
  0
VERTEX
  5
272FD
  8
0
 10
837.63691457870345
 20
333.77474732258543
 30
0.0
  0
VERTEX
  5
272FE
  8
0
 10
837.45326049246967
 20
334.47191112298242
 30
0.0
  0
VERTEX
  5
272FF
  8
0
 10
837.05699299051366
 20
335.85748248858141
 30
0.0
  0
VERTEX
  5
27300
  8
0
 10
836.62239585018415
 20
337.23040297365111
 30
0.0
  0
VERTEX
  5
27301
  8
0
 10
836.14983678404951
 20
338.58951095039492
 30
0.0
  0
VERTEX
  5
27302
  8
0
 10
835.63971562425911
 20
339.93365647777819
 30
0.0
  0
VERTEX
  5
27303
  8
0
 10
835.09246398424114
 20
341.26170227448978
 30
0.0
  0
VERTEX
  5
27304
  8
0
 10
834.80505771421394
 20
341.91933607211598
 30
0.0
  0
VERTEX
  5
27305
  8
0
 10
834.50854489351877
 20
342.57252468120078
 30
0.0
  0
VERTEX
  5
27306
  8
0
 10
833.88845240593855
 20
343.86501461128728
 30
0.0
  0
VERTEX
  5
27307
  8
0
 10
833.23271118165212
 20
345.13807848923261
 30
0.0
  0
VERTEX
  5
27308
  8
0
 10
832.89164450973385
 20
345.76698838560702
 30
0.0
  0
VERTEX
  5
27309
  8
0
 10
832.54187604320225
 20
346.3906391758988
 30
0.0
  0
VERTEX
  5
2730A
  8
0
 10
831.81653150608497
 20
347.6216368798942
 30
0.0
  0
VERTEX
  5
2730B
  8
0
 10
831.05729128419443
 20
348.83003005426463
 30
0.0
  0
VERTEX
  5
2730C
  8
0
 10
830.66515993370012
 20
349.42542966532937
 30
0.0
  0
VERTEX
  5
2730D
  8
0
 10
830.26479777055795
 20
350.0147962777433
 30
0.0
  0
VERTEX
  5
2730E
  8
0
 10
829.43972149380625
 20
351.17493311982389
 30
0.0
  0
VERTEX
  5
2730F
  8
0
 10
828.58276055084252
 20
352.30945898891468
 30
0.0
  0
VERTEX
  5
27310
  8
0
 10
827.6946400161786
 20
353.41741396286437
 30
0.0
  0
VERTEX
  5
27311
  8
0
 10
826.77611132845368
 20
354.49786060115139
 30
0.0
  0
VERTEX
  5
27312
  8
0
 10
825.82795165463915
 20
355.54988473805361
 30
0.0
  0
VERTEX
  5
27313
  8
0
 10
825.34300993633406
 20
356.06495924666109
 30
0.0
  0
VERTEX
  5
27314
  8
0
 10
824.85096323247899
 20
356.57259625612051
 30
0.0
  0
VERTEX
  5
27315
  8
0
 10
823.84597269171672
 20
357.56512983930588
 30
0.0
  0
VERTEX
  5
27316
  8
0
 10
822.81383035468377
 20
358.52664570510751
 30
0.0
  0
VERTEX
  5
27317
  8
0
 10
821.75540951684161
 20
359.45633031510988
 30
0.0
  0
VERTEX
  5
27318
  8
0
 10
820.6716057078869
 20
360.35339706331712
 30
0.0
  0
VERTEX
  5
27319
  8
0
 10
819.56333593404486
 20
361.21708694170047
 30
0.0
  0
VERTEX
  5
2731A
  8
0
 10
819.00031855664736
 20
361.63618606954742
 30
0.0
  0
VERTEX
  5
2731B
  8
0
 10
818.43153790218867
 20
362.04666918239673
 30
0.0
  0
VERTEX
  5
2731C
  8
0
 10
817.27716922644674
 20
362.8414418760081
 30
0.0
  0
VERTEX
  5
2731D
  8
0
 10
816.10120661796634
 20
363.60073256548873
 30
0.0
  0
VERTEX
  5
2731E
  8
0
 10
814.90464505851685
 20
364.32389881511148
 30
0.0
  0
VERTEX
  5
2731F
  8
0
 10
813.68849695863719
 20
365.01032875403189
 30
0.0
  0
VERTEX
  5
27320
  8
0
 10
812.4537913010339
 20
365.65944159399078
 30
0.0
  0
VERTEX
  5
27321
  8
0
 10
811.82980526265601
 20
365.9698312261512
 30
0.0
  0
VERTEX
  5
27322
  8
0
 10
811.20157276996224
 20
366.27068812072088
 30
0.0
  0
VERTEX
  5
27323
  8
0
 10
809.93290086731486
 20
366.84355115863718
 30
0.0
  0
VERTEX
  5
27324
  8
0
 10
808.64884901617916
 20
367.37754600841657
 30
0.0
  0
VERTEX
  5
27325
  8
0
 10
807.35050365261668
 20
367.87222085710528
 30
0.0
  0
VERTEX
  5
27326
  8
0
 10
806.0389633064259
 20
368.32715716039502
 30
0.0
  0
VERTEX
  5
27327
  8
0
 10
804.71533767167693
 20
368.7419699967536
 30
0.0
  0
VERTEX
  5
27328
  8
0
 10
804.04934247234269
 20
368.9342191013198
 30
0.0
  0
VERTEX
  5
27329
  8
0
 10
803.38074666780301
 20
369.11630839310919
 30
0.0
  0
VERTEX
  5
2732A
  8
0
 10
802.03631949203282
 20
369.44985562180591
 30
0.0
  0
VERTEX
  5
2732B
  8
0
 10
800.68319366397816
 20
369.7423294685882
 30
0.0
  0
VERTEX
  5
2732C
  8
0
 10
799.32251406318017
 20
369.99348247138278
 30
0.0
  0
VERTEX
  5
2732D
  8
0
 10
797.95543196042524
 20
370.2031021296753
 30
0.0
  0
VERTEX
  5
2732E
  8
0
 10
796.58310404365602
 20
370.3710110843067
 30
0.0
  0
VERTEX
  5
2732F
  8
0
 10
795.89533561048665
 20
370.43927826951858
 30
0.0
  0
VERTEX
  5
27330
  8
0
 10
795.20669143929661
 20
370.49706726753863
 30
0.0
  0
VERTEX
  5
27331
  8
0
 10
793.8273587298263
 20
370.58116402325459
 30
0.0
  0
VERTEX
  5
27332
  8
0
 10
792.44627296842282
 20
370.62323019720452
 30
0.0
  0
VERTEX
  5
27333
  8
0
 10
791.75543782997283
 20
370.62848930328659
 30
0.0
  0
VERTEX
  5
27334
  8
0
 10
791.06460269152285
 20
370.62323019720452
 30
0.0
  0
VERTEX
  5
27335
  8
0
 10
789.68351693011925
 20
370.58116402325459
 30
0.0
  0
VERTEX
  5
27336
  8
0
 10
788.30418422064895
 20
370.49706726753863
 30
0.0
  0
VERTEX
  5
27337
  8
0
 10
787.61554004945901
 20
370.43927826951858
 30
0.0
  0
VERTEX
  5
27338
  8
0
 10
786.92777161628965
 20
370.3710110843067
 30
0.0
  0
VERTEX
  5
27339
  8
0
 10
785.55544369952031
 20
370.2031021296753
 30
0.0
  0
VERTEX
  5
2733A
  8
0
 10
784.18836159676528
 20
369.99348247138278
 30
0.0
  0
VERTEX
  5
2733B
  8
0
 10
782.8276819959674
 20
369.7423294685882
 30
0.0
  0
VERTEX
  5
2733C
  8
0
 10
781.47455616791285
 20
369.44985562180591
 30
0.0
  0
VERTEX
  5
2733D
  8
0
 10
780.13012899214255
 20
369.11630839310919
 30
0.0
  0
VERTEX
  5
2733E
  8
0
 10
779.46153318760298
 20
368.9342191013198
 30
0.0
  0
VERTEX
  5
2733F
  8
0
 10
778.79553798826873
 20
368.7419699967536
 30
0.0
  0
VERTEX
  5
27340
  8
0
 10
777.47191235351966
 20
368.32715716039502
 30
0.0
  0
VERTEX
  5
27341
  8
0
 10
776.16037200732853
 20
367.87222085710528
 30
0.0
  0
VERTEX
  5
27342
  8
0
 10
774.86202664376606
 20
367.37754600841657
 30
0.0
  0
VERTEX
  5
27343
  8
0
 10
773.57797479263081
 20
366.84355115863718
 30
0.0
  0
VERTEX
  5
27344
  8
0
 10
772.30930288998343
 20
366.27068812072088
 30
0.0
  0
VERTEX
  5
27345
  8
0
 10
771.68107039728955
 20
365.9698312261512
 30
0.0
  0
VERTEX
  5
27346
  8
0
 10
771.05708435891165
 20
365.65944159399078
 30
0.0
  0
VERTEX
  5
27347
  8
0
 10
769.82237870130848
 20
365.01032875403189
 30
0.0
  0
VERTEX
  5
27348
  8
0
 10
768.60623060142871
 20
364.32389881511148
 30
0.0
  0
VERTEX
  5
27349
  8
0
 10
767.40966904197921
 20
363.60073256548873
 30
0.0
  0
VERTEX
  5
2734A
  8
0
 10
766.2337064334987
 20
362.8414418760081
 30
0.0
  0
VERTEX
  5
2734B
  8
0
 10
765.079337757757
 20
362.04666918239673
 30
0.0
  0
VERTEX
  5
2734C
  8
0
 10
764.51055710329808
 20
361.63618606954742
 30
0.0
  0
VERTEX
  5
2734D
  8
0
 10
763.9475397259007
 20
361.21708694170047
 30
0.0
  0
VERTEX
  5
2734E
  8
0
 10
762.83926995205866
 20
360.35339706331712
 30
0.0
  0
VERTEX
  5
2734F
  8
0
 10
761.75546614310394
 20
359.45633031510988
 30
0.0
  0
VERTEX
  5
27350
  8
0
 10
760.69704530526178
 20
358.52664570510751
 30
0.0
  0
VERTEX
  5
27351
  8
0
 10
759.66490296822894
 20
357.56512983930588
 30
0.0
  0
VERTEX
  5
27352
  8
0
 10
758.65991242746657
 20
356.57259625612051
 30
0.0
  0
VERTEX
  5
27353
  8
0
 10
758.16786572361161
 20
356.06495924666109
 30
0.0
  0
VERTEX
  5
27354
  8
0
 10
757.68292400530663
 20
355.54988473805361
 30
0.0
  0
VERTEX
  5
27355
  8
0
 10
756.73476433149199
 20
354.49786060115139
 30
0.0
  0
VERTEX
  5
27356
  8
0
 10
755.81623564376684
 20
353.41741396286437
 30
0.0
  0
VERTEX
  5
27357
  8
0
 10
754.92811510910315
 20
352.30945898891468
 30
0.0
  0
VERTEX
  5
27358
  8
0
 10
754.07115416613942
 20
351.17493311982389
 30
0.0
  0
VERTEX
  5
27359
  8
0
 10
753.24607788938783
 20
350.0147962777433
 30
0.0
  0
VERTEX
  5
2735A
  8
0
 10
752.84571572624554
 20
349.42542966532937
 30
0.0
  0
VERTEX
  5
2735B
  8
0
 10
752.45358437575123
 20
348.83003005426463
 30
0.0
  0
VERTEX
  5
2735C
  8
0
 10
751.69434415386058
 20
347.6216368798942
 30
0.0
  0
VERTEX
  5
2735D
  8
0
 10
750.96899961674353
 20
346.3906391758988
 30
0.0
  0
VERTEX
  5
2735E
  8
0
 10
750.61923115021182
 20
345.76698838560702
 30
0.0
  0
VERTEX
  5
2735F
  8
0
 10
750.27816447829355
 20
345.13807848923261
 30
0.0
  0
VERTEX
  5
27360
  8
0
 10
749.62242325400712
 20
343.86501461128728
 30
0.0
  0
VERTEX
  5
27361
  8
0
 10
749.00233076642689
 20
342.57252468120078
 30
0.0
  0
VERTEX
  5
27362
  8
0
 10
748.70581794573172
 20
341.91933607211649
 30
0.0
  0
VERTEX
  5
27363
  8
0
 10
748.41841167570465
 20
341.26170227448978
 30
0.0
  0
VERTEX
  5
27364
  8
0
 10
747.87116003568644
 20
339.93365647777819
 30
0.0
  0
VERTEX
  5
27365
  8
0
 10
747.36103887589616
 20
338.58951095039492
 30
0.0
  0
VERTEX
  5
27366
  8
0
 10
746.88847980976152
 20
337.23040297365111
 30
0.0
  0
VERTEX
  5
27367
  8
0
 10
746.45388266943201
 20
335.85748248858141
 30
0.0
  0
VERTEX
  5
27368
  8
0
 10
746.05761516747634
 20
334.47191112298242
 30
0.0
  0
VERTEX
  5
27369
  8
0
 10
745.87396108124221
 20
333.77474732258543
 30
0.0
  0
VERTEX
  5
2736A
  8
0
 10
745.70001258576212
 20
333.07486120855992
 30
0.0
  0
VERTEX
  5
2736B
  8
0
 10
745.38137749177622
 20
331.66751478901551
 30
0.0
  0
VERTEX
  5
2736C
  8
0
 10
745.10197948261793
 20
330.2510626199246
 30
0.0
  0
VERTEX
  5
2736D
  8
0
 10
744.86205495689774
 20
328.82670316123358
 30
0.0
  0
VERTEX
  5
2736E
  8
0
 10
744.66180691471698
 20
327.3956415632469
 30
0.0
  0
VERTEX
  5
2736F
  8
0
 10
744.50140478591118
 20
325.95908864694729
 30
0.0
  0
VERTEX
  5
27370
  8
0
 10
744.43618967061502
 20
325.23913262453061
 30
0.0
  0
VERTEX
  5
27371
  8
0
 10
744.38098428669582
 20
324.51825987952088
 30
0.0
  0
VERTEX
  5
27372
  8
0
 10
744.30064730483446
 20
323.07437434595067
 30
0.0
  0
VERTEX
  5
27373
  8
0
 10
744.26046181343509
 20
321.6286537175497
 30
0.0
  0
VERTEX
  5
27374
  8
0
 10
744.25543782997283
 20
320.90548746792678
 30
0.0
  0
SEQEND
  5
27375
  8
0
  0
POLYLINE
  5
25B03
  8
0
 66
     1
 10
0.0
 20
0.0
 30
0.0
  0
VERTEX
  5
27376
  8
0
 10
744.25543782997283
 20
320.90548746792678
 30
0.0
  0
VERTEX
  5
27377
  8
0
 10
744.27030427668285
 20
319.6615597702376
 30
0.0
  0
VERTEX
  5
27378
  8
0
 10
744.38918002177115
 20
317.17681846174992
 30
0.0
  0
VERTEX
  5
27379
  8
0
 10
744.62663391474769
 20
314.70141161803349
 30
0.0
  0
VERTEX
  5
2737A
  8
0
 10
744.78965346142468
 20
313.46914652358919
 30
0.0
  0
VERTEX
  5
2737B
  8
0
 10
744.98207150622829
 20
312.24153624878141
 30
0.0
  0
VERTEX
  5
2737C
  8
0
 10
745.45460298280329
 20
309.80335048171668
 30
0.0
  0
VERTEX
  5
2737D
  8
0
 10
746.04304539462964
 20
307.39295814614439
 30
0.0
  0
VERTEX
  5
2737E
  8
0
 10
746.74592561685847
 20
305.01639349243669
 30
0.0
  0
VERTEX
  5
2737F
  8
0
 10
747.56148403750467
 20
302.67960608570678
 30
0.0
  0
VERTEX
  5
27380
  8
0
 10
748.48767896251229
 20
300.3884459114829
 30
0.0
  0
VERTEX
  5
27381
  8
0
 10
748.99155119650595
 20
299.26177331848839
 30
0.0
  0
VERTEX
  5
27382
  8
0
 10
749.52219172699461
 20
298.14864873067381
 30
0.0
  0
VERTEX
  5
27383
  8
0
 10
750.662432499852
 20
295.96582172049142
 30
0.0
  0
VERTEX
  5
27384
  8
0
 10
751.90554676723229
 20
293.84542943726728
 30
0.0
  0
VERTEX
  5
27385
  8
0
 10
753.2484224786117
 20
291.7927801363162
 30
0.0
  0
VERTEX
  5
27386
  8
0
 10
754.68769783759615
 20
289.813012483085
 30
0.0
  0
VERTEX
  5
27387
  8
0
 10
756.21976971794618
 20
287.91108268886143
 30
0.0
  0
VERTEX
  5
27388
  8
0
 10
757.01941459583304
 20
286.99080285180747
 30
0.0
  0
VERTEX
  5
27389
  8
0
 10
757.8408026837551
 20
286.09175210323968
 30
0.0
  0
VERTEX
  5
2738A
  8
0
 10
759.5467385911943
 20
284.35957529441248
 30
0.0
  0
VERTEX
  5
2738B
  8
0
 10
761.33330674779882
 20
282.71888864712628
 30
0.0
  0
VERTEX
  5
2738C
  8
0
 10
762.25543782997283
 20
281.93414691155891
 30
0.0
  0
SEQEND
  5
2738D
  8
0
  0
POLYLINE
  5
25B05
  8
0
 66
     1
 10
0.0
 20
0.0
 30
0.0
  0
VERTEX
  5
2738E
  8
0
 10
825.75543782997283
 20
280.41380600569261
 30
0.0
  0
VERTEX
  5
2738F
  8
0
 10
826.65889128913113
 20
281.26507683778073
 30
0.0
  0
VERTEX
  5
27390
  8
0
 10
828.40697261222965
 20
283.03338182541353
 30
0.0
  0
VERTEX
  5
27391
  8
0
 10
830.07339245728508
 20
284.88606778486019
 30
0.0
  0
VERTEX
  5
27392
  8
0
 10
830.87481171800664
 20
285.84277076229552
 30
0.0
  0
VERTEX
  5
27393
  8
0
 10
831.65443795638021
 20
286.8190068378558
 30
0.0
  0
VERTEX
  5
27394
  8
0
 10
833.14658645996985
 20
288.82789229817359
 30
0.0
  0
VERTEX
  5
27395
  8
0
 10
834.54651338552446
 20
290.90824826714021
 30
0.0
  0
VERTEX
  5
27396
  8
0
 10
835.85109962486501
 20
293.05543960616433
 30
0.0
  0
VERTEX
  5
27397
  8
0
 10
837.05743849369628
 20
295.26468226406217
 30
0.0
  0
VERTEX
  5
27398
  8
0
 10
838.16284220784735
 20
297.53105393616403
 30
0.0
  0
VERTEX
  5
27399
  8
0
 10
838.67691478882386
 20
298.68408982166511
 30
0.0
  0
VERTEX
  5
2739A
  8
0
 10
839.16484787178877
 20
299.84950503145961
 30
0.0
  0
VERTEX
  5
2739B
  8
0
 10
840.06122296609135
 20
302.21486992334349
 30
0.0
  0
VERTEX
  5
2739C
  8
0
 10
840.84997032159106
 20
304.6218784588923
 30
0.0
  0
VERTEX
  5
2739D
  8
0
 10
841.52933256918413
 20
307.06516770103241
 30
0.0
  0
VERTEX
  5
2739E
  8
0
 10
842.0977960553322
 20
309.53929387743671
 30
0.0
  0
VERTEX
  5
2739F
  8
0
 10
842.55409421456295
 20
312.03874450952429
 30
0.0
  0
VERTEX
  5
273A0
  8
0
 10
842.739853763881
 20
313.29622807987153
 30
0.0
  0
VERTEX
  5
273A1
  8
0
 10
842.89721039143933
 20
314.55795069454422
 30
0.0
  0
VERTEX
  5
273A2
  8
0
 10
843.12638010572016
 20
317.09129951336939
 30
0.0
  0
VERTEX
  5
273A3
  8
0
 10
843.24109275566059
 20
319.63314653636962
 30
0.0
  0
VERTEX
  5
273A4
  8
0
 10
843.25543782997283
 20
320.90548746792678
 30
0.0
  0
SEQEND
  5
273A5
  8
0
  0
POLYLINE
  5
25B06
  8
0
 66
     1
 10
0.0
 20
0.0
 30
0.0
  0
VERTEX
  5
273A6
  8
0
 10
843.25543782997283
 20
320.90548746792678
 30
0.0
  0
VERTEX
  5
273A7
  8
0
 10
843.24999077421899
 20
321.68955192804418
 30
0.0
  0
VERTEX
  5
273A8
  8
0
 10
843.20642124143853
 20
323.25701745146853
 30
0.0
  0
VERTEX
  5
273A9
  8
0
 10
843.11931904005223
 20
324.82249334575999
 30
0.0
  0
VERTEX
  5
273AA
  8
0
 10
843.0594647816979
 20
325.60407116403439
 30
0.0
  0
VERTEX
  5
273AB
  8
0
 10
842.98875786721885
 20
326.38465506202277
 30
0.0
  0
VERTEX
  5
273AC
  8
0
 10
842.81484819072375
 20
327.94218085548442
 30
0.0
  0
VERTEX
  5
273AD
  8
0
 10
842.59773715551728
 20
329.4937529038279
 30
0.0
  0
VERTEX
  5
273AE
  8
0
 10
842.33760845921006
 20
331.03805842219799
 30
0.0
  0
VERTEX
  5
273AF
  8
0
 10
842.03468219664956
 20
332.57379077394938
 30
0.0
  0
VERTEX
  5
273B0
  8
0
 10
841.68921467369591
 20
334.09965057619178
 30
0.0
  0
VERTEX
  5
273B1
  8
0
 10
841.50061788385995
 20
334.85847446824118
 30
0.0
  0
VERTEX
  5
273B2
  8
0
 10
841.30149819036387
 20
335.61434679919779
 30
0.0
  0
VERTEX
  5
273B3
  8
0
 10
840.87186079350658
 20
337.1165978587415
 30
0.0
  0
VERTEX
  5
273B4
  8
0
 10
840.40066599925456
 20
338.60513270044879
 30
0.0
  0
VERTEX
  5
273B5
  8
0
 10
839.88831248544545
 20
340.07869187523471
 30
0.0
  0
VERTEX
  5
273B6
  8
0
 10
839.33523375430366
 20
341.53602860492362
 30
0.0
  0
VERTEX
  5
273B7
  8
0
 10
838.74189776565299
 20
342.97590983714781
 30
0.0
  0
VERTEX
  5
273B8
  8
0
 10
838.43028886236004
 20
343.68892332299538
 30
0.0
  0
VERTEX
  5
273B9
  8
0
 10
838.1088065409748
 20
344.39711728863449
 30
0.0
  0
VERTEX
  5
273BA
  8
0
 10
837.43649573865139
 20
345.79844847599128
 30
0.0
  0
VERTEX
  5
273BB
  8
0
 10
836.72553420074098
 20
347.17871773313209
 30
0.0
  0
VERTEX
  5
273BC
  8
0
 10
836.35574612487153
 20
347.86058846288512
 30
0.0
  0
VERTEX
  5
273BD
  8
0
 10
835.97652347168423
 20
348.53675721446461
 30
0.0
  0
VERTEX
  5
273BE
  8
0
 10
835.19009728933622
 20
349.87141788300733
 30
0.0
  0
VERTEX
  5
273BF
  8
0
 10
834.36692104876056
 20
351.18157048258757
 30
0.0
  0
VERTEX
  5
273C0
  8
0
 10
833.94176811085617
 20
351.82710900826851
 30
0.0
  0
VERTEX
  5
273C1
  8
0
 10
833.50769123923885
 20
352.466106493307
 30
0.0
  0
VERTEX
  5
273C2
  8
0
 10
832.61313485497146
 20
353.72393906945717
 30
0.0
  0
VERTEX
  5
273C3
  8
0
 10
831.68400877996828
 20
354.95400395910292
 30
0.0
  0
VERTEX
  5
273C4
  8
0
 10
830.7210991476486
 20
356.1552604045433
 30
0.0
  0
VERTEX
  5
273C5
  8
0
 10
829.72522067569378
 20
357.32669202289662
 30
0.0
  0
VERTEX
  5
273C6
  8
0
 10
828.69721597671651
 20
358.4673076660643
 30
0.0
  0
VERTEX
  5
273C7
  8
0
 10
828.17143706107981
 20
359.02575687013359
 30
0.0
  0
VERTEX
  5
273C8
  8
0
 10
827.63795484532147
 20
359.5761422593369
 30
0.0
  0
VERTEX
  5
273C9
  8
0
 10
826.54833352217929
 20
360.65225761794858
 30
0.0
  0
VERTEX
  5
273CA
  8
0
 10
825.42927393571199
 20
361.69474324087008
 30
0.0
  0
VERTEX
  5
273CB
  8
0
 10
824.28172292205124
 20
362.7027170811885
 30
0.0
  0
VERTEX
  5
273CC
  8
0
 10
823.10665142392179
 20
363.67532629240259
 30
0.0
  0
VERTEX
  5
273CD
  8
0
 10
821.90505366912475
 20
364.61174795001853
 30
0.0
  0
VERTEX
  5
273CE
  8
0
 10
821.29462430205137
 20
365.06613963599972
 30
0.0
  0
VERTEX
  5
273CF
  8
0
 10
820.67794632932282
 20
365.51118974782588
 30
0.0
  0
VERTEX
  5
273D0
  8
0
 10
819.42636765983423
 20
366.37289066826719
 30
0.0
  0
VERTEX
  5
273D1
  8
0
 10
818.15137662116558
 20
367.19612162633621
 30
0.0
  0
VERTEX
  5
273D2
  8
0
 10
816.85405198302567
 20
367.98018608645361
 30
0.0
  0
VERTEX
  5
273D3
  8
0
 10
815.5354914115768
 20
368.72442065180888
 30
0.0
  0
VERTEX
  5
273D4
  8
0
 10
814.19681054070224
 20
369.4281956256591
 30
0.0
  0
VERTEX
  5
273D5
  8
0
 10
813.52027830961879
 20
369.76472333210722
 30
0.0
  0
VERTEX
  5
273D6
  8
0
 10
812.8391420280667
 20
370.09091554411413
 30
0.0
  0
VERTEX
  5
273D7
  8
0
 10
811.46363459677468
 20
370.71201967996012
 30
0.0
  0
VERTEX
  5
273D8
  8
0
 10
810.07145206343921
 20
371.29098251708962
 30
0.0
  0
VERTEX
  5
273D9
  8
0
 10
808.66377235347136
 20
371.82731419514181
 30
0.0
  0
VERTEX
  5
273DA
  8
0
 10
807.24178650444264
 20
372.32056092397119
 30
0.0
  0
VERTEX
  5
273DB
  8
0
 10
805.80669765834682
 20
372.7703053676023
 30
0.0
  0
VERTEX
  5
273DC
  8
0
 10
805.0846186527524
 20
372.97874387044749
 30
0.0
  0
VERTEX
  5
273DD
  8
0
 10
804.35972004362065
 20
373.1761669973352
 30
0.0
  0
VERTEX
  5
273DE
  8
0
 10
802.90207794778496
 20
373.53780241371169
 30
0.0
  0
VERTEX
  5
273DF
  8
0
 10
801.43500468157845
 20
373.8549056370652
 30
0.0
  0
VERTEX
  5
273E0
  8
0
 10
799.95974153545012
 20
374.1272083664108
 30
0.0
  0
VERTEX
  5
273E1
  8
0
 10
798.47753672930537
 20
374.3544802064539
 30
0.0
  0
VERTEX
  5
273E2
  8
0
 10
796.98964435638709
 20
374.53652886252797
 30
0.0
  0
VERTEX
  5
273E3
  8
0
 10
796.24395858147716
 20
374.610544863337
 30
0.0
  0
VERTEX
  5
273E4
  8
0
 10
795.49732332218707
 20
374.67320030329529
 30
0.0
  0
VERTEX
  5
273E5
  8
0
 10
794.00183627928755
 20
374.76437889107177
 30
0.0
  0
VERTEX
  5
273E6
  8
0
 10
792.50444855902924
 20
374.80998747966993
 30
0.0
  0
VERTEX
  5
273E7
  8
0
 10
791.75543782997283
 20
374.81568945784369
 30
0.0
  0
VERTEX
  5
273E8
  8
0
 10
791.00642710091643
 20
374.80998747966993
 30
0.0
  0
VERTEX
  5
273E9
  8
0
 10
789.50903938065812
 20
374.76437889107177
 30
0.0
  0
VERTEX
  5
273EA
  8
0
 10
788.01355233775837
 20
374.67320030329529
 30
0.0
  0
VERTEX
  5
273EB
  8
0
 10
787.2669170784684
 20
374.610544863337
 30
0.0
  0
VERTEX
  5
273EC
  8
0
 10
786.52123130355847
 20
374.53652886252797
 30
0.0
  0
VERTEX
  5
273ED
  8
0
 10
785.03333893064018
 20
374.3544802064539
 30
0.0
  0
VERTEX
  5
273EE
  8
0
 10
783.55113412449555
 20
374.1272083664108
 30
0.0
  0
VERTEX
  5
273EF
  8
0
 10
782.07587097836665
 20
373.8549056370652
 30
0.0
  0
VERTEX
  5
273F0
  8
0
 10
780.60879771216059
 20
373.53780241371169
 30
0.0
  0
VERTEX
  5
273F1
  8
0
 10
779.15115561632501
 20
373.1761669973352
 30
0.0
  0
VERTEX
  5
273F2
  8
0
 10
778.42625700719316
 20
372.97874387044749
 30
0.0
  0
VERTEX
  5
273F3
  8
0
 10
777.70417800159885
 20
372.7703053676023
 30
0.0
  0
VERTEX
  5
273F4
  8
0
 10
776.26908915550302
 20
372.32056092397119
 30
0.0
  0
VERTEX
  5
273F5
  8
0
 10
774.84710330647431
 20
371.82731419514181
 30
0.0
  0
VERTEX
  5
273F6
  8
0
 10
773.43942359650634
 20
371.29098251708962
 30
0.0
  0
VERTEX
  5
273F7
  8
0
 10
772.04724106317087
 20
370.71201967996012
 30
0.0
  0
VERTEX
  5
273F8
  8
0
 10
770.67173363187885
 20
370.09091554411413
 30
0.0
  0
VERTEX
  5
273F9
  8
0
 10
769.99059735032688
 20
369.76472333210722
 30
0.0
  0
VERTEX
  5
273FA
  8
0
 10
769.31406511924342
 20
369.4281956256591
 30
0.0
  0
VERTEX
  5
273FB
  8
0
 10
767.97538424836875
 20
368.72442065180888
 30
0.0
  0
VERTEX
  5
273FC
  8
0
 10
766.65682367691977
 20
367.98018608645361
 30
0.0
  0
VERTEX
  5
273FD
  8
0
 10
765.35949903877963
 20
367.19612162633621
 30
0.0
  0
VERTEX
  5
273FE
  8
0
 10
764.08450800011133
 20
366.37289066826719
 30
0.0
  0
VERTEX
  5
273FF
  8
0
 10
762.83292933062285
 20
365.51118974782588
 30
0.0
  0
VERTEX
  5
27400
  8
0
 10
762.21625135789418
 20
365.06613963599972
 30
0.0
  0
VERTEX
  5
27401
  8
0
 10
761.60582199082091
 20
364.61174795001853
 30
0.0
  0
VERTEX
  5
27402
  8
0
 10
760.40422423602365
 20
363.67532629240259
 30
0.0
  0
VERTEX
  5
27403
  8
0
 10
759.22915273789431
 20
362.7027170811885
 30
0.0
  0
VERTEX
  5
27404
  8
0
 10
758.08160172423356
 20
361.69474324087008
 30
0.0
  0
VERTEX
  5
27405
  8
0
 10
756.96254213776626
 20
360.65225761794858
 30
0.0
  0
VERTEX
  5
27406
  8
0
 10
755.87292081462419
 20
359.5761422593369
 30
0.0
  0
VERTEX
  5
27407
  8
0
 10
755.33943859886585
 20
359.02575687013359
 30
0.0
  0
VERTEX
  5
27408
  8
0
 10
754.81365968322905
 20
358.4673076660643
 30
0.0
  0
VERTEX
  5
27409
  8
0
 10
753.78565498425132
 20
357.32669202289662
 30
0.0
  0
VERTEX
  5
2740A
  8
0
 10
752.78977651229695
 20
356.1552604045433
 30
0.0
  0
VERTEX
  5
2740B
  8
0
 10
751.82686687997727
 20
354.95400395910292
 30
0.0
  0
VERTEX
  5
2740C
  8
0
 10
750.89774080497409
 20
353.72393906945717
 30
0.0
  0
VERTEX
  5
2740D
  8
0
 10
750.00318442070693
 20
352.466106493307
 30
0.0
  0
VERTEX
  5
2740E
  8
0
 10
749.56910754908949
 20
351.82710900826851
 30
0.0
  0
VERTEX
  5
2740F
  8
0
 10
749.14395461118511
 20
351.18157048258757
 30
0.0
  0
VERTEX
  5
27410
  8
0
 10
748.32077837060933
 20
349.87141788300733
 30
0.0
  0
VERTEX
  5
27411
  8
0
 10
747.53435218826144
 20
348.53675721446461
 30
0.0
  0
VERTEX
  5
27412
  8
0
 10
747.15512953507414
 20
347.86058846288512
 30
0.0
  0
VERTEX
  5
27413
  8
0
 10
746.78534145920446
 20
347.17871773313209
 30
0.0
  0
VERTEX
  5
27414
  8
0
 10
746.07437992129405
 20
345.79844847599128
 30
0.0
  0
VERTEX
  5
27415
  8
0
 10
745.40206911897076
 20
344.39711728863449
 30
0.0
  0
VERTEX
  5
27416
  8
0
 10
745.08058679758551
 20
343.68892332299538
 30
0.0
  0
VERTEX
  5
27417
  8
0
 10
744.76897789429256
 20
342.97590983714781
 30
0.0
  0
VERTEX
  5
27418
  8
0
 10
744.17564190564144
 20
341.53602860492362
 30
0.0
  0
VERTEX
  5
27419
  8
0
 10
743.6225631745001
 20
340.07869187523471
 30
0.0
  0
VERTEX
  5
2741A
  8
0
 10
743.110209660691
 20
338.60513270044879
 30
0.0
  0
VERTEX
  5
2741B
  8
0
 10
742.63901486643897
 20
337.1165978587415
 30
0.0
  0
VERTEX
  5
2741C
  8
0
 10
742.20937746958168
 20
335.61434679919779
 30
0.0
  0
VERTEX
  5
2741D
  8
0
 10
742.01025777608584
 20
334.85847446824118
 30
0.0
  0
VERTEX
  5
2741E
  8
0
 10
741.82166098624975
 20
334.09965057619178
 30
0.0
  0
VERTEX
  5
2741F
  8
0
 10
741.47619346329611
 20
332.57379077394938
 30
0.0
  0
VERTEX
  5
27420
  8
0
 10
741.17326720073561
 20
331.03805842219799
 30
0.0
  0
VERTEX
  5
27421
  8
0
 10
740.91313850442828
 20
329.4937529038279
 30
0.0
  0
VERTEX
  5
27422
  8
0
 10
740.69602746922135
 20
327.94218085548442
 30
0.0
  0
VERTEX
  5
27423
  8
0
 10
740.52211779272693
 20
326.38465506202277
 30
0.0
  0
VERTEX
  5
27424
  8
0
 10
740.45141087824766
 20
325.60407116403439
 30
0.0
  0
VERTEX
  5
27425
  8
0
 10
740.39155661989344
 20
324.82249334575999
 30
0.0
  0
VERTEX
  5
27426
  8
0
 10
740.30445441850725
 20
323.25701745146853
 30
0.0
  0
VERTEX
  5
27427
  8
0
 10
740.26088488572657
 20
321.68955192804418
 30
0.0
  0
VERTEX
  5
27428
  8
0
 10
740.25543782997283
 20
320.90548746792678
 30
0.0
  0
SEQEND
  5
27429
  8
0
  0
POLYLINE
  5
25B07
  8
0
 66
     1
 10
0.0
 20
0.0
 30
0.0
  0
VERTEX
  5
2742A
  8
0
 10
740.25543782997283
 20
320.90548746792678
 30
0.0
  0
VERTEX
  5
2742B
  8
0
 10
740.26978290428497
 20
319.63314653636962
 30
0.0
  0
VERTEX
  5
2742C
  8
0
 10
740.38449555422585
 20
317.09129951336939
 30
0.0
  0
VERTEX
  5
2742D
  8
0
 10
740.61366526850634
 20
314.55795069454371
 30
0.0
  0
VERTEX
  5
2742E
  8
0
 10
740.77102189606421
 20
313.29622807987153
 30
0.0
  0
VERTEX
  5
2742F
  8
0
 10
740.9567814453826
 20
312.03874450952429
 30
0.0
  0
VERTEX
  5
27430
  8
0
 10
741.41307960461336
 20
309.53929387743671
 30
0.0
  0
VERTEX
  5
27431
  8
0
 10
741.98154309076153
 20
307.06516770103241
 30
0.0
  0
VERTEX
  5
27432
  8
0
 10
742.66090533835438
 20
304.6218784588923
 30
0.0
  0
VERTEX
  5
27433
  8
0
 10
743.44965269385409
 20
302.21486992334349
 30
0.0
  0
VERTEX
  5
27434
  8
0
 10
744.34602778815679
 20
299.84950503145961
 30
0.0
  0
VERTEX
  5
27435
  8
0
 10
744.83396087112169
 20
298.68408982166511
 30
0.0
  0
VERTEX
  5
27436
  8
0
 10
745.34803345209821
 20
297.53105393616403
 30
0.0
  0
VERTEX
  5
27437
  8
0
 10
746.45343716624939
 20
295.26468226406217
 30
0.0
  0
VERTEX
  5
27438
  8
0
 10
747.65977603508054
 20
293.05543960616433
 30
0.0
  0
VERTEX
  5
27439
  8
0
 10
748.96436227442098
 20
290.90824826714021
 30
0.0
  0
VERTEX
  5
2743A
  8
0
 10
750.36428919997559
 20
288.82789229817359
 30
0.0
  0
VERTEX
  5
2743B
  8
0
 10
751.85643770356535
 20
286.8190068378558
 30
0.0
  0
VERTEX
  5
2743C
  8
0
 10
752.63606394193903
 20
285.84277076229552
 30
0.0
  0
VERTEX
  5
2743D
  8
0
 10
753.43748320266059
 20
284.88606778486019
 30
0.0
  0
VERTEX
  5
2743E
  8
0
 10
755.10390304771579
 20
283.03338182541353
 30
0.0
  0
VERTEX
  5
2743F
  8
0
 10
756.85198437081453
 20
281.26507683778033
 30
0.0
  0
VERTEX
  5
27440
  8
0
 10
757.75543782997283
 20
280.41380600569261
 30
0.0
  0
SEQEND
  5
27441
  8
0
  0
LINE
  5
25B09
  8
0
 10
821.25543782997283
 20
271.68149017266802
 30
0.0
 11
821.25543782997283
 21
359.87689077611731
 31
0.0
  0
LINE
  5
25B0A
  8
0
 10
757.75543782997283
 20
280.41380600569261
 30
0.0
 11
757.75543782997283
 21
271.68149017266802
 31
0.0
  0
LINE
  5
25B0B
  8
0
 10
762.25543782997283
 20
359.87689077611731
 30
0.0
 11
762.25543782997283
 21
271.68149017266802
 31
0.0
  0
LINE
  5
25B0C
  8
0
 10
794.75543782997283
 20
192.68149017266791
 30
0.0
 11
788.75543782997283
 21
192.68149017266791
 31
0.0
  0
ARC
  5
25B0D
  8
0
 10
788.75543782997283
 20
192.98149017266809
 30
0.0
 40
0.3000000000000114
 50
180.0
 51
270.0
  0
LINE
  5
25B0E
  8
0
 10
788.45543782997265
 20
192.98149017266809
 30
0.0
 11
786.05543782997302
 21
192.98149017266809
 31
0.0
  0
ARC
  5
25B0F
  8
0
 10
785.75543782997283
 20
192.98149017266809
 30
0.0
 40
0.3000000000000034
 50
270.0
 51
0.0
  0
LINE
  5
25B10
  8
0
 10
785.75543782997283
 20
192.68149017266791
 30
0.0
 11
782.36452497629762
 21
192.68149017266791
 31
0.0
  0
ARC
  5
25B11
  8
0
 10
782.36452497629762
 20
193.68149017266791
 30
0.0
 40
1.0
 50
198.99999999998761
 51
270.0
  0
LINE
  5
25B12
  8
0
 10
778.61677914238862
 20
363.86879944182277
 30
0.0
 11
780.45254096208282
 21
369.20023888739979
 31
0.0
  0
LINE
  5
25B13
  8
0
 10
781.41900640069844
 20
193.355922018211
 30
0.0
 11
778.61677914238862
 21
201.4941809035131
 31
0.0
  0
ARC
  5
25B14
  8
0
 10
781.45333486918696
 20
202.47088536688489
 30
0.0
 40
3.0000000000001701
 50
179.99999914622629
 51
198.99999999998761
  0
ARC
  5
25B15
  8
0
 10
781.45333486918696
 20
362.89209497845098
 30
0.0
 40
3.0000000000001719
 50
161.00000000001231
 51
179.99999914622629
  0
ARC
  5
25B16
  8
0
 10
777.70333486918662
 20
204.1470156978971
 30
0.0
 40
0.75
 50
180.0
 51
0.0
  0
ARC
  5
25B17
  8
0
 10
777.70333486918662
 20
361.2159646474388
 30
0.0
 40
0.75
 50
0.0
 51
180.0
  0
ARC
  5
25B18
  8
0
 10
776.20333486918662
 20
208.5033320144112
 30
0.0
 40
0.7499999999999983
 50
180.0
 51
0.0
  0
ARC
  5
25B19
  8
0
 10
776.20333486918662
 20
356.85964833092481
 30
0.0
 40
0.75
 50
0.0
 51
180.0
  0
LINE
  5
25B1A
  8
0
 10
769.41888210317484
 20
337.15616680879521
 30
0.0
 11
775.45333486918651
 21
354.68149017266802
 31
0.0
  0
LINE
  5
25B1B
  8
0
 10
775.45333486918651
 20
210.68149017266791
 30
0.0
 11
769.41888210317484
 21
228.20681353654069
 31
0.0
  0
ARC
  5
25B1C
  8
0
 10
772.25543782997283
 20
229.18351799991211
 30
0.0
 40
2.9999999999999392
 50
180.0
 51
198.99999999998761
  0
ARC
  5
25B1D
  8
0
 10
772.25543782997283
 20
336.17946234542387
 30
0.0
 40
2.9999999999999361
 50
161.00000000001231
 51
179.99999914622629
  0
ARC
  5
25B1E
  8
0
 10
811.25543782997283
 20
229.18351799991211
 30
0.0
 40
3.0
 50
341.00000000001239
 51
0.0
  0
ARC
  5
25B1F
  8
0
 10
811.25543782997283
 20
336.17946234542387
 30
0.0
 40
2.9999999999999969
 50
0.0
 51
18.999999999987629
  0
LINE
  5
25B20
  8
0
 10
808.05754079075894
 20
354.68149017266802
 30
0.0
 11
814.09199355677083
 21
337.15616680879521
 31
0.0
  0
LINE
  5
25B21
  8
0
 10
814.09199355677083
 20
228.20681353654069
 30
0.0
 11
808.05754079075894
 21
210.68149017266791
 31
0.0
  0
ARC
  5
25B22
  8
0
 10
807.30754079075905
 20
208.5033320144112
 30
0.0
 40
0.75
 50
180.0
 51
0.0
  0
ARC
  5
25B23
  8
0
 10
807.30754079075905
 20
356.85964833092481
 30
0.0
 40
0.7500000000000018
 50
0.0
 51
180.0
  0
ARC
  5
25B24
  8
0
 10
805.80754079075905
 20
204.1470156978971
 30
0.0
 40
0.75
 50
180.0
 51
0.0
  0
ARC
  5
25B25
  8
0
 10
805.80754079075905
 20
361.2159646474388
 30
0.0
 40
0.75
 50
0.0
 51
180.0
  0
ARC
  5
25B26
  8
0
 10
802.05754079075939
 20
202.47088536688489
 30
0.0
 40
2.9999999999995022
 50
340.9999999999834
 51
0.0
  0
ARC
  5
25B27
  8
0
 10
802.05754079075939
 20
362.89209497845098
 30
0.0
 40
2.9999999999994942
 50
0.0
 51
19.000000000016509
  0
LINE
  5
25B28
  8
0
 10
803.05833469786285
 20
369.20023888739979
 30
0.0
 11
804.89409651755705
 21
363.86879944182277
 31
0.0
  0
LINE
  5
25B29
  8
0
 10
804.89409651755705
 20
201.4941809035131
 30
0.0
 11
802.09186925924723
 21
193.355922018211
 31
0.0
  0
ARC
  5
25B2A
  8
0
 10
801.14635068364805
 20
193.68149017266791
 30
0.0
 40
1.0000000000000151
 50
270.0
 51
341.00000000001239
  0
LINE
  5
25B2B
  8
0
 10
801.14635068364805
 20
192.68149017266791
 30
0.0
 11
797.75543782997283
 21
192.68149017266791
 31
0.0
  0
ARC
  5
25B2C
  8
0
 10
797.75543782997283
 20
192.98149017266809
 30
0.0
 40
0.3000000000000114
 50
180.0
 51
270.0
  0
LINE
  5
25B2D
  8
0
 10
797.45543782997265
 20
192.98149017266809
 30
0.0
 11
795.05543782997302
 21
192.98149017266809
 31
0.0
  0
ARC
  5
25B2E
  8
0
 10
794.75543782997283
 20
192.98149017266809
 30
0.0
 40
0.3000000000000043
 50
270.0
 51
0.0
  0
LINE
  5
25B2F
  8
0
 10
788.45543782997265
 20
192.98149017266809
 30
0.0
 11
788.45543782997265
 21
370.53571299636269
 31
0.0
  0
LINE
  5
25B30
  8
0
 10
786.05543782997302
 20
192.98149017266809
 30
0.0
 11
786.05543782997302
 21
370.33167782206471
 31
0.0
  0
LINE
  5
25B31
  8
0
 10
778.45333486918662
 20
202.47088536688489
 30
0.0
 11
778.45333486918662
 21
362.89209497845098
 31
0.0
  0
LINE
  5
25B32
  8
0
 10
776.95333486918662
 20
204.1470156978971
 30
0.0
 11
776.95333486918662
 21
361.2159646474388
 31
0.0
  0
LINE
  5
25B33
  8
0
 10
775.45333486918651
 20
208.5033320144112
 30
0.0
 11
775.45333486918651
 21
356.85964833092481
 31
0.0
  0
LINE
  5
25B34
  8
0
 10
769.25543782997283
 20
229.18351799991211
 30
0.0
 11
769.25543782997283
 21
336.17946234542387
 31
0.0
  0
LINE
  5
25B35
  8
0
 10
808.05754079075894
 20
208.5033320144112
 30
0.0
 11
808.05754079075894
 21
356.85964833092481
 31
0.0
  0
LINE
  5
25B36
  8
0
 10
806.55754079075905
 20
204.1470156978971
 30
0.0
 11
806.55754079075905
 21
361.2159646474388
 31
0.0
  0
LINE
  5
25B37
  8
0
 10
805.05754079075905
 20
202.47088536688489
 30
0.0
 11
805.05754079075905
 21
362.89209497845098
 31
0.0
  0
LINE
  5
25B38
  8
0
 10
797.45543782997265
 20
192.98149017266809
 30
0.0
 11
797.45543782997265
 21
370.33167782206471
 31
0.0
  0
LINE
  5
25B39
  8
0
 10
795.05543782997302
 20
192.98149017266809
 30
0.0
 11
795.05543782997302
 21
370.53571299636269
 31
0.0
  0
LINE
  5
25B3A
  8
0
 10
814.25543782997283
 20
229.18351799991211
 30
0.0
 11
814.25543782997283
 21
336.17946234542387
 31
0.0
  0
LINE
  5
25B3B
  8
0
 10
486.0303925707675
 20
275.45498930331132
 30
0.0
 11
492.28872590410123
 21
279.06823973798959
 31
0.0
  0
LINE
  5
25B3C
  8
0
 10
479.77205923743441
 20
279.06823973798959
 30
0.0
 11
486.0303925707675
 21
275.45498930331132
 31
0.0
  0
LINE
  5
25B3D
  8
0
 10
479.77205923743441
 20
286.29474060734628
 30
0.0
 11
479.77205923743441
 21
279.06823973798959
 31
0.0
  0
LINE
  5
25B3E
  8
0
 10
492.28872590410123
 20
286.29474060734628
 30
0.0
 11
486.0303925707675
 21
289.90799104202461
 31
0.0
  0
LINE
  5
25B3F
  8
0
 10
486.0303925707675
 20
289.90799104202461
 30
0.0
 11
479.77205923743441
 21
286.29474060734628
 31
0.0
  0
LINE
  5
25B40
  8
0
 10
492.28872590410123
 20
279.06823973798959
 30
0.0
 11
492.28872590410123
 21
286.29474060734628
 31
0.0
  0
CIRCLE
  5
25B41
  8
0
 10
486.0303925707675
 20
282.68149017266802
 30
0.0
 40
6.2583333333333311
  0
LINE
  5
25B42
  8
1
 10
542.03039257076705
 20
430.87349956129071
 30
0.0
 11
542.03039257076762
 21
355.75595582766158
 31
0.0
  0
LINE
  5
25B43
  8
0
 10
576.8303925707678
 20
408.38149017266772
 30
0.0
 11
576.8303925707678
 21
409.18149017266791
 31
0.0
  0
LINE
  5
25B44
  8
0
 10
507.23039257076789
 20
409.18149017266791
 30
0.0
 11
507.23039257076789
 21
408.38149017266772
 31
0.0
  0
LINE
  5
25B45
  8
0
 10
592.17420086856373
 20
400.6901448280409
 30
0.0
 11
593.53039257076762
 21
408.38149017266772
 31
0.0
  0
LINE
  5
25B46
  8
0
 10
490.53039257076762
 20
408.38149017266772
 30
0.0
 11
491.88658427297202
 21
400.6901448280409
 31
0.0
  0
LINE
  5
25B47
  8
0
 10
593.53039257076762
 20
374.81568945784369
 30
0.0
 11
593.53039257076762
 21
400.68149017266791
 31
0.0
  0
LINE
  5
25B48
  8
0
 10
490.53039257076762
 20
400.68149017266791
 30
0.0
 11
490.53039257076762
 21
397.88149017266778
 31
0.0
  0
LINE
  5
25B49
  8
0
 10
612.03039257076762
 20
411.68149017266791
 30
0.0
 11
612.03039257076762
 21
409.18149017266791
 31
0.0
  0
LINE
  5
25B4A
  8
0
 10
472.03039257076762
 20
411.68149017266791
 30
0.0
 11
472.03039257076762
 21
409.18149017266791
 31
0.0
  0
LINE
  5
25B4B
  8
0
 10
472.03039257076762
 20
411.68149017266791
 30
0.0
 11
612.03039257076762
 21
411.68149017266791
 31
0.0
  0
LINE
  5
25B4C
  8
0
 10
472.03039257076762
 20
409.18149017266791
 30
0.0
 11
612.03039257076762
 21
409.18149017266791
 31
0.0
  0
LINE
  5
25B4D
  8
0
 10
490.53039257076762
 20
408.38149017266772
 30
0.0
 11
593.53039257076762
 21
408.38149017266772
 31
0.0
  0
LINE
  5
25B4E
  8
0
 10
490.53039257076762
 20
400.68149017266791
 30
0.0
 11
593.53039257076762
 21
400.68149017266791
 31
0.0
  0
LINE
  5
25B4F
  8
0
 10
503.349001696085
 20
397.88149017266778
 30
0.0
 11
486.0303925707675
 21
397.88149017266778
 31
0.0
  0
LINE
  5
25B50
  8
0
 10
503.349001696085
 20
397.88149017266778
 30
0.0
 11
503.349001696085
 21
280.41380600569261
 31
0.0
  0
ARC
  5
25B51
  8
0
 10
490.73039257076789
 20
281.68149017266791
 30
0.0
 40
10.000000000000069
 50
270.0
 51
316.3098385274929
  0
LINE
  5
25B52
  8
0
 10
481.33039257076769
 20
271.68149017266802
 30
0.0
 11
490.73039257076789
 21
271.68149017266802
 31
0.0
  0
LINE
  5
25B53
  8
0
 10
497.96125026992007
 20
274.77390760460457
 30
0.0
 11
593.53039257076762
 21
374.81568945784369
 31
0.0
  0
ARC
  5
25B54
  8
0
 10
481.33039257076769
 20
281.68149017266791
 30
0.0
 40
10.0
 50
172.51246831628501
 51
270.0
  0
LINE
  5
25B56
  8
0
 10
483.07319239325261
 20
371.68149017266802
 30
0.0
 11
471.41566014959739
 21
282.98459454937478
 31
0.0
  0
ARC
  5
25B5B
  8
0
 10
486.0303925707675
 20
282.68149017266802
 30
0.0
 40
74.928158158256807
 50
93.693753852808456
 51
35.471594309982351
  0
ARC
  5
25B5C
  8
0
 10
486.0303925707675
 20
282.68149017266802
 30
0.0
 40
79.284474474770605
 50
93.072128435862084
 51
36.073717373278669
  0
ARC
  5
25B5D
  8
0
 10
486.0303925707675
 20
282.68149017266802
 30
0.0
 40
72.000000000000085
 50
94.154717432599526
 51
35.02514394273723
  0
ARC
  5
25B5E
  8
0
 10
486.03039257076807
 20
282.68149017266802
 30
0.0
 40
89.999999999999801
 50
91.81430184139667
 51
37.303290094435233
  0
ARC
  5
25B5F
  8
0
 10
486.0303925707675
 20
282.68149017266802
 30
0.0
 40
38.0717967697245
 50
345.38808977737523
 51
14.611910222624831
  0
ARC
  5
25B60
  8
0
 10
486.03039257075119
 20
282.68149017266069
 30
0.0
 40
38.07179676974269
 50
21.3880897773731
 51
24.58985299820564
  0
ARC
  5
25B61
  8
0
 10
486.0303925707675
 20
282.68149017266802
 30
0.0
 40
38.071796769724422
 50
309.38808977738472
 51
338.61191022262688
  0
ARC
  5
25B62
  8
0
 10
486.03039257076807
 20
282.68149017266802
 30
0.0
 40
38.07179676972428
 50
273.38808977738211
 51
302.61191022260982
  0
ARC
  5
25B63
  8
0
 10
486.03039257076807
 20
282.68149017266751
 30
0.0
 40
38.07179676972482
 50
104.9475996462841
 51
122.61191022260979
  0
ARC
  5
25B64
  8
0
 10
486.0303925707675
 20
282.68149017266802
 30
0.0
 40
38.071796769724671
 50
237.38808977739021
 51
266.61191022261789
  0
ARC
  5
25B65
  8
0
 10
486.0303925707675
 20
282.68149017266802
 30
0.0
 40
38.071796769724131
 50
129.38808977738461
 51
158.6119102226269
  0
ARC
  5
25B66
  8
0
 10
486.03039257076807
 20
282.68149017266802
 30
0.0
 40
38.071796769724628
 50
201.3880897773731
 51
230.61191022261539
  0
ARC
  5
25B67
  8
0
 10
486.0303925707675
 20
282.68149017266802
 30
0.0
 40
38.071796769724472
 50
165.3880897773752
 51
194.6119102226248
  0
ARC
  5
25B68
  8
0
 10
486.0303925707675
 20
282.68149017266802
 30
0.0
 40
35.473720558371141
 50
345.63655395831802
 51
14.36344604168198
  0
ARC
  5
25B69
  8
0
 10
486.03039257080758
 20
282.68149017268439
 30
0.0
 40
35.473720558328509
 50
21.636553958304951
 51
22.908169981198998
  0
ARC
  5
25B6A
  8
0
 10
486.03039257076807
 20
282.68149017266802
 30
0.0
 40
35.473720558371028
 50
309.63655395830961
 51
338.36344604169511
  0
ARC
  5
25B6B
  8
0
 10
486.03039257076807
 20
282.68149017266802
 30
0.0
 40
35.473720558370943
 50
273.63655395829898
 51
302.36344604169591
  0
ARC
  5
25B6C
  8
0
 10
486.03039257076807
 20
282.68149017266751
 30
0.0
 40
35.473720558371603
 50
106.6914308262494
 51
122.36344604169579
  0
ARC
  5
25B6D
  8
0
 10
486.0303925707675
 20
282.68149017266802
 30
0.0
 40
35.473720558371049
 50
237.63655395830421
 51
266.36344604170102
  0
ARC
  5
25B6E
  8
0
 10
486.0303925707675
 20
282.68149017266802
 30
0.0
 40
35.47372055837095
 50
129.63655395830949
 51
158.363446041695
  0
ARC
  5
25B6F
  8
0
 10
486.03039257076807
 20
282.68149017266802
 30
0.0
 40
35.473720558371362
 50
201.63655395830489
 51
230.36344604169039
  0
ARC
  5
25B70
  8
0
 10
486.0303925707675
 20
282.68149017266802
 30
0.0
 40
35.473720558371163
 50
165.63655395831799
 51
194.36344604168201
  0
ARC
  5
25B71
  8
0
 10
486.0303925707675
 20
282.68149017266802
 30
0.0
 40
44.99999999999995
 50
164.86598398260989
 51
195.13401601739011
  0
ARC
  5
25B72
  8
0
 10
486.0303925707675
 20
282.68149017266802
 30
0.0
 40
44.999999999999972
 50
128.86598398259019
 51
159.1340160174023
  0
ARC
  5
25B73
  8
0
 10
486.0303925707675
 20
282.68149017266802
 30
0.0
 40
44.999999999999808
 50
200.86598398259761
 51
231.13401601740981
  0
ARC
  5
25B74
  8
0
 10
486.03039257076807
 20
282.68149017266802
 30
0.0
 40
45.000000000000163
 50
101.3496716799015
 51
123.1340160174006
  0
ARC
  5
25B75
  8
0
 10
486.03039257076807
 20
282.68149017266802
 30
0.0
 40
11.57655314992785
 50
251.8412141618021
 51
258.7927562035523
  0
ARC
  5
25B76
  8
0
 10
486.03039257076807
 20
282.68149017266802
 30
0.0
 40
45.000000000000171
 50
236.8659839825994
 51
267.13401601740401
  0
ARC
  5
25B77
  8
0
 10
486.03039257076807
 20
282.68149017266751
 30
0.0
 40
11.57655314992698
 50
281.20724379644759
 51
288.1587858381979
  0
ARC
  5
25B78
  8
0
 10
486.0303925707675
 20
282.68149017266802
 30
0.0
 40
45.000000000000128
 50
272.86598398259599
 51
303.13401601738968
  0
ARC
  5
25B79
  8
0
 10
486.03039257077222
 20
282.68149017266978
 30
0.0
 40
44.999999999995502
 50
20.865983982597641
 51
28.053209682540121
  0
ARC
  5
25B7A
  8
0
 10
486.0303925707675
 20
282.68149017266802
 30
0.0
 40
45.00000000000005
 50
308.86598398259019
 51
339.13401601740242
  0
ARC
  5
25B7B
  8
0
 10
486.03039257076807
 20
282.68149017266802
 30
0.0
 40
44.999999999999879
 50
344.86598398260992
 51
15.13401601739011
  0
LINE
  5
25B7C
  8
0
 10
471.42599590980581
 20
280.30202405045929
 30
0.0
 11
442.5910915066242
 21
270.93299567087303
 31
0.0
  0
LINE
  5
25B7D
  8
0
 10
443.9816679813116
 20
266.65324134754468
 30
0.0
 11
473.03708036685561
 21
276.09391711377748
 31
0.0
  0
LINE
  5
25B7E
  8
0
 10
442.5910915066242
 20
294.4299846744629
 30
0.0
 11
471.67780528871481
 21
284.97913846797292
 31
0.0
  0
LINE
  5
25B7F
  8
0
 10
476.26032242154758
 20
273.0620708951306
 30
0.0
 11
457.79285159090068
 21
247.64377792699861
 31
0.0
  0
LINE
  5
25B80
  8
0
 10
472.2742128230542
 20
289.51693392215651
 30
0.0
 11
443.981667981312
 21
298.70973899779119
 31
0.0
  0
LINE
  5
25B81
  8
0
 10
461.43342806558752
 20
244.9987442916827
 30
0.0
 11
480.82872589939819
 21
271.69408157229333
 31
0.0
  0
LINE
  5
25B82
  8
0
 10
457.79285159090068
 20
317.71920241833732
 30
0.0
 11
473.19468572922409
 21
296.52039636825299
 31
0.0
  0
LINE
  5
25B83
  8
0
 10
483.7803925707675
 20
271.32569505153702
 30
0.0
 11
483.7803925707675
 21
237.73777537293199
 31
0.0
  0
LINE
  5
25B84
  8
0
 10
474.04676328550738
 20
303.00346950011323
 30
0.0
 11
461.43342806558752
 21
320.3642360536532
 31
0.0
  0
LINE
  5
25B85
  8
0
 10
488.2803925707675
 20
237.73777537293199
 30
0.0
 11
488.2803925707675
 21
271.32569505153702
 31
0.0
  0
LINE
  5
25B86
  8
0
 10
491.23205924213738
 20
271.69408157229333
 30
0.0
 11
510.62735707594811
 21
244.9987442916827
 31
0.0
  0
LINE
  5
25B87
  8
0
 10
514.26793355063535
 20
247.64377792699861
 30
0.0
 11
495.80046271998799
 21
273.0620708951306
 31
0.0
  0
LINE
  5
25B88
  8
0
 10
499.17521684179832
 20
276.04468785895369
 30
0.0
 11
528.07911716022397
 21
266.65324134754468
 31
0.0
  0
LINE
  5
25B89
  8
0
 10
529.46969363491144
 20
270.93299567087303
 30
0.0
 11
502.62459493907681
 21
279.65549698446557
 31
0.0
  0
LINE
  5
25B8A
  8
0
 10
528.07911716022397
 20
298.70973899779119
 30
0.0
 11
517.53081253499022
 21
295.28238706318831
 31
0.0
  0
LINE
  5
25B8B
  8
0
 10
511.00823696516539
 20
288.43149378131238
 30
0.0
 11
529.46969363491098
 21
294.4299846744629
 31
0.0
  0
LINE
  5
25B8C
  8
1
 10
376.83838318214481
 20
282.68149017266802
 30
0.0
 11
595.22240195939094
 21
282.68149017266802
 31
0.0
  0
LINE
  5
25B8D
  8
1
 10
486.0303925707675
 20
173.48948078404459
 30
0.0
 11
486.0303925707675
 21
382.15728691341337
 31
0.0
  0
LINE
  5
25B8E
  8
1
 10
850.20828066762249
 20
282.68149017266802
 30
0.0
 11
733.30259499232295
 21
282.68149017266802
 31
0.0
  0
LINE
  5
25B8F
  8
1
 10
791.75543782997283
 20
173.48948078404459
 30
0.0
 11
791.75543782997318
 21
430.87349956129071
 31
0.0
  0
LINE
  5
25B90
  8
3
 10
835.75543782997272
 20
279.44849017266779
 30
0.0
 11
833.75543782997283
 21
279.44849017266779
 31
0.0
  0
LINE
  5
25B91
  8
3
 10
835.75543782997272
 20
285.91449017266808
 30
0.0
 11
833.75543782997283
 21
285.91449017266808
 31
0.0
  0
ARC
  5
25B92
  8
0
 10
486.03039257076807
 20
282.68149017266802
 30
0.0
 40
53.993114990337283
 50
98.123260283865875
 51
31.183665284387882
  0
ARC
  5
25B93
  8
0
 10
189.69625883903609
 20
193.68148695401709
 30
0.0
 40
1.000000000000085
 50
270.00000000002598
 51
341.00000000001239
  0
ARC
  5
25B94
  8
0
 10
189.69625883903609
 20
371.6814869540172
 30
0.0
 40
1.000000000000085
 50
18.999999999987629
 51
89.999999999973952
  0
LINE
  5
25B95
  8
0
 10
186.30534643239659
 20
192.68149017266791
 30
0.0
 11
189.69625839895889
 21
192.68149017266791
 31
0.0
  0
LINE
  5
25B96
  8
0
 10
189.69625839895889
 20
372.6814861493545
 30
0.0
 11
186.30534643239659
 21
372.6814861493545
 31
0.0
  0
ARC
  5
25B97
  8
0
 10
186.30534598536181
 20
192.98148695401821
 30
0.0
 40
0.2999999999999403
 50
180.0
 51
270.0
  0
ARC
  5
25B98
  8
0
 10
186.30534598536181
 20
372.38148695401611
 30
0.0
 40
0.2999999999999403
 50
90.0
 51
180.0
  0
ARC
  5
25B99
  8
0
 10
183.30534598536181
 20
192.98148695401821
 30
0.0
 40
0.2999999999998692
 50
270.0
 51
0.0
  0
ARC
  5
25B9A
  8
0
 10
183.30534598536181
 20
372.38148695401611
 30
0.0
 40
0.3000000000000114
 50
0.0
 51
90.0
  0
LINE
  5
25B9B
  8
0
 10
177.30534681982681
 20
192.68149017266791
 30
0.0
 11
183.30534780330339
 21
192.68149017266791
 31
0.0
  0
LINE
  5
25B9C
  8
0
 10
183.30534780330339
 20
372.6814861493545
 30
0.0
 11
177.30534681982681
 21
372.6814861493545
 31
0.0
  0
ARC
  5
25B9D
  8
0
 10
177.30534598536181
 20
192.98148695401821
 30
0.0
 40
0.2999999999998692
 50
180.0
 51
270.0
  0
ARC
  5
25B9E
  8
0
 10
177.30534598536181
 20
372.38148695401611
 30
0.0
 40
0.3000000000000114
 50
90.0
 51
180.0
  0
ARC
  5
25B9F
  8
0
 10
174.30534598536181
 20
192.98148695401821
 30
0.0
 40
0.2999999999998692
 50
270.0
 51
0.0
  0
ARC
  5
25BA0
  8
0
 10
174.30534598536181
 20
372.38148695401611
 30
0.0
 40
0.2999999999998692
 50
0.0
 51
90.0
  0
LINE
  5
25BA1
  8
0
 10
170.9144324988811
 20
192.68149017266791
 30
0.0
 11
174.30534632808849
 21
192.68149017266791
 31
0.0
  0
LINE
  5
25BA2
  8
0
 10
174.30534632808849
 20
372.6814861493545
 30
0.0
 11
170.9144324988811
 21
372.6814861493545
 31
0.0
  0
ARC
  5
25BA3
  8
0
 10
170.9144331316875
 20
193.68148695401709
 30
0.0
 40
1.000000000000085
 50
198.99999999998761
 51
269.99999999997391
  0
ARC
  5
25BA4
  8
0
 10
170.9144331316875
 20
371.6814869540172
 30
0.0
 40
1.000000000000085
 50
90.000000000026048
 51
161.00000000001231
  0
LINE
  5
25BA5
  8
0
 10
183.60534543103859
 20
192.9814803498225
 30
0.0
 11
186.00534507937121
 21
192.9814803498225
 31
0.0
  0
LINE
  5
25BA6
  8
0
 10
186.00534507937121
 20
372.3814885216193
 30
0.0
 11
183.60534543103859
 21
372.3814885216193
 31
0.0
  0
LINE
  5
25BA7
  8
0
 10
174.60534581846881
 20
192.9814803498225
 30
0.0
 11
177.0053454668014
 21
192.9814803498225
 31
0.0
  0
LINE
  5
25BA8
  8
0
 10
177.0053454668014
 20
372.3814885216193
 30
0.0
 11
174.60534581846881
 21
372.3814885216193
 31
0.0
  0
LINE
  5
25BA9
  8
0
 10
190.64177805490181
 20
193.35591672830151
 30
0.0
 11
193.4440047473399
 21
201.49417101316021
 31
0.0
  0
LINE
  5
25BAA
  8
0
 10
193.4440047473399
 20
363.8687978582816
 30
0.0
 11
190.64177805490181
 21
372.0070558684306
 31
0.0
  0
LINE
  5
25BAB
  8
0
 10
169.9689147055833
 20
372.0070558684306
 30
0.0
 11
167.1666880131452
 21
363.8687978582816
 31
0.0
  0
LINE
  5
25BAC
  8
0
 10
167.1666880131452
 20
201.49417101316021
 30
0.0
 11
169.9689147055833
 21
193.35591672830151
 31
0.0
  0
ARC
  5
25BAD
  8
0
 10
190.60744894616249
 20
202.47088214823231
 30
0.0
 40
2.9999999999863691
 50
340.99999999995458
 51
0.0000000000260551
  0
ARC
  5
25BAE
  8
0
 10
190.60744894616249
 20
362.8920917598021
 30
0.0
 40
2.999999999986346
 50
359.99999999997402
 51
19.000000000045379
  0
ARC
  5
25BAF
  8
0
 10
170.00324302456281
 20
202.47088214823231
 30
0.0
 40
2.999999999986414
 50
179.99999999997391
 51
199.00000000004539
  0
ARC
  5
25BB0
  8
0
 10
170.00324302456281
 20
362.8920917598021
 30
0.0
 40
2.999999999986414
 50
160.99999999995461
 51
180.00000000002601
  0
ARC
  5
25BB1
  8
0
 10
194.35744894614979
 20
204.14701247924631
 30
0.0
 40
0.7500000000000285
 50
180.0
 51
0.0
  0
ARC
  5
25BB2
  8
0
 10
194.35744894614979
 20
361.21596142878798
 30
0.0
 40
0.7500000000000285
 50
0.0
 51
180.0
  0
ARC
  5
25BB3
  8
0
 10
166.2532430245773
 20
204.14701247924631
 30
0.0
 40
0.7500000000000285
 50
180.0
 51
0.0
  0
ARC
  5
25BB4
  8
0
 10
166.2532430245773
 20
361.21596142878798
 30
0.0
 40
0.7500000000000285
 50
0.0
 51
180.0
  0
ARC
  5
25BB5
  8
0
 10
195.857448946148
 20
208.50332879575899
 30
0.0
 40
0.7500000000000285
 50
180.0
 51
0.0
  0
ARC
  5
25BB6
  8
0
 10
195.857448946148
 20
356.8596451122753
 30
0.0
 40
0.7500000000000285
 50
0.0
 51
180.0
  0
ARC
  5
25BB7
  8
0
 10
164.75324302457551
 20
208.50332879575899
 30
0.0
 40
0.7500000000000285
 50
180.0
 51
0.0
  0
ARC
  5
25BB8
  8
0
 10
164.75324302457551
 20
356.8596451122753
 30
0.0
 40
0.7500000000000285
 50
0.0
 51
180.0
  0
LINE
  5
25BB9
  8
0
 10
196.60745048827809
 20
210.68148194722701
 30
0.0
 11
202.6419029564349
 21
228.20681213311721
 31
0.0
  0
LINE
  5
25BBA
  8
0
 10
202.6419029564349
 20
337.15616046361492
 30
0.0
 11
196.60745048827809
 21
354.68148692421482
 31
0.0
  0
LINE
  5
25BBB
  8
0
 10
164.00324227220699
 20
354.68148692421482
 30
0.0
 11
157.9687898040502
 21
337.15616046361492
 31
0.0
  0
LINE
  5
25BBC
  8
0
 10
157.9687898040502
 20
228.20681213311721
 30
0.0
 11
164.00324227220699
 21
210.68148194722701
 31
0.0
  0
ARC
  5
25BBD
  8
0
 10
199.80534598538719
 20
229.1835147812576
 30
0.0
 40
2.9999999999748179
 50
340.99999999993003
 51
0.0000000000260551
  0
ARC
  5
25BBE
  8
0
 10
199.80534598538719
 20
336.17945912677669
 30
0.0
 40
2.999999999974861
 50
359.99999999997402
 51
19.00000000007002
  0
ARC
  5
25BBF
  8
0
 10
160.80534598533629
 20
229.1835147812576
 30
0.0
 40
2.9999999999748179
 50
179.99999999997391
 51
199.00000000007
  0
ARC
  5
25BC0
  8
0
 10
160.80534598533629
 20
336.17945912677669
 30
0.0
 40
2.999999999974861
 50
160.99999999993
 51
180.00000000002601
  0
LINE
  5
25BC1
  8
0
 10
202.80534634298971
 20
272.68148838452862
 30
0.0
 11
209.80534562773391
 21
272.68148838452862
 31
0.0
  0
LINE
  5
25BC2
  8
0
 10
209.80534562773391
 20
292.68148421220349
 30
0.0
 11
202.80534634298971
 21
292.68148421220349
 31
0.0
  0
LINE
  5
25BC3
  8
0
 10
150.80534620142859
 20
272.68148838452862
 30
0.0
 11
157.8053464174954
 21
272.68148838452862
 31
0.0
  0
LINE
  5
25BC4
  8
0
 10
157.8053464174954
 20
292.68148421220349
 30
0.0
 11
150.80534620142859
 21
292.68148421220349
 31
0.0
  0
LINE
  5
25BC5
  8
0
 10
219.80534354157129
 20
276.86647950582068
 30
0.0
 11
222.30534860796621
 21
276.86647950582068
 31
0.0
  0
LINE
  5
25BC6
  8
0
 10
222.30534860796621
 20
288.49648564033077
 30
0.0
 11
219.80534354157129
 21
288.49648564033077
 31
0.0
  0
LINE
  5
25BC7
  8
0
 10
145.70534601739931
 20
276.86647950582068
 30
0.0
 11
146.3053459294824
 21
276.86647950582068
 31
0.0
  0
LINE
  5
25BC8
  8
0
 10
146.3053459294824
 20
288.49648564033077
 30
0.0
 11
145.70534601739931
 21
288.49648564033077
 31
0.0
  0
LINE
  5
25BC9
  8
0
 10
222.30534860796621
 20
278.68148564271502
 30
0.0
 11
223.53834519095111
 21
278.68148564271502
 31
0.0
  0
LINE
  5
25BCA
  8
0
 10
223.53834519095111
 20
286.6814869540172
 30
0.0
 11
222.30534860796621
 21
286.6814869540172
 31
0.0
  0
LINE
  5
25BCB
  8
0
 10
223.53834519095111
 20
278.68148564271502
 30
0.0
 11
224.3053452105014
 21
279.44849311284588
 31
0.0
  0
LINE
  5
25BCC
  8
0
 10
224.3053452105014
 20
285.91449438504742
 30
0.0
 11
223.53834519095111
 21
286.6814869540172
 31
0.0
  0
LINE
  5
25BCD
  8
0
 10
219.80534354157129
 20
288.93981753758948
 30
0.0
 11
219.54592922634771
 21
289.9079906838374
 31
0.0
  0
LINE
  5
25BCE
  8
0
 10
219.54592922634771
 20
275.45498191289471
 30
0.0
 11
219.80534354157129
 21
276.42315505914257
 31
0.0
  0
LINE
  5
25BCF
  8
0
 10
214.305347296664
 20
276.42315505914257
 30
0.0
 11
214.56476906246829
 21
275.45498191289471
 31
0.0
  0
LINE
  5
25BD0
  8
0
 10
214.56476906246829
 20
289.9079906838374
 30
0.0
 11
214.305347296664
 21
288.93981753758948
 31
0.0
  0
LINE
  5
25BD1
  8
0
 10
145.4459262306554
 20
275.45498191289471
 30
0.0
 11
145.70534601739931
 21
276.42315505914257
 31
0.0
  0
LINE
  5
25BD2
  8
0
 10
145.70534601739931
 20
288.93981753758948
 30
0.0
 11
145.4459262306554
 21
289.9079906838374
 31
0.0
  0
LINE
  5
25BD3
  8
0
 10
141.264765755528
 20
289.9079906838374
 30
0.0
 11
141.00534608519951
 21
288.93981753758948
 31
0.0
  0
LINE
  5
25BD4
  8
0
 10
141.00534608519951
 20
276.42315505914257
 30
0.0
 11
141.264765755528
 21
275.45498191289471
 31
0.0
  0
LINE
  5
25BD5
  8
0
 10
128.80534632063791
 20
400.68148701362168
 30
0.0
 11
128.80534632063791
 21
320.90548305682711
 31
0.0
  0
LINE
  5
25BD6
  8
0
 10
231.8053455085246
 20
320.90548305682711
 30
0.0
 11
231.8053455085246
 21
400.68148701362168
 31
0.0
  0
LINE
  5
25BD7
  8
0
 10
128.80534632063791
 20
408.38148697189848
 30
0.0
 11
130.16306376017019
 21
400.68148701362168
 31
0.0
  0
LINE
  5
25BD8
  8
0
 10
230.44762620634719
 20
400.68148701362168
 30
0.0
 11
231.8053455085246
 21
408.38148697189848
 31
0.0
  0
LINE
  5
25BD9
  8
0
 10
145.50534600789979
 20
409.18148700989639
 30
0.0
 11
145.50534600789979
 21
408.38148697189848
 31
0.0
  0
LINE
  5
25BDA
  8
0
 10
215.10534593767809
 20
408.38148697189848
 30
0.0
 11
215.10534593767809
 21
409.18148700989639
 31
0.0
  0
LINE
  5
25BDB
  8
0
 10
186.00534507937121
 20
192.9814803498225
 30
0.0
 11
186.00534507937121
 21
372.3814885216193
 31
0.0
  0
LINE
  5
25BDC
  8
0
 10
183.60534543103859
 20
192.9814803498225
 30
0.0
 11
183.60534543103859
 21
372.3814885216193
 31
0.0
  0
LINE
  5
25BDD
  8
0
 10
177.0053454668014
 20
192.9814803498225
 30
0.0
 11
177.0053454668014
 21
372.3814885216193
 31
0.0
  0
LINE
  5
25BDE
  8
0
 10
174.60534581846881
 20
192.9814803498225
 30
0.0
 11
174.60534581846881
 21
372.3814885216193
 31
0.0
  0
LINE
  5
25BDF
  8
0
 10
193.60744813389459
 20
202.4686745418748
 30
0.0
 11
193.60744813389459
 21
362.89209007196001
 31
0.0
  0
LINE
  5
25BE0
  8
0
 10
167.00324302457651
 20
202.4708821482331
 30
0.0
 11
167.00324276394531
 21
362.89209007196001
 31
0.0
  0
LINE
  5
25BE1
  8
0
 10
195.10744744844121
 20
204.1455136262189
 30
0.0
 11
195.10744744844121
 21
361.21596275739239
 31
0.0
  0
LINE
  5
25BE2
  8
0
 10
165.5032434493987
 20
204.14621421120731
 30
0.0
 11
165.5032434493987
 21
361.21596275739239
 31
0.0
  0
LINE
  5
25BE3
  8
0
 10
196.607448946148
 20
208.50332879575899
 30
0.0
 11
196.60745048827809
 21
356.85964553527401
 31
0.0
  0
LINE
  5
25BE4
  8
0
 10
164.00324302457551
 20
208.50332879575899
 30
0.0
 11
164.00324227220699
 21
356.85964553527401
 31
0.0
  0
LINE
  5
25BE5
  8
0
 10
202.80534598536229
 20
229.18351478125851
 30
0.0
 11
202.80534634298971
 21
336.17945640258358
 31
0.0
  0
LINE
  5
25BE6
  8
0
 10
157.8053459853613
 20
229.18351479337389
 30
0.0
 11
157.8053464174954
 21
336.17945640258358
 31
0.0
  0
LINE
  5
25BE7
  8
0
 10
209.80534562773391
 20
271.6814863579707
 30
0.0
 11
214.305347296664
 21
271.6814863579707
 31
0.0
  0
LINE
  5
25BE8
  8
0
 10
146.3053459294824
 20
271.6814863579707
 30
0.0
 11
150.80534620142859
 21
271.6814863579707
 31
0.0
  0
LINE
  5
25BE9
  8
0
 10
150.80534620142859
 20
394.1814868795114
 30
0.0
 11
209.80534562773391
 21
394.1814868795114
 31
0.0
  0
LINE
  5
25BEA
  8
0
 10
146.3053459294824
 20
271.6814863579707
 30
0.0
 11
146.3053459294824
 21
394.1814868795114
 31
0.0
  0
LINE
  5
25BEB
  8
0
 10
150.80534620142859
 20
271.6814863579707
 30
0.0
 11
150.80534620142859
 21
394.1814868795114
 31
0.0
  0
LINE
  5
25BEC
  8
0
 10
209.80534562773391
 20
394.1814868795114
 30
0.0
 11
209.8053456277344
 21
271.6814863579707
 31
0.0
  0
LINE
  5
25BED
  8
0
 10
214.305347296664
 20
394.1814868795114
 30
0.0
 11
214.305347296664
 21
271.6814863579707
 31
0.0
  0
LINE
  5
25BEE
  8
0
 10
235.30534515089681
 20
409.18148700989639
 30
0.0
 11
235.30534515089681
 21
411.68148695401709
 31
0.0
  0
LINE
  5
25BEF
  8
0
 10
125.3053457469432
 20
409.18148700989639
 30
0.0
 11
125.3053457469432
 21
411.68148695401709
 31
0.0
  0
LINE
  5
25BF0
  8
0
 10
125.3053457469432
 20
411.68148695401709
 30
0.0
 11
235.3053451508963
 21
411.68148695401709
 31
0.0
  0
LINE
  5
25BF1
  8
0
 10
125.3053457469432
 20
409.18148700989639
 30
0.0
 11
235.3053451508963
 21
409.18148700989639
 31
0.0
  0
LINE
  5
25BF2
  8
0
 10
219.54592922634771
 20
286.29474221639202
 30
0.0
 11
219.80534354157129
 21
282.68149374894671
 31
0.0
  0
LINE
  5
25BF3
  8
0
 10
219.80534354157129
 20
288.10135899953411
 30
0.0
 11
219.54592922634771
 21
286.29474221639202
 31
0.0
  0
LINE
  5
25BF4
  8
0
 10
219.54592922634771
 20
279.06823038034008
 30
0.0
 11
219.80534354157129
 21
277.26161359719799
 31
0.0
  0
POLYLINE
  5
25BF5
  8
0
 66
     1
 10
0.0
 20
0.0
 30
0.0
 70
   128
  0
VERTEX
  5
27442
  8
0
 10
219.80534354157129
 20
282.68149374894671
 30
0.0
  0
VERTEX
  5
27443
  8
0
 10
219.65469280190149
 20
279.96973573140667
 30
0.0
  0
VERTEX
  5
27444
  8
0
 10
219.54592922634771
 20
279.06823038034008
 30
0.0
  0
SEQEND
  5
27445
  8
0
  0
LINE
  5
25BF6
  8
0
 10
214.56476906246829
 20
286.29474221639202
 30
0.0
 11
214.305347296664
 21
288.10135899953411
 31
0.0
  0
LINE
  5
25BF7
  8
0
 10
214.305347296664
 20
282.68149374894671
 30
0.0
 11
214.56476906246829
 21
286.29474221639202
 31
0.0
  0
POLYLINE
  5
25BF8
  8
0
 66
     1
 10
0.0
 20
0.0
 30
0.0
 70
   128
  0
VERTEX
  5
27446
  8
0
 10
214.56476906246829
 20
279.06823038034008
 30
0.0
  0
VERTEX
  5
27447
  8
0
 10
214.4559980363338
 20
279.96973573140667
 30
0.0
  0
VERTEX
  5
27448
  8
0
 10
214.305347296664
 20
282.68149374894671
 30
0.0
  0
SEQEND
  5
27449
  8
0
  0
LINE
  5
25BF9
  8
0
 10
214.305347296664
 20
277.26161359719799
 30
0.0
 11
214.56476906246829
 21
279.06823038034008
 31
0.0
  0
LINE
  5
25BFA
  8
0
 10
219.54592922634771
 20
286.29474221639202
 30
0.0
 11
214.56476906246829
 21
286.29474221639202
 31
0.0
  0
LINE
  5
25BFB
  8
0
 10
219.54592922634771
 20
279.06823038034008
 30
0.0
 11
214.56476906246829
 21
279.06823038034008
 31
0.0
  0
LINE
  5
25BFC
  8
0
 10
214.56476906246829
 20
275.45498191289471
 30
0.0
 11
214.305347296664
 21
277.26161359719799
 31
0.0
  0
LINE
  5
25BFD
  8
0
 10
219.80534354157129
 20
277.26161359719799
 30
0.0
 11
219.54592922634771
 21
275.45498191289471
 31
0.0
  0
LINE
  5
25BFE
  8
0
 10
219.54592922634771
 20
275.45498191289471
 30
0.0
 11
214.56476906246829
 21
275.45498191289471
 31
0.0
  0
LINE
  5
25BFF
  8
0
 10
214.305347296664
 20
288.10135899953411
 30
0.0
 11
214.56476906246829
 21
289.9079906838374
 31
0.0
  0
LINE
  5
25C00
  8
0
 10
219.54592922634771
 20
289.9079906838374
 30
0.0
 11
214.56476906246829
 21
289.9079906838374
 31
0.0
  0
LINE
  5
25C01
  8
0
 10
219.54592922634771
 20
289.9079906838374
 30
0.0
 11
219.80534354157129
 21
288.10135899953411
 31
0.0
  0
LINE
  5
25C02
  8
0
 10
145.70534601739931
 20
282.68149374894671
 30
0.0
 11
145.4459262306554
 21
286.29474221639202
 31
0.0
  0
LINE
  5
25C03
  8
0
 10
145.4459262306554
 20
286.29474221639202
 30
0.0
 11
145.70534601739931
 21
288.10135899953411
 31
0.0
  0
POLYLINE
  5
25C04
  8
0
 66
     1
 10
0.0
 20
0.0
 30
0.0
 70
   128
  0
VERTEX
  5
2744A
  8
0
 10
145.4459262306554
 20
279.06823038034008
 30
0.0
  0
VERTEX
  5
2744B
  8
0
 10
145.55469201810041
 20
279.96973573140667
 30
0.0
  0
VERTEX
  5
2744C
  8
0
 10
145.70534601739931
 20
282.68149374894671
 30
0.0
  0
SEQEND
  5
2744D
  8
0
  0
LINE
  5
25C05
  8
0
 10
145.70534601739931
 20
277.26161359719799
 30
0.0
 11
145.4459262306554
 21
279.06823038034008
 31
0.0
  0
LINE
  5
25C06
  8
0
 10
141.264765755528
 20
286.29474221639202
 30
0.0
 11
141.00534608519951
 21
282.68149374894671
 31
0.0
  0
LINE
  5
25C07
  8
0
 10
141.00534608519951
 20
288.10135899953411
 30
0.0
 11
141.264765755528
 21
286.29474221639202
 31
0.0
  0
POLYLINE
  5
25C08
  8
0
 66
     1
 10
0.0
 20
0.0
 30
0.0
 70
   128
  0
VERTEX
  5
2744E
  8
0
 10
141.00534608519951
 20
282.68149374894671
 30
0.0
  0
VERTEX
  5
2744F
  8
0
 10
141.1560000844984
 20
279.96973573140667
 30
0.0
  0
VERTEX
  5
27450
  8
0
 10
141.264765755528
 20
279.06823038034008
 30
0.0
  0
SEQEND
  5
27451
  8
0
  0
LINE
  5
25C09
  8
0
 10
141.264765755528
 20
279.06823038034008
 30
0.0
 11
141.00534608519951
 21
277.26161359719799
 31
0.0
  0
LINE
  5
25C0A
  8
0
 10
145.4459262306554
 20
279.06823038034008
 30
0.0
 11
141.264765755528
 21
279.06823038034008
 31
0.0
  0
LINE
  5
25C0B
  8
0
 10
145.4459262306554
 20
275.45498191289471
 30
0.0
 11
145.70534601739931
 21
277.26161359719799
 31
0.0
  0
LINE
  5
25C0C
  8
0
 10
145.4459262306554
 20
275.45498191289471
 30
0.0
 11
141.264765755528
 21
275.45498191289471
 31
0.0
  0
LINE
  5
25C0D
  8
0
 10
141.00534608519951
 20
277.26161359719799
 30
0.0
 11
141.264765755528
 21
275.45498191289471
 31
0.0
  0
LINE
  5
25C0E
  8
0
 10
145.4459262306554
 20
289.9079906838374
 30
0.0
 11
141.264765755528
 21
289.9079906838374
 31
0.0
  0
LINE
  5
25C0F
  8
0
 10
145.70534601739931
 20
288.10135899953411
 30
0.0
 11
145.4459262306554
 21
289.9079906838374
 31
0.0
  0
LINE
  5
25C10
  8
0
 10
145.4459262306554
 20
286.29474221639202
 30
0.0
 11
141.264765755528
 21
286.29474221639202
 31
0.0
  0
LINE
  5
25C11
  8
0
 10
141.264765755528
 20
289.9079906838374
 30
0.0
 11
141.00534608519951
 21
288.10135899953411
 31
0.0
  0
LINE
  5
25C12
  8
0
 10
222.30534860796621
 20
276.86647950582068
 30
0.0
 11
222.30534860796701
 21
288.49648564033077
 31
0.0
  0
LINE
  5
25C13
  8
0
 10
223.53834519095111
 20
278.68148564271502
 30
0.0
 11
223.53834519095059
 21
286.6814869540172
 31
0.0
  0
LINE
  5
25C14
  8
0
 10
224.3053452105014
 20
279.44849311284588
 30
0.0
 11
224.3053452105014
 21
285.91449438504827
 31
0.0
  0
LINE
  5
25C15
  8
0
 10
214.305347296664
 20
397.88148711345963
 30
0.0
 11
146.3053459294824
 21
397.88148711345963
 31
0.0
  0
LINE
  5
25C16
  8
0
 10
146.3053459294824
 20
394.1814868795114
 30
0.0
 11
146.3053459294824
 21
397.88148711345963
 31
0.0
  0
LINE
  5
25C17
  8
0
 10
214.305347296664
 20
397.88148711345963
 30
0.0
 11
214.305347296664
 21
394.1814868795114
 31
0.0
  0
POLYLINE
  5
25C18
  8
0
 10
128.80534598536184
 20
320.90548424927607
 30
0.0
 66
     1
 70
     8
  0
VERTEX
  8
0
  5
27456
 10
128.805
 20
320.905
 30
0.000000
  70
    32
  0
VERTEX
  8
0
  5
27457
 10
128.806
 20
320.610
 30
0.000000
  70
    32
  0
VERTEX
  8
0
  5
27458
 10
128.808
 20
320.314
 30
0.000000
  70
    32
  0
VERTEX
  8
0
  5
27459
 10
128.812
 20
320.018
 30
0.000000
  70
    32
  0
VERTEX
  8
0
  5
2745A
 10
128.818
 20
319.722
 30
0.000000
  70
    32
  0
VERTEX
  8
0
  5
2745B
 10
128.825
 20
319.426
 30
0.000000
  70
    32
  0
VERTEX
  8
0
  5
2745C
 10
128.833
 20
319.130
 30
0.000000
  70
    32
  0
VERTEX
  8
0
  5
2745D
 10
128.843
 20
318.834
 30
0.000000
  70
    32
  0
VERTEX
  8
0
  5
2745E
 10
128.855
 20
318.539
 30
0.000000
  70
    32
  0
VERTEX
  8
0
  5
2745F
 10
128.868
 20
318.243
 30
0.000000
  70
    32
  0
VERTEX
  8
0
  5
27460
 10
128.883
 20
317.947
 30
0.000000
  70
    32
  0
VERTEX
  8
0
  5
27461
 10
128.899
 20
317.652
 30
0.000000
  70
    32
  0
VERTEX
  8
0
  5
27462
 10
128.917
 20
317.357
 30
0.000000
  70
    32
  0
VERTEX
  8
0
  5
27463
 10
128.936
 20
317.061
 30
0.000000
  70
    32
  0
VERTEX
  8
0
  5
27464
 10
128.957
 20
316.766
 30
0.000000
  70
    32
  0
VERTEX
  8
0
  5
27465
 10
128.980
 20
316.471
 30
0.000000
  70
    32
  0
VERTEX
  8
0
  5
27466
 10
129.004
 20
316.176
 30
0.000000
  70
    32
  0
VERTEX
  8
0
  5
27467
 10
129.029
 20
315.882
 30
0.000000
  70
    32
  0
VERTEX
  8
0
  5
27468
 10
129.057
 20
315.587
 30
0.000000
  70
    32
  0
VERTEX
  8
0
  5
27469
 10
129.085
 20
315.293
 30
0.000000
  70
    32
  0
VERTEX
  8
0
  5
2746A
 10
129.115
 20
314.998
 30
0.000000
  70
    32
  0
VERTEX
  8
0
  5
2746B
 10
129.147
 20
314.704
 30
0.000000
  70
    32
  0
VERTEX
  8
0
  5
2746C
 10
129.180
 20
314.410
 30
0.000000
  70
    32
  0
VERTEX
  8
0
  5
2746D
 10
129.215
 20
314.117
 30
0.000000
  70
    32
  0
VERTEX
  8
0
  5
2746E
 10
129.252
 20
313.823
 30
0.000000
  70
    32
  0
VERTEX
  8
0
  5
2746F
 10
129.290
 20
313.530
 30
0.000000
  70
    32
  0
VERTEX
  8
0
  5
27470
 10
129.329
 20
313.237
 30
0.000000
  70
    32
  0
VERTEX
  8
0
  5
27471
 10
129.370
 20
312.944
 30
0.000000
  70
    32
  0
VERTEX
  8
0
  5
27472
 10
129.413
 20
312.651
 30
0.000000
  70
    32
  0
VERTEX
  8
0
  5
27473
 10
129.457
 20
312.359
 30
0.000000
  70
    32
  0
VERTEX
  8
0
  5
27474
 10
129.502
 20
312.067
 30
0.000000
  70
    32
  0
VERTEX
  8
0
  5
27475
 10
129.549
 20
311.775
 30
0.000000
  70
    32
  0
VERTEX
  8
0
  5
27476
 10
129.598
 20
311.484
 30
0.000000
  70
    32
  0
VERTEX
  8
0
  5
27477
 10
129.648
 20
311.192
 30
0.000000
  70
    32
  0
VERTEX
  8
0
  5
27478
 10
129.700
 20
310.901
 30
0.000000
  70
    32
  0
VERTEX
  8
0
  5
27479
 10
129.753
 20
310.611
 30
0.000000
  70
    32
  0
VERTEX
  8
0
  5
2747A
 10
129.808
 20
310.320
 30
0.000000
  70
    32
  0
VERTEX
  8
0
  5
2747B
 10
129.864
 20
310.030
 30
0.000000
  70
    32
  0
VERTEX
  8
0
  5
2747C
 10
129.922
 20
309.741
 30
0.000000
  70
    32
  0
VERTEX
  8
0
  5
2747D
 10
129.981
 20
309.451
 30
0.000000
  70
    32
  0
VERTEX
  8
0
  5
2747E
 10
130.042
 20
309.162
 30
0.000000
  70
    32
  0
VERTEX
  8
0
  5
2747F
 10
130.104
 20
308.874
 30
0.000000
  70
    32
  0
VERTEX
  8
0
  5
27480
 10
130.168
 20
308.585
 30
0.000000
  70
    32
  0
VERTEX
  8
0
  5
27481
 10
130.234
 20
308.297
 30
0.000000
  70
    32
  0
VERTEX
  8
0
  5
27482
 10
130.300
 20
308.010
 30
0.000000
  70
    32
  0
VERTEX
  8
0
  5
27483
 10
130.369
 20
307.723
 30
0.000000
  70
    32
  0
VERTEX
  8
0
  5
27484
 10
130.439
 20
307.436
 30
0.000000
  70
    32
  0
VERTEX
  8
0
  5
27485
 10
130.510
 20
307.149
 30
0.000000
  70
    32
  0
VERTEX
  8
0
  5
27486
 10
130.583
 20
306.864
 30
0.000000
  70
    32
  0
VERTEX
  8
0
  5
27487
 10
130.657
 20
306.578
 30
0.000000
  70
    32
  0
VERTEX
  8
0
  5
27488
 10
130.733
 20
306.293
 30
0.000000
  70
    32
  0
VERTEX
  8
0
  5
27489
 10
130.811
 20
306.008
 30
0.000000
  70
    32
  0
VERTEX
  8
0
  5
2748A
 10
130.890
 20
305.724
 30
0.000000
  70
    32
  0
VERTEX
  8
0
  5
2748B
 10
130.970
 20
305.440
 30
0.000000
  70
    32
  0
VERTEX
  8
0
  5
2748C
 10
131.052
 20
305.157
 30
0.000000
  70
    32
  0
VERTEX
  8
0
  5
2748D
 10
131.135
 20
304.874
 30
0.000000
  70
    32
  0
VERTEX
  8
0
  5
2748E
 10
131.220
 20
304.592
 30
0.000000
  70
    32
  0
VERTEX
  8
0
  5
2748F
 10
131.306
 20
304.310
 30
0.000000
  70
    32
  0
VERTEX
  8
0
  5
27490
 10
131.394
 20
304.029
 30
0.000000
  70
    32
  0
VERTEX
  8
0
  5
27491
 10
131.483
 20
303.748
 30
0.000000
  70
    32
  0
VERTEX
  8
0
  5
27492
 10
131.574
 20
303.468
 30
0.000000
  70
    32
  0
VERTEX
  8
0
  5
27493
 10
131.666
 20
303.188
 30
0.000000
  70
    32
  0
VERTEX
  8
0
  5
27494
 10
131.760
 20
302.909
 30
0.000000
  70
    32
  0
VERTEX
  8
0
  5
27495
 10
131.855
 20
302.630
 30
0.000000
  70
    32
  0
VERTEX
  8
0
  5
27496
 10
131.951
 20
302.352
 30
0.000000
  70
    32
  0
VERTEX
  8
0
  5
27497
 10
132.049
 20
302.074
 30
0.000000
  70
    32
  0
VERTEX
  8
0
  5
27498
 10
132.149
 20
301.797
 30
0.000000
  70
    32
  0
VERTEX
  8
0
  5
27499
 10
132.250
 20
301.521
 30
0.000000
  70
    32
  0
VERTEX
  8
0
  5
2749A
 10
132.352
 20
301.245
 30
0.000000
  70
    32
  0
VERTEX
  8
0
  5
2749B
 10
132.456
 20
300.970
 30
0.000000
  70
    32
  0
VERTEX
  8
0
  5
2749C
 10
132.561
 20
300.695
 30
0.000000
  70
    32
  0
VERTEX
  8
0
  5
2749D
 10
132.668
 20
300.421
 30
0.000000
  70
    32
  0
VERTEX
  8
0
  5
2749E
 10
132.776
 20
300.147
 30
0.000000
  70
    32
  0
VERTEX
  8
0
  5
2749F
 10
132.886
 20
299.874
 30
0.000000
  70
    32
  0
VERTEX
  8
0
  5
274A0
 10
132.997
 20
299.602
 30
0.000000
  70
    32
  0
VERTEX
  8
0
  5
274A1
 10
133.109
 20
299.331
 30
0.000000
  70
    32
  0
VERTEX
  8
0
  5
274A2
 10
133.223
 20
299.060
 30
0.000000
  70
    32
  0
VERTEX
  8
0
  5
274A3
 10
133.338
 20
298.790
 30
0.000000
  70
    32
  0
VERTEX
  8
0
  5
274A4
 10
133.455
 20
298.520
 30
0.000000
  70
    32
  0
VERTEX
  8
0
  5
274A5
 10
133.573
 20
298.251
 30
0.000000
  70
    32
  0
VERTEX
  8
0
  5
274A6
 10
133.693
 20
297.983
 30
0.000000
  70
    32
  0
VERTEX
  8
0
  5
274A7
 10
133.814
 20
297.715
 30
0.000000
  70
    32
  0
VERTEX
  8
0
  5
274A8
 10
133.936
 20
297.449
 30
0.000000
  70
    32
  0
VERTEX
  8
0
  5
274A9
 10
134.060
 20
297.182
 30
0.000000
  70
    32
  0
VERTEX
  8
0
  5
274AA
 10
134.185
 20
296.917
 30
0.000000
  70
    32
  0
VERTEX
  8
0
  5
274AB
 10
134.311
 20
296.652
 30
0.000000
  70
    32
  0
VERTEX
  8
0
  5
274AC
 10
134.439
 20
296.388
 30
0.000000
  70
    32
  0
VERTEX
  8
0
  5
274AD
 10
134.568
 20
296.125
 30
0.000000
  70
    32
  0
VERTEX
  8
0
  5
274AE
 10
134.699
 20
295.863
 30
0.000000
  70
    32
  0
VERTEX
  8
0
  5
274AF
 10
134.831
 20
295.601
 30
0.000000
  70
    32
  0
VERTEX
  8
0
  5
274B0
 10
134.964
 20
295.340
 30
0.000000
  70
    32
  0
VERTEX
  8
0
  5
274B1
 10
135.099
 20
295.080
 30
0.000000
  70
    32
  0
VERTEX
  8
0
  5
274B2
 10
135.235
 20
294.821
 30
0.000000
  70
    32
  0
VERTEX
  8
0
  5
274B3
 10
135.373
 20
294.562
 30
0.000000
  70
    32
  0
VERTEX
  8
0
  5
274B4
 10
135.512
 20
294.304
 30
0.000000
  70
    32
  0
VERTEX
  8
0
  5
274B5
 10
135.652
 20
294.047
 30
0.000000
  70
    32
  0
VERTEX
  8
0
  5
274B6
 10
135.793
 20
293.791
 30
0.000000
  70
    32
  0
VERTEX
  8
0
  5
274B7
 10
135.936
 20
293.536
 30
0.000000
  70
    32
  0
VERTEX
  8
0
  5
274B8
 10
136.080
 20
293.281
 30
0.000000
  70
    32
  0
VERTEX
  8
0
  5
274B9
 10
136.226
 20
293.027
 30
0.000000
  70
    32
  0
VERTEX
  8
0
  5
274BA
 10
136.373
 20
292.774
 30
0.000000
  70
    32
  0
VERTEX
  8
0
  5
274BB
 10
136.521
 20
292.522
 30
0.000000
  70
    32
  0
VERTEX
  8
0
  5
274BC
 10
136.670
 20
292.271
 30
0.000000
  70
    32
  0
VERTEX
  8
0
  5
274BD
 10
136.821
 20
292.021
 30
0.000000
  70
    32
  0
VERTEX
  8
0
  5
274BE
 10
136.973
 20
291.771
 30
0.000000
  70
    32
  0
VERTEX
  8
0
  5
274BF
 10
137.127
 20
291.523
 30
0.000000
  70
    32
  0
VERTEX
  8
0
  5
274C0
 10
137.282
 20
291.275
 30
0.000000
  70
    32
  0
VERTEX
  8
0
  5
274C1
 10
137.438
 20
291.028
 30
0.000000
  70
    32
  0
VERTEX
  8
0
  5
274C2
 10
137.595
 20
290.782
 30
0.000000
  70
    32
  0
VERTEX
  8
0
  5
274C3
 10
137.754
 20
290.537
 30
0.000000
  70
    32
  0
VERTEX
  8
0
  5
274C4
 10
137.914
 20
290.293
 30
0.000000
  70
    32
  0
VERTEX
  8
0
  5
274C5
 10
138.075
 20
290.050
 30
0.000000
  70
    32
  0
VERTEX
  8
0
  5
274C6
 10
138.237
 20
289.808
 30
0.000000
  70
    32
  0
VERTEX
  8
0
  5
274C7
 10
138.401
 20
289.567
 30
0.000000
  70
    32
  0
VERTEX
  8
0
  5
274C8
 10
138.566
 20
289.326
 30
0.000000
  70
    32
  0
VERTEX
  8
0
  5
274C9
 10
138.732
 20
289.087
 30
0.000000
  70
    32
  0
VERTEX
  8
0
  5
274CA
 10
138.900
 20
288.849
 30
0.000000
  70
    32
  0
VERTEX
  8
0
  5
274CB
 10
139.068
 20
288.611
 30
0.000000
  70
    32
  0
VERTEX
  8
0
  5
274CC
 10
139.238
 20
288.375
 30
0.000000
  70
    32
  0
VERTEX
  8
0
  5
274CD
 10
139.410
 20
288.139
 30
0.000000
  70
    32
  0
VERTEX
  8
0
  5
274CE
 10
139.582
 20
287.905
 30
0.000000
  70
    32
  0
VERTEX
  8
0
  5
274CF
 10
139.756
 20
287.671
 30
0.000000
  70
    32
  0
VERTEX
  8
0
  5
274D0
 10
139.931
 20
287.439
 30
0.000000
  70
    32
  0
VERTEX
  8
0
  5
274D1
 10
140.107
 20
287.207
 30
0.000000
  70
    32
  0
VERTEX
  8
0
  5
274D2
 10
140.284
 20
286.977
 30
0.000000
  70
    32
  0
VERTEX
  8
0
  5
274D3
 10
140.463
 20
286.747
 30
0.000000
  70
    32
  0
VERTEX
  8
0
  5
274D4
 10
140.642
 20
286.519
 30
0.000000
  70
    32
  0
VERTEX
  8
0
  5
274D5
 10
140.823
 20
286.291
 30
0.000000
  70
    32
  0
VERTEX
  8
0
  5
274D6
 10
141.005
 20
286.065
 30
0.000000
  70
    32
  0
SEQEND
  8
0
  5
274D7
  0
POLYLINE
  5
25C19
  8
0
 10
221.46022870691579
 20
288.49648695401856
 30
0.0
 66
     1
 70
     8
  0
VERTEX
  8
0
  5
274D8
 10
221.460
 20
288.496
 30
0.000000
  70
    32
  0
VERTEX
  8
0
  5
274D9
 10
221.616
 20
288.714
 30
0.000000
  70
    32
  0
VERTEX
  8
0
  5
274DA
 10
221.770
 20
288.932
 30
0.000000
  70
    32
  0
VERTEX
  8
0
  5
274DB
 10
221.924
 20
289.151
 30
0.000000
  70
    32
  0
VERTEX
  8
0
  5
274DC
 10
222.076
 20
289.371
 30
0.000000
  70
    32
  0
VERTEX
  8
0
  5
274DD
 10
222.227
 20
289.592
 30
0.000000
  70
    32
  0
VERTEX
  8
0
  5
274DE
 10
222.377
 20
289.814
 30
0.000000
  70
    32
  0
VERTEX
  8
0
  5
274DF
 10
222.526
 20
290.036
 30
0.000000
  70
    32
  0
VERTEX
  8
0
  5
274E0
 10
222.674
 20
290.259
 30
0.000000
  70
    32
  0
VERTEX
  8
0
  5
274E1
 10
222.821
 20
290.483
 30
0.000000
  70
    32
  0
VERTEX
  8
0
  5
274E2
 10
222.967
 20
290.707
 30
0.000000
  70
    32
  0
VERTEX
  8
0
  5
274E3
 10
223.112
 20
290.933
 30
0.000000
  70
    32
  0
VERTEX
  8
0
  5
274E4
 10
223.256
 20
291.159
 30
0.000000
  70
    32
  0
VERTEX
  8
0
  5
274E5
 10
223.399
 20
291.386
 30
0.000000
  70
    32
  0
VERTEX
  8
0
  5
274E6
 10
223.540
 20
291.614
 30
0.000000
  70
    32
  0
VERTEX
  8
0
  5
274E7
 10
223.681
 20
291.842
 30
0.000000
  70
    32
  0
VERTEX
  8
0
  5
274E8
 10
223.820
 20
292.071
 30
0.000000
  70
    32
  0
VERTEX
  8
0
  5
274E9
 10
223.958
 20
292.301
 30
0.000000
  70
    32
  0
VERTEX
  8
0
  5
274EA
 10
224.095
 20
292.532
 30
0.000000
  70
    32
  0
VERTEX
  8
0
  5
274EB
 10
224.231
 20
292.763
 30
0.000000
  70
    32
  0
VERTEX
  8
0
  5
274EC
 10
224.366
 20
292.995
 30
0.000000
  70
    32
  0
VERTEX
  8
0
  5
274ED
 10
224.500
 20
293.228
 30
0.000000
  70
    32
  0
VERTEX
  8
0
  5
274EE
 10
224.633
 20
293.461
 30
0.000000
  70
    32
  0
VERTEX
  8
0
  5
274EF
 10
224.764
 20
293.695
 30
0.000000
  70
    32
  0
VERTEX
  8
0
  5
274F0
 10
224.895
 20
293.930
 30
0.000000
  70
    32
  0
VERTEX
  8
0
  5
274F1
 10
225.024
 20
294.166
 30
0.000000
  70
    32
  0
VERTEX
  8
0
  5
274F2
 10
225.152
 20
294.402
 30
0.000000
  70
    32
  0
VERTEX
  8
0
  5
274F3
 10
225.279
 20
294.639
 30
0.000000
  70
    32
  0
VERTEX
  8
0
  5
274F4
 10
225.405
 20
294.876
 30
0.000000
  70
    32
  0
VERTEX
  8
0
  5
274F5
 10
225.530
 20
295.115
 30
0.000000
  70
    32
  0
VERTEX
  8
0
  5
274F6
 10
225.653
 20
295.354
 30
0.000000
  70
    32
  0
VERTEX
  8
0
  5
274F7
 10
225.776
 20
295.593
 30
0.000000
  70
    32
  0
VERTEX
  8
0
  5
274F8
 10
225.897
 20
295.833
 30
0.000000
  70
    32
  0
VERTEX
  8
0
  5
274F9
 10
226.017
 20
296.074
 30
0.000000
  70
    32
  0
VERTEX
  8
0
  5
274FA
 10
226.136
 20
296.315
 30
0.000000
  70
    32
  0
VERTEX
  8
0
  5
274FB
 10
226.254
 20
296.557
 30
0.000000
  70
    32
  0
VERTEX
  8
0
  5
274FC
 10
226.370
 20
296.800
 30
0.000000
  70
    32
  0
VERTEX
  8
0
  5
274FD
 10
226.486
 20
297.043
 30
0.000000
  70
    32
  0
VERTEX
  8
0
  5
274FE
 10
226.600
 20
297.287
 30
0.000000
  70
    32
  0
VERTEX
  8
0
  5
274FF
 10
226.713
 20
297.532
 30
0.000000
  70
    32
  0
VERTEX
  8
0
  5
27500
 10
226.825
 20
297.777
 30
0.000000
  70
    32
  0
VERTEX
  8
0
  5
27501
 10
226.936
 20
298.022
 30
0.000000
  70
    32
  0
VERTEX
  8
0
  5
27502
 10
227.045
 20
298.269
 30
0.000000
  70
    32
  0
VERTEX
  8
0
  5
27503
 10
227.154
 20
298.516
 30
0.000000
  70
    32
  0
VERTEX
  8
0
  5
27504
 10
227.261
 20
298.763
 30
0.000000
  70
    32
  0
VERTEX
  8
0
  5
27505
 10
227.367
 20
299.011
 30
0.000000
  70
    32
  0
VERTEX
  8
0
  5
27506
 10
227.472
 20
299.259
 30
0.000000
  70
    32
  0
VERTEX
  8
0
  5
27507
 10
227.575
 20
299.508
 30
0.000000
  70
    32
  0
VERTEX
  8
0
  5
27508
 10
227.678
 20
299.758
 30
0.000000
  70
    32
  0
VERTEX
  8
0
  5
27509
 10
227.779
 20
300.008
 30
0.000000
  70
    32
  0
VERTEX
  8
0
  5
2750A
 10
227.879
 20
300.259
 30
0.000000
  70
    32
  0
VERTEX
  8
0
  5
2750B
 10
227.978
 20
300.510
 30
0.000000
  70
    32
  0
VERTEX
  8
0
  5
2750C
 10
228.075
 20
300.762
 30
0.000000
  70
    32
  0
VERTEX
  8
0
  5
2750D
 10
228.171
 20
301.014
 30
0.000000
  70
    32
  0
VERTEX
  8
0
  5
2750E
 10
228.267
 20
301.267
 30
0.000000
  70
    32
  0
VERTEX
  8
0
  5
2750F
 10
228.361
 20
301.520
 30
0.000000
  70
    32
  0
VERTEX
  8
0
  5
27510
 10
228.453
 20
301.774
 30
0.000000
  70
    32
  0
VERTEX
  8
0
  5
27511
 10
228.545
 20
302.028
 30
0.000000
  70
    32
  0
VERTEX
  8
0
  5
27512
 10
228.635
 20
302.283
 30
0.000000
  70
    32
  0
VERTEX
  8
0
  5
27513
 10
228.724
 20
302.538
 30
0.000000
  70
    32
  0
VERTEX
  8
0
  5
27514
 10
228.812
 20
302.793
 30
0.000000
  70
    32
  0
VERTEX
  8
0
  5
27515
 10
228.898
 20
303.049
 30
0.000000
  70
    32
  0
VERTEX
  8
0
  5
27516
 10
228.984
 20
303.306
 30
0.000000
  70
    32
  0
VERTEX
  8
0
  5
27517
 10
229.068
 20
303.563
 30
0.000000
  70
    32
  0
VERTEX
  8
0
  5
27518
 10
229.151
 20
303.820
 30
0.000000
  70
    32
  0
VERTEX
  8
0
  5
27519
 10
229.232
 20
304.078
 30
0.000000
  70
    32
  0
VERTEX
  8
0
  5
2751A
 10
229.313
 20
304.336
 30
0.000000
  70
    32
  0
VERTEX
  8
0
  5
2751B
 10
229.392
 20
304.595
 30
0.000000
  70
    32
  0
VERTEX
  8
0
  5
2751C
 10
229.470
 20
304.854
 30
0.000000
  70
    32
  0
VERTEX
  8
0
  5
2751D
 10
229.546
 20
305.114
 30
0.000000
  70
    32
  0
VERTEX
  8
0
  5
2751E
 10
229.622
 20
305.374
 30
0.000000
  70
    32
  0
VERTEX
  8
0
  5
2751F
 10
229.696
 20
305.634
 30
0.000000
  70
    32
  0
VERTEX
  8
0
  5
27520
 10
229.769
 20
305.895
 30
0.000000
  70
    32
  0
VERTEX
  8
0
  5
27521
 10
229.840
 20
306.156
 30
0.000000
  70
    32
  0
VERTEX
  8
0
  5
27522
 10
229.911
 20
306.417
 30
0.000000
  70
    32
  0
VERTEX
  8
0
  5
27523
 10
229.980
 20
306.679
 30
0.000000
  70
    32
  0
VERTEX
  8
0
  5
27524
 10
230.048
 20
306.941
 30
0.000000
  70
    32
  0
VERTEX
  8
0
  5
27525
 10
230.114
 20
307.204
 30
0.000000
  70
    32
  0
VERTEX
  8
0
  5
27526
 10
230.180
 20
307.467
 30
0.000000
  70
    32
  0
VERTEX
  8
0
  5
27527
 10
230.244
 20
307.730
 30
0.000000
  70
    32
  0
VERTEX
  8
0
  5
27528
 10
230.306
 20
307.994
 30
0.000000
  70
    32
  0
VERTEX
  8
0
  5
27529
 10
230.368
 20
308.257
 30
0.000000
  70
    32
  0
VERTEX
  8
0
  5
2752A
 10
230.428
 20
308.522
 30
0.000000
  70
    32
  0
VERTEX
  8
0
  5
2752B
 10
230.487
 20
308.786
 30
0.000000
  70
    32
  0
VERTEX
  8
0
  5
2752C
 10
230.545
 20
309.051
 30
0.000000
  70
    32
  0
VERTEX
  8
0
  5
2752D
 10
230.601
 20
309.316
 30
0.000000
  70
    32
  0
VERTEX
  8
0
  5
2752E
 10
230.656
 20
309.582
 30
0.000000
  70
    32
  0
VERTEX
  8
0
  5
2752F
 10
230.710
 20
309.847
 30
0.000000
  70
    32
  0
VERTEX
  8
0
  5
27530
 10
230.763
 20
310.113
 30
0.000000
  70
    32
  0
VERTEX
  8
0
  5
27531
 10
230.814
 20
310.380
 30
0.000000
  70
    32
  0
VERTEX
  8
0
  5
27532
 10
230.864
 20
310.646
 30
0.000000
  70
    32
  0
VERTEX
  8
0
  5
27533
 10
230.913
 20
310.913
 30
0.000000
  70
    32
  0
VERTEX
  8
0
  5
27534
 10
230.960
 20
311.180
 30
0.000000
  70
    32
  0
VERTEX
  8
0
  5
27535
 10
231.007
 20
311.447
 30
0.000000
  70
    32
  0
VERTEX
  8
0
  5
27536
 10
231.051
 20
311.715
 30
0.000000
  70
    32
  0
VERTEX
  8
0
  5
27537
 10
231.095
 20
311.983
 30
0.000000
  70
    32
  0
VERTEX
  8
0
  5
27538
 10
231.137
 20
312.251
 30
0.000000
  70
    32
  0
VERTEX
  8
0
  5
27539
 10
231.178
 20
312.519
 30
0.000000
  70
    32
  0
VERTEX
  8
0
  5
2753A
 10
231.218
 20
312.787
 30
0.000000
  70
    32
  0
VERTEX
  8
0
  5
2753B
 10
231.257
 20
313.056
 30
0.000000
  70
    32
  0
VERTEX
  8
0
  5
2753C
 10
231.294
 20
313.325
 30
0.000000
  70
    32
  0
VERTEX
  8
0
  5
2753D
 10
231.329
 20
313.594
 30
0.000000
  70
    32
  0
VERTEX
  8
0
  5
2753E
 10
231.364
 20
313.863
 30
0.000000
  70
    32
  0
VERTEX
  8
0
  5
2753F
 10
231.397
 20
314.132
 30
0.000000
  70
    32
  0
VERTEX
  8
0
  5
27540
 10
231.429
 20
314.402
 30
0.000000
  70
    32
  0
VERTEX
  8
0
  5
27541
 10
231.460
 20
314.672
 30
0.000000
  70
    32
  0
VERTEX
  8
0
  5
27542
 10
231.489
 20
314.942
 30
0.000000
  70
    32
  0
VERTEX
  8
0
  5
27543
 10
231.517
 20
315.212
 30
0.000000
  70
    32
  0
VERTEX
  8
0
  5
27544
 10
231.544
 20
315.482
 30
0.000000
  70
    32
  0
VERTEX
  8
0
  5
27545
 10
231.570
 20
315.752
 30
0.000000
  70
    32
  0
VERTEX
  8
0
  5
27546
 10
231.594
 20
316.023
 30
0.000000
  70
    32
  0
VERTEX
  8
0
  5
27547
 10
231.617
 20
316.293
 30
0.000000
  70
    32
  0
VERTEX
  8
0
  5
27548
 10
231.638
 20
316.564
 30
0.000000
  70
    32
  0
VERTEX
  8
0
  5
27549
 10
231.658
 20
316.835
 30
0.000000
  70
    32
  0
VERTEX
  8
0
  5
2754A
 10
231.677
 20
317.106
 30
0.000000
  70
    32
  0
VERTEX
  8
0
  5
2754B
 10
231.695
 20
317.377
 30
0.000000
  70
    32
  0
VERTEX
  8
0
  5
2754C
 10
231.711
 20
317.648
 30
0.000000
  70
    32
  0
VERTEX
  8
0
  5
2754D
 10
231.726
 20
317.919
 30
0.000000
  70
    32
  0
VERTEX
  8
0
  5
2754E
 10
231.740
 20
318.190
 30
0.000000
  70
    32
  0
VERTEX
  8
0
  5
2754F
 10
231.752
 20
318.462
 30
0.000000
  70
    32
  0
VERTEX
  8
0
  5
27550
 10
231.764
 20
318.733
 30
0.000000
  70
    32
  0
VERTEX
  8
0
  5
27551
 10
231.773
 20
319.004
 30
0.000000
  70
    32
  0
VERTEX
  8
0
  5
27552
 10
231.782
 20
319.276
 30
0.000000
  70
    32
  0
VERTEX
  8
0
  5
27553
 10
231.789
 20
319.547
 30
0.000000
  70
    32
  0
VERTEX
  8
0
  5
27554
 10
231.795
 20
319.819
 30
0.000000
  70
    32
  0
VERTEX
  8
0
  5
27555
 10
231.799
 20
320.091
 30
0.000000
  70
    32
  0
VERTEX
  8
0
  5
27556
 10
231.803
 20
320.362
 30
0.000000
  70
    32
  0
VERTEX
  8
0
  5
27557
 10
231.805
 20
320.634
 30
0.000000
  70
    32
  0
VERTEX
  8
0
  5
27558
 10
231.805
 20
320.905
 30
0.000000
  70
    32
  0
SEQEND
  8
0
  5
27559
  0
LINE
  5
25C1A
  8
0
 10
128.80534632063791
 20
400.68148701362168
 30
0.0
 11
231.8053455085246
 21
400.68148701362168
 31
0.0
  0
LINE
  5
25C1B
  8
0
 10
128.80534632063791
 20
408.38148697189848
 30
0.0
 11
231.8053455085246
 21
408.38148697189848
 31
0.0
  0
POLYLINE
  5
25C1C
  8
0
 10
209.80534598536116
 20
359.87682480564541
 30
0.0
 66
     1
 70
     8
  0
VERTEX
  8
0
  5
2755A
 10
209.805
 20
359.877
 30
0.000000
  70
    32
  0
VERTEX
  8
0
  5
2755B
 10
209.680
 20
359.980
 30
0.000000
  70
    32
  0
VERTEX
  8
0
  5
2755C
 10
209.555
 20
360.083
 30
0.000000
  70
    32
  0
VERTEX
  8
0
  5
2755D
 10
209.429
 20
360.186
 30
0.000000
  70
    32
  0
VERTEX
  8
0
  5
2755E
 10
209.303
 20
360.288
 30
0.000000
  70
    32
  0
VERTEX
  8
0
  5
2755F
 10
209.176
 20
360.390
 30
0.000000
  70
    32
  0
VERTEX
  8
0
  5
27560
 10
209.049
 20
360.491
 30
0.000000
  70
    32
  0
VERTEX
  8
0
  5
27561
 10
208.922
 20
360.592
 30
0.000000
  70
    32
  0
VERTEX
  8
0
  5
27562
 10
208.795
 20
360.692
 30
0.000000
  70
    32
  0
VERTEX
  8
0
  5
27563
 10
208.667
 20
360.792
 30
0.000000
  70
    32
  0
VERTEX
  8
0
  5
27564
 10
208.539
 20
360.892
 30
0.000000
  70
    32
  0
VERTEX
  8
0
  5
27565
 10
208.410
 20
360.991
 30
0.000000
  70
    32
  0
VERTEX
  8
0
  5
27566
 10
208.282
 20
361.089
 30
0.000000
  70
    32
  0
VERTEX
  8
0
  5
27567
 10
208.153
 20
361.187
 30
0.000000
  70
    32
  0
VERTEX
  8
0
  5
27568
 10
208.023
 20
361.285
 30
0.000000
  70
    32
  0
VERTEX
  8
0
  5
27569
 10
207.893
 20
361.382
 30
0.000000
  70
    32
  0
VERTEX
  8
0
  5
2756A
 10
207.763
 20
361.479
 30
0.000000
  70
    32
  0
VERTEX
  8
0
  5
2756B
 10
207.633
 20
361.575
 30
0.000000
  70
    32
  0
VERTEX
  8
0
  5
2756C
 10
207.503
 20
361.671
 30
0.000000
  70
    32
  0
VERTEX
  8
0
  5
2756D
 10
207.372
 20
361.766
 30
0.000000
  70
    32
  0
VERTEX
  8
0
  5
2756E
 10
207.240
 20
361.861
 30
0.000000
  70
    32
  0
VERTEX
  8
0
  5
2756F
 10
207.109
 20
361.956
 30
0.000000
  70
    32
  0
VERTEX
  8
0
  5
27570
 10
206.977
 20
362.050
 30
0.000000
  70
    32
  0
VERTEX
  8
0
  5
27571
 10
206.845
 20
362.143
 30
0.000000
  70
    32
  0
VERTEX
  8
0
  5
27572
 10
206.712
 20
362.236
 30
0.000000
  70
    32
  0
VERTEX
  8
0
  5
27573
 10
206.580
 20
362.329
 30
0.000000
  70
    32
  0
VERTEX
  8
0
  5
27574
 10
206.447
 20
362.421
 30
0.000000
  70
    32
  0
VERTEX
  8
0
  5
27575
 10
206.313
 20
362.513
 30
0.000000
  70
    32
  0
VERTEX
  8
0
  5
27576
 10
206.180
 20
362.604
 30
0.000000
  70
    32
  0
VERTEX
  8
0
  5
27577
 10
206.046
 20
362.695
 30
0.000000
  70
    32
  0
VERTEX
  8
0
  5
27578
 10
205.912
 20
362.785
 30
0.000000
  70
    32
  0
VERTEX
  8
0
  5
27579
 10
205.777
 20
362.875
 30
0.000000
  70
    32
  0
VERTEX
  8
0
  5
2757A
 10
205.642
 20
362.964
 30
0.000000
  70
    32
  0
VERTEX
  8
0
  5
2757B
 10
205.507
 20
363.053
 30
0.000000
  70
    32
  0
VERTEX
  8
0
  5
2757C
 10
205.372
 20
363.141
 30
0.000000
  70
    32
  0
VERTEX
  8
0
  5
2757D
 10
205.236
 20
363.229
 30
0.000000
  70
    32
  0
VERTEX
  8
0
  5
2757E
 10
205.100
 20
363.316
 30
0.000000
  70
    32
  0
VERTEX
  8
0
  5
2757F
 10
204.964
 20
363.403
 30
0.000000
  70
    32
  0
VERTEX
  8
0
  5
27580
 10
204.828
 20
363.490
 30
0.000000
  70
    32
  0
VERTEX
  8
0
  5
27581
 10
204.691
 20
363.576
 30
0.000000
  70
    32
  0
VERTEX
  8
0
  5
27582
 10
204.554
 20
363.661
 30
0.000000
  70
    32
  0
VERTEX
  8
0
  5
27583
 10
204.417
 20
363.746
 30
0.000000
  70
    32
  0
VERTEX
  8
0
  5
27584
 10
204.279
 20
363.831
 30
0.000000
  70
    32
  0
VERTEX
  8
0
  5
27585
 10
204.141
 20
363.915
 30
0.000000
  70
    32
  0
VERTEX
  8
0
  5
27586
 10
204.003
 20
363.998
 30
0.000000
  70
    32
  0
VERTEX
  8
0
  5
27587
 10
203.865
 20
364.081
 30
0.000000
  70
    32
  0
VERTEX
  8
0
  5
27588
 10
203.726
 20
364.164
 30
0.000000
  70
    32
  0
VERTEX
  8
0
  5
27589
 10
203.587
 20
364.246
 30
0.000000
  70
    32
  0
VERTEX
  8
0
  5
2758A
 10
203.448
 20
364.328
 30
0.000000
  70
    32
  0
VERTEX
  8
0
  5
2758B
 10
203.309
 20
364.409
 30
0.000000
  70
    32
  0
VERTEX
  8
0
  5
2758C
 10
203.169
 20
364.489
 30
0.000000
  70
    32
  0
VERTEX
  8
0
  5
2758D
 10
203.029
 20
364.569
 30
0.000000
  70
    32
  0
VERTEX
  8
0
  5
2758E
 10
202.889
 20
364.649
 30
0.000000
  70
    32
  0
VERTEX
  8
0
  5
2758F
 10
202.748
 20
364.728
 30
0.000000
  70
    32
  0
VERTEX
  8
0
  5
27590
 10
202.608
 20
364.807
 30
0.000000
  70
    32
  0
VERTEX
  8
0
  5
27591
 10
202.467
 20
364.885
 30
0.000000
  70
    32
  0
VERTEX
  8
0
  5
27592
 10
202.326
 20
364.963
 30
0.000000
  70
    32
  0
VERTEX
  8
0
  5
27593
 10
202.184
 20
365.040
 30
0.000000
  70
    32
  0
VERTEX
  8
0
  5
27594
 10
202.042
 20
365.116
 30
0.000000
  70
    32
  0
VERTEX
  8
0
  5
27595
 10
201.901
 20
365.193
 30
0.000000
  70
    32
  0
VERTEX
  8
0
  5
27596
 10
201.758
 20
365.268
 30
0.000000
  70
    32
  0
VERTEX
  8
0
  5
27597
 10
201.616
 20
365.343
 30
0.000000
  70
    32
  0
VERTEX
  8
0
  5
27598
 10
201.473
 20
365.418
 30
0.000000
  70
    32
  0
VERTEX
  8
0
  5
27599
 10
201.330
 20
365.492
 30
0.000000
  70
    32
  0
VERTEX
  8
0
  5
2759A
 10
201.187
 20
365.566
 30
0.000000
  70
    32
  0
VERTEX
  8
0
  5
2759B
 10
201.044
 20
365.639
 30
0.000000
  70
    32
  0
VERTEX
  8
0
  5
2759C
 10
200.900
 20
365.712
 30
0.000000
  70
    32
  0
VERTEX
  8
0
  5
2759D
 10
200.756
 20
365.784
 30
0.000000
  70
    32
  0
VERTEX
  8
0
  5
2759E
 10
200.612
 20
365.856
 30
0.000000
  70
    32
  0
VERTEX
  8
0
  5
2759F
 10
200.468
 20
365.927
 30
0.000000
  70
    32
  0
VERTEX
  8
0
  5
275A0
 10
200.323
 20
365.997
 30
0.000000
  70
    32
  0
VERTEX
  8
0
  5
275A1
 10
200.179
 20
366.067
 30
0.000000
  70
    32
  0
VERTEX
  8
0
  5
275A2
 10
200.034
 20
366.137
 30
0.000000
  70
    32
  0
VERTEX
  8
0
  5
275A3
 10
199.888
 20
366.206
 30
0.000000
  70
    32
  0
VERTEX
  8
0
  5
275A4
 10
199.743
 20
366.275
 30
0.000000
  70
    32
  0
VERTEX
  8
0
  5
275A5
 10
199.597
 20
366.343
 30
0.000000
  70
    32
  0
VERTEX
  8
0
  5
275A6
 10
199.452
 20
366.410
 30
0.000000
  70
    32
  0
VERTEX
  8
0
  5
275A7
 10
199.305
 20
366.477
 30
0.000000
  70
    32
  0
VERTEX
  8
0
  5
275A8
 10
199.159
 20
366.544
 30
0.000000
  70
    32
  0
VERTEX
  8
0
  5
275A9
 10
199.013
 20
366.610
 30
0.000000
  70
    32
  0
VERTEX
  8
0
  5
275AA
 10
198.866
 20
366.675
 30
0.000000
  70
    32
  0
VERTEX
  8
0
  5
275AB
 10
198.719
 20
366.740
 30
0.000000
  70
    32
  0
VERTEX
  8
0
  5
275AC
 10
198.572
 20
366.805
 30
0.000000
  70
    32
  0
VERTEX
  8
0
  5
275AD
 10
198.424
 20
366.869
 30
0.000000
  70
    32
  0
VERTEX
  8
0
  5
275AE
 10
198.277
 20
366.932
 30
0.000000
  70
    32
  0
VERTEX
  8
0
  5
275AF
 10
198.129
 20
366.995
 30
0.000000
  70
    32
  0
VERTEX
  8
0
  5
275B0
 10
197.981
 20
367.058
 30
0.000000
  70
    32
  0
VERTEX
  8
0
  5
275B1
 10
197.833
 20
367.119
 30
0.000000
  70
    32
  0
VERTEX
  8
0
  5
275B2
 10
197.685
 20
367.181
 30
0.000000
  70
    32
  0
VERTEX
  8
0
  5
275B3
 10
197.536
 20
367.242
 30
0.000000
  70
    32
  0
VERTEX
  8
0
  5
275B4
 10
197.387
 20
367.302
 30
0.000000
  70
    32
  0
VERTEX
  8
0
  5
275B5
 10
197.239
 20
367.362
 30
0.000000
  70
    32
  0
VERTEX
  8
0
  5
275B6
 10
197.089
 20
367.421
 30
0.000000
  70
    32
  0
VERTEX
  8
0
  5
275B7
 10
196.940
 20
367.480
 30
0.000000
  70
    32
  0
VERTEX
  8
0
  5
275B8
 10
196.791
 20
367.538
 30
0.000000
  70
    32
  0
VERTEX
  8
0
  5
275B9
 10
196.641
 20
367.596
 30
0.000000
  70
    32
  0
VERTEX
  8
0
  5
275BA
 10
196.491
 20
367.653
 30
0.000000
  70
    32
  0
VERTEX
  8
0
  5
275BB
 10
196.341
 20
367.709
 30
0.000000
  70
    32
  0
VERTEX
  8
0
  5
275BC
 10
196.191
 20
367.765
 30
0.000000
  70
    32
  0
VERTEX
  8
0
  5
275BD
 10
196.040
 20
367.821
 30
0.000000
  70
    32
  0
VERTEX
  8
0
  5
275BE
 10
195.890
 20
367.876
 30
0.000000
  70
    32
  0
VERTEX
  8
0
  5
275BF
 10
195.739
 20
367.931
 30
0.000000
  70
    32
  0
VERTEX
  8
0
  5
275C0
 10
195.588
 20
367.985
 30
0.000000
  70
    32
  0
VERTEX
  8
0
  5
275C1
 10
195.437
 20
368.038
 30
0.000000
  70
    32
  0
VERTEX
  8
0
  5
275C2
 10
195.286
 20
368.091
 30
0.000000
  70
    32
  0
VERTEX
  8
0
  5
275C3
 10
195.134
 20
368.143
 30
0.000000
  70
    32
  0
VERTEX
  8
0
  5
275C4
 10
194.983
 20
368.195
 30
0.000000
  70
    32
  0
VERTEX
  8
0
  5
275C5
 10
194.831
 20
368.247
 30
0.000000
  70
    32
  0
VERTEX
  8
0
  5
275C6
 10
194.679
 20
368.297
 30
0.000000
  70
    32
  0
VERTEX
  8
0
  5
275C7
 10
194.527
 20
368.348
 30
0.000000
  70
    32
  0
VERTEX
  8
0
  5
275C8
 10
194.375
 20
368.397
 30
0.000000
  70
    32
  0
VERTEX
  8
0
  5
275C9
 10
194.222
 20
368.447
 30
0.000000
  70
    32
  0
VERTEX
  8
0
  5
275CA
 10
194.070
 20
368.495
 30
0.000000
  70
    32
  0
VERTEX
  8
0
  5
275CB
 10
193.917
 20
368.543
 30
0.000000
  70
    32
  0
VERTEX
  8
0
  5
275CC
 10
193.764
 20
368.591
 30
0.000000
  70
    32
  0
VERTEX
  8
0
  5
275CD
 10
193.611
 20
368.638
 30
0.000000
  70
    32
  0
VERTEX
  8
0
  5
275CE
 10
193.458
 20
368.684
 30
0.000000
  70
    32
  0
VERTEX
  8
0
  5
275CF
 10
193.304
 20
368.730
 30
0.000000
  70
    32
  0
VERTEX
  8
0
  5
275D0
 10
193.151
 20
368.776
 30
0.000000
  70
    32
  0
VERTEX
  8
0
  5
275D1
 10
192.997
 20
368.821
 30
0.000000
  70
    32
  0
VERTEX
  8
0
  5
275D2
 10
192.843
 20
368.865
 30
0.000000
  70
    32
  0
VERTEX
  8
0
  5
275D3
 10
192.689
 20
368.909
 30
0.000000
  70
    32
  0
VERTEX
  8
0
  5
275D4
 10
192.535
 20
368.952
 30
0.000000
  70
    32
  0
VERTEX
  8
0
  5
275D5
 10
192.381
 20
368.995
 30
0.000000
  70
    32
  0
VERTEX
  8
0
  5
275D6
 10
192.227
 20
369.037
 30
0.000000
  70
    32
  0
VERTEX
  8
0
  5
275D7
 10
192.072
 20
369.079
 30
0.000000
  70
    32
  0
VERTEX
  8
0
  5
275D8
 10
191.918
 20
369.120
 30
0.000000
  70
    32
  0
VERTEX
  8
0
  5
275D9
 10
191.763
 20
369.160
 30
0.000000
  70
    32
  0
VERTEX
  8
0
  5
275DA
 10
191.608
 20
369.200
 30
0.000000
  70
    32
  0
SEQEND
  8
0
  5
275DB
  0
POLYLINE
  5
25C1D
  8
0
 10
169.00245178046865
 20
369.20024340265405
 30
0.0
 66
     1
 70
     8
  0
VERTEX
  8
0
  5
275DC
 10
169.002
 20
369.200
 30
0.000000
  70
    32
  0
VERTEX
  8
0
  5
275DD
 10
168.848
 20
369.160
 30
0.000000
  70
    32
  0
VERTEX
  8
0
  5
275DE
 10
168.693
 20
369.120
 30
0.000000
  70
    32
  0
VERTEX
  8
0
  5
275DF
 10
168.538
 20
369.079
 30
0.000000
  70
    32
  0
VERTEX
  8
0
  5
275E0
 10
168.384
 20
369.037
 30
0.000000
  70
    32
  0
VERTEX
  8
0
  5
275E1
 10
168.229
 20
368.995
 30
0.000000
  70
    32
  0
VERTEX
  8
0
  5
275E2
 10
168.075
 20
368.952
 30
0.000000
  70
    32
  0
VERTEX
  8
0
  5
275E3
 10
167.921
 20
368.909
 30
0.000000
  70
    32
  0
VERTEX
  8
0
  5
275E4
 10
167.767
 20
368.865
 30
0.000000
  70
    32
  0
VERTEX
  8
0
  5
275E5
 10
167.614
 20
368.821
 30
0.000000
  70
    32
  0
VERTEX
  8
0
  5
275E6
 10
167.460
 20
368.776
 30
0.000000
  70
    32
  0
VERTEX
  8
0
  5
275E7
 10
167.306
 20
368.730
 30
0.000000
  70
    32
  0
VERTEX
  8
0
  5
275E8
 10
167.153
 20
368.684
 30
0.000000
  70
    32
  0
VERTEX
  8
0
  5
275E9
 10
167.000
 20
368.638
 30
0.000000
  70
    32
  0
VERTEX
  8
0
  5
275EA
 10
166.847
 20
368.591
 30
0.000000
  70
    32
  0
VERTEX
  8
0
  5
275EB
 10
166.694
 20
368.543
 30
0.000000
  70
    32
  0
VERTEX
  8
0
  5
275EC
 10
166.541
 20
368.495
 30
0.000000
  70
    32
  0
VERTEX
  8
0
  5
275ED
 10
166.389
 20
368.447
 30
0.000000
  70
    32
  0
VERTEX
  8
0
  5
275EE
 10
166.236
 20
368.397
 30
0.000000
  70
    32
  0
VERTEX
  8
0
  5
275EF
 10
166.084
 20
368.348
 30
0.000000
  70
    32
  0
VERTEX
  8
0
  5
275F0
 10
165.932
 20
368.297
 30
0.000000
  70
    32
  0
VERTEX
  8
0
  5
275F1
 10
165.780
 20
368.247
 30
0.000000
  70
    32
  0
VERTEX
  8
0
  5
275F2
 10
165.628
 20
368.195
 30
0.000000
  70
    32
  0
VERTEX
  8
0
  5
275F3
 10
165.476
 20
368.143
 30
0.000000
  70
    32
  0
VERTEX
  8
0
  5
275F4
 10
165.325
 20
368.091
 30
0.000000
  70
    32
  0
VERTEX
  8
0
  5
275F5
 10
165.174
 20
368.038
 30
0.000000
  70
    32
  0
VERTEX
  8
0
  5
275F6
 10
165.023
 20
367.985
 30
0.000000
  70
    32
  0
VERTEX
  8
0
  5
275F7
 10
164.872
 20
367.931
 30
0.000000
  70
    32
  0
VERTEX
  8
0
  5
275F8
 10
164.721
 20
367.876
 30
0.000000
  70
    32
  0
VERTEX
  8
0
  5
275F9
 10
164.570
 20
367.821
 30
0.000000
  70
    32
  0
VERTEX
  8
0
  5
275FA
 10
164.420
 20
367.765
 30
0.000000
  70
    32
  0
VERTEX
  8
0
  5
275FB
 10
164.270
 20
367.709
 30
0.000000
  70
    32
  0
VERTEX
  8
0
  5
275FC
 10
164.120
 20
367.653
 30
0.000000
  70
    32
  0
VERTEX
  8
0
  5
275FD
 10
163.970
 20
367.596
 30
0.000000
  70
    32
  0
VERTEX
  8
0
  5
275FE
 10
163.820
 20
367.538
 30
0.000000
  70
    32
  0
VERTEX
  8
0
  5
275FF
 10
163.671
 20
367.480
 30
0.000000
  70
    32
  0
VERTEX
  8
0
  5
27600
 10
163.521
 20
367.421
 30
0.000000
  70
    32
  0
VERTEX
  8
0
  5
27601
 10
163.372
 20
367.362
 30
0.000000
  70
    32
  0
VERTEX
  8
0
  5
27602
 10
163.223
 20
367.302
 30
0.000000
  70
    32
  0
VERTEX
  8
0
  5
27603
 10
163.074
 20
367.242
 30
0.000000
  70
    32
  0
VERTEX
  8
0
  5
27604
 10
162.926
 20
367.181
 30
0.000000
  70
    32
  0
VERTEX
  8
0
  5
27605
 10
162.778
 20
367.119
 30
0.000000
  70
    32
  0
VERTEX
  8
0
  5
27606
 10
162.629
 20
367.058
 30
0.000000
  70
    32
  0
VERTEX
  8
0
  5
27607
 10
162.481
 20
366.995
 30
0.000000
  70
    32
  0
VERTEX
  8
0
  5
27608
 10
162.334
 20
366.932
 30
0.000000
  70
    32
  0
VERTEX
  8
0
  5
27609
 10
162.186
 20
366.869
 30
0.000000
  70
    32
  0
VERTEX
  8
0
  5
2760A
 10
162.039
 20
366.805
 30
0.000000
  70
    32
  0
VERTEX
  8
0
  5
2760B
 10
161.892
 20
366.740
 30
0.000000
  70
    32
  0
VERTEX
  8
0
  5
2760C
 10
161.745
 20
366.675
 30
0.000000
  70
    32
  0
VERTEX
  8
0
  5
2760D
 10
161.598
 20
366.610
 30
0.000000
  70
    32
  0
VERTEX
  8
0
  5
2760E
 10
161.452
 20
366.544
 30
0.000000
  70
    32
  0
VERTEX
  8
0
  5
2760F
 10
161.305
 20
366.477
 30
0.000000
  70
    32
  0
VERTEX
  8
0
  5
27610
 10
161.159
 20
366.410
 30
0.000000
  70
    32
  0
VERTEX
  8
0
  5
27611
 10
161.013
 20
366.343
 30
0.000000
  70
    32
  0
VERTEX
  8
0
  5
27612
 10
160.868
 20
366.275
 30
0.000000
  70
    32
  0
VERTEX
  8
0
  5
27613
 10
160.722
 20
366.206
 30
0.000000
  70
    32
  0
VERTEX
  8
0
  5
27614
 10
160.577
 20
366.137
 30
0.000000
  70
    32
  0
VERTEX
  8
0
  5
27615
 10
160.432
 20
366.067
 30
0.000000
  70
    32
  0
VERTEX
  8
0
  5
27616
 10
160.287
 20
365.997
 30
0.000000
  70
    32
  0
VERTEX
  8
0
  5
27617
 10
160.143
 20
365.927
 30
0.000000
  70
    32
  0
VERTEX
  8
0
  5
27618
 10
159.998
 20
365.856
 30
0.000000
  70
    32
  0
VERTEX
  8
0
  5
27619
 10
159.854
 20
365.784
 30
0.000000
  70
    32
  0
VERTEX
  8
0
  5
2761A
 10
159.711
 20
365.712
 30
0.000000
  70
    32
  0
VERTEX
  8
0
  5
2761B
 10
159.567
 20
365.639
 30
0.000000
  70
    32
  0
VERTEX
  8
0
  5
2761C
 10
159.424
 20
365.566
 30
0.000000
  70
    32
  0
VERTEX
  8
0
  5
2761D
 10
159.280
 20
365.492
 30
0.000000
  70
    32
  0
VERTEX
  8
0
  5
2761E
 10
159.137
 20
365.418
 30
0.000000
  70
    32
  0
VERTEX
  8
0
  5
2761F
 10
158.995
 20
365.343
 30
0.000000
  70
    32
  0
VERTEX
  8
0
  5
27620
 10
158.852
 20
365.268
 30
0.000000
  70
    32
  0
VERTEX
  8
0
  5
27621
 10
158.710
 20
365.193
 30
0.000000
  70
    32
  0
VERTEX
  8
0
  5
27622
 10
158.568
 20
365.116
 30
0.000000
  70
    32
  0
VERTEX
  8
0
  5
27623
 10
158.427
 20
365.040
 30
0.000000
  70
    32
  0
VERTEX
  8
0
  5
27624
 10
158.285
 20
364.963
 30
0.000000
  70
    32
  0
VERTEX
  8
0
  5
27625
 10
158.144
 20
364.885
 30
0.000000
  70
    32
  0
VERTEX
  8
0
  5
27626
 10
158.003
 20
364.807
 30
0.000000
  70
    32
  0
VERTEX
  8
0
  5
27627
 10
157.862
 20
364.728
 30
0.000000
  70
    32
  0
VERTEX
  8
0
  5
27628
 10
157.722
 20
364.649
 30
0.000000
  70
    32
  0
VERTEX
  8
0
  5
27629
 10
157.582
 20
364.569
 30
0.000000
  70
    32
  0
VERTEX
  8
0
  5
2762A
 10
157.442
 20
364.489
 30
0.000000
  70
    32
  0
VERTEX
  8
0
  5
2762B
 10
157.302
 20
364.409
 30
0.000000
  70
    32
  0
VERTEX
  8
0
  5
2762C
 10
157.163
 20
364.328
 30
0.000000
  70
    32
  0
VERTEX
  8
0
  5
2762D
 10
157.023
 20
364.246
 30
0.000000
  70
    32
  0
VERTEX
  8
0
  5
2762E
 10
156.884
 20
364.164
 30
0.000000
  70
    32
  0
VERTEX
  8
0
  5
2762F
 10
156.746
 20
364.081
 30
0.000000
  70
    32
  0
VERTEX
  8
0
  5
27630
 10
156.607
 20
363.998
 30
0.000000
  70
    32
  0
VERTEX
  8
0
  5
27631
 10
156.469
 20
363.915
 30
0.000000
  70
    32
  0
VERTEX
  8
0
  5
27632
 10
156.332
 20
363.831
 30
0.000000
  70
    32
  0
VERTEX
  8
0
  5
27633
 10
156.194
 20
363.746
 30
0.000000
  70
    32
  0
VERTEX
  8
0
  5
27634
 10
156.057
 20
363.661
 30
0.000000
  70
    32
  0
VERTEX
  8
0
  5
27635
 10
155.920
 20
363.576
 30
0.000000
  70
    32
  0
VERTEX
  8
0
  5
27636
 10
155.783
 20
363.490
 30
0.000000
  70
    32
  0
VERTEX
  8
0
  5
27637
 10
155.646
 20
363.403
 30
0.000000
  70
    32
  0
VERTEX
  8
0
  5
27638
 10
155.510
 20
363.316
 30
0.000000
  70
    32
  0
VERTEX
  8
0
  5
27639
 10
155.374
 20
363.229
 30
0.000000
  70
    32
  0
VERTEX
  8
0
  5
2763A
 10
155.239
 20
363.141
 30
0.000000
  70
    32
  0
VERTEX
  8
0
  5
2763B
 10
155.103
 20
363.053
 30
0.000000
  70
    32
  0
VERTEX
  8
0
  5
2763C
 10
154.968
 20
362.964
 30
0.000000
  70
    32
  0
VERTEX
  8
0
  5
2763D
 10
154.834
 20
362.875
 30
0.000000
  70
    32
  0
VERTEX
  8
0
  5
2763E
 10
154.699
 20
362.785
 30
0.000000
  70
    32
  0
VERTEX
  8
0
  5
2763F
 10
154.565
 20
362.695
 30
0.000000
  70
    32
  0
VERTEX
  8
0
  5
27640
 10
154.431
 20
362.604
 30
0.000000
  70
    32
  0
VERTEX
  8
0
  5
27641
 10
154.297
 20
362.513
 30
0.000000
  70
    32
  0
VERTEX
  8
0
  5
27642
 10
154.164
 20
362.421
 30
0.000000
  70
    32
  0
VERTEX
  8
0
  5
27643
 10
154.031
 20
362.329
 30
0.000000
  70
    32
  0
VERTEX
  8
0
  5
27644
 10
153.898
 20
362.236
 30
0.000000
  70
    32
  0
VERTEX
  8
0
  5
27645
 10
153.766
 20
362.143
 30
0.000000
  70
    32
  0
VERTEX
  8
0
  5
27646
 10
153.634
 20
362.050
 30
0.000000
  70
    32
  0
VERTEX
  8
0
  5
27647
 10
153.502
 20
361.956
 30
0.000000
  70
    32
  0
VERTEX
  8
0
  5
27648
 10
153.370
 20
361.861
 30
0.000000
  70
    32
  0
VERTEX
  8
0
  5
27649
 10
153.239
 20
361.766
 30
0.000000
  70
    32
  0
VERTEX
  8
0
  5
2764A
 10
153.108
 20
361.671
 30
0.000000
  70
    32
  0
VERTEX
  8
0
  5
2764B
 10
152.978
 20
361.575
 30
0.000000
  70
    32
  0
VERTEX
  8
0
  5
2764C
 10
152.847
 20
361.479
 30
0.000000
  70
    32
  0
VERTEX
  8
0
  5
2764D
 10
152.717
 20
361.382
 30
0.000000
  70
    32
  0
VERTEX
  8
0
  5
2764E
 10
152.588
 20
361.285
 30
0.000000
  70
    32
  0
VERTEX
  8
0
  5
2764F
 10
152.458
 20
361.187
 30
0.000000
  70
    32
  0
VERTEX
  8
0
  5
27650
 10
152.329
 20
361.089
 30
0.000000
  70
    32
  0
VERTEX
  8
0
  5
27651
 10
152.200
 20
360.991
 30
0.000000
  70
    32
  0
VERTEX
  8
0
  5
27652
 10
152.072
 20
360.892
 30
0.000000
  70
    32
  0
VERTEX
  8
0
  5
27653
 10
151.944
 20
360.792
 30
0.000000
  70
    32
  0
VERTEX
  8
0
  5
27654
 10
151.816
 20
360.692
 30
0.000000
  70
    32
  0
VERTEX
  8
0
  5
27655
 10
151.689
 20
360.592
 30
0.000000
  70
    32
  0
VERTEX
  8
0
  5
27656
 10
151.561
 20
360.491
 30
0.000000
  70
    32
  0
VERTEX
  8
0
  5
27657
 10
151.435
 20
360.390
 30
0.000000
  70
    32
  0
VERTEX
  8
0
  5
27658
 10
151.308
 20
360.288
 30
0.000000
  70
    32
  0
VERTEX
  8
0
  5
27659
 10
151.182
 20
360.186
 30
0.000000
  70
    32
  0
VERTEX
  8
0
  5
2765A
 10
151.056
 20
360.083
 30
0.000000
  70
    32
  0
VERTEX
  8
0
  5
2765B
 10
150.931
 20
359.980
 30
0.000000
  70
    32
  0
VERTEX
  8
0
  5
2765C
 10
150.805
 20
359.877
 30
0.000000
  70
    32
  0
SEQEND
  8
0
  5
2765D
  0
ARC
  5
25C1E
  8
0
 10
486.0303925707675
 20
282.68149017266802
 30
0.0
 40
13.70750502032087
 50
279.44749137513639
 51
296.55250862483808
  0
ARC
  5
25C1F
  8
0
 10
486.0303925707675
 20
282.68149017266842
 30
0.0
 40
13.707505020321079
 50
243.44749137516189
 51
260.55250862486372
  0
LINE
  5
25C20
  8
0
 10
219.80534354157129
 20
288.93981753758948
 30
0.0
 11
219.80534354157129
 21
276.42315505914257
 31
0.0
  0
LINE
  5
25C21
  8
3
 10
224.3053452105014
 20
285.91449438504827
 30
0.0
 11
222.30534860796701
 21
285.91449438504827
 31
0.0
  0
LINE
  5
25C22
  8
3
 10
224.3053452105014
 20
279.44849311284588
 30
0.0
 11
222.30534860796621
 21
279.44849311284588
 31
0.0
  0
LINE
  5
25C23
  8
0
 10
141.00534608519951
 20
288.93981753758948
 30
0.0
 11
141.00534608519951
 21
276.42315505914257
 31
0.0
  0
LINE
  5
25C24
  8
0
 10
145.70534601739931
 20
288.93981753758948
 30
0.0
 11
145.70534601739931
 21
276.42315505914257
 31
0.0
  0
LINE
  5
25C25
  8
1
 10
238.7581901492149
 20
282.68149017266802
 30
0.0
 11
121.8525044739153
 21
282.68149017266802
 31
0.0
  0
LINE
  5
25C26
  8
1
 10
180.3053473115651
 20
173.48948078404459
 30
0.0
 11
180.30534731156561
 21
430.87349956129071
 31
0.0
  0
LINE
  5
25D47
  8
0
 10
486.0303925707675
 20
397.88149017266778
 30
0.0
 11
483.07319239325261
 21
371.68149017266802
 31
0.0
  0
ARC
  5
25DDD
  8
0
 10
397.03038935211748
 20
619.1556305522131
 30
0.0
 40
1.000000000000085
 50
180.0
 51
250.99999999999579
  0
LINE
  5
25DDE
  8
0
 10
396.0303925707683
 20
622.54654295885246
 30
0.0
 11
396.0303925707683
 21
619.15563099229018
 31
0.0
  0
ARC
  5
25DDF
  8
0
 10
396.33038935211857
 20
622.54654340588729
 30
0.0
 40
0.2999999999999403
 50
90.0
 51
180.0
  0
ARC
  5
25DE0
  8
0
 10
396.33038935211857
 20
625.54654340588741
 30
0.0
 40
0.2999999999998692
 50
180.0
 51
270.0
  0
LINE
  5
25DE1
  8
0
 10
396.0303925707683
 20
631.54654257142226
 30
0.0
 11
396.0303925707683
 21
625.54654158794574
 31
0.0
  0
ARC
  5
25DE2
  8
0
 10
396.33038935211857
 20
631.54654340588729
 30
0.0
 40
0.2999999999998692
 50
90.0
 51
180.0
  0
ARC
  5
25DE3
  8
0
 10
396.33038935211857
 20
634.54654340588741
 30
0.0
 40
0.2999999999998692
 50
180.0
 51
270.0
  0
LINE
  5
25DE4
  8
0
 10
396.0303925707683
 20
637.937456892368
 30
0.0
 11
396.0303925707683
 21
634.54654306316058
 31
0.0
  0
ARC
  5
25DE5
  8
0
 10
397.03038935211748
 20
637.93745625956171
 30
0.0
 40
1.000000000000085
 50
108.9999999999919
 51
179.9999999999479
  0
LINE
  5
25DE6
  8
0
 10
396.33038274792278
 20
625.24654396021049
 30
0.0
 11
396.33038274792278
 21
622.84654431187789
 31
0.0
  0
LINE
  5
25DE7
  8
0
 10
396.33038274792278
 20
634.2465435727803
 30
0.0
 11
396.33038274792278
 21
631.8465439244477
 31
0.0
  0
LINE
  5
25DE8
  8
0
 10
396.70481912640179
 20
618.21011133634727
 30
0.0
 11
404.84307341126049
 21
615.40788464390926
 31
0.0
  0
LINE
  5
25DE9
  8
0
 10
404.84307341126049
 20
641.6852013781039
 30
0.0
 11
396.70481912640179
 21
638.88297468566577
 31
0.0
  0
ARC
  5
25DEA
  8
0
 10
405.81978454633253
 20
618.24444044508664
 30
0.0
 40
2.9999999999863691
 50
250.99999999994651
 51
270.00000000001302
  0
ARC
  5
25DEB
  8
0
 10
405.81978454633253
 20
638.84864636668635
 30
0.0
 40
2.999999999986414
 50
89.999999999973952
 51
109.0000000000411
  0
ARC
  5
25DEC
  8
0
 10
407.49591487734659
 20
614.49444044509937
 30
0.0
 40
0.7500000000000285
 50
90.0
 51
270.0
  0
ARC
  5
25DED
  8
0
 10
407.49591487734659
 20
642.5986463666718
 30
0.0
 40
0.7500000000000285
 50
90.0
 51
270.0
  0
ARC
  5
25DEE
  8
0
 10
411.85223119385932
 20
612.99444044510119
 30
0.0
 40
0.7500000000000285
 50
90.0
 51
270.0
  0
ARC
  5
25DEF
  8
0
 10
411.85223119385932
 20
644.09864636667362
 30
0.0
 40
0.7500000000000285
 50
90.0
 51
270.0
  0
LINE
  5
25DF0
  8
0
 10
414.03038434532721
 20
612.24443890297096
 30
0.0
 11
431.55571453121752
 21
606.20998643481425
 31
0.0
  0
LINE
  5
25DF1
  8
0
 10
431.55571453121752
 20
650.8830995871989
 30
0.0
 11
414.03038434532721
 21
644.84864711904208
 31
0.0
  0
ARC
  5
25DF2
  8
0
 10
432.53241717935788
 20
609.04654340586194
 30
0.0
 40
2.9999999999748179
 50
250.99999999992579
 51
270.00000000001302
  0
ARC
  5
25DF3
  8
0
 10
432.53241717935788
 20
648.04654340591276
 30
0.0
 40
2.9999999999748179
 50
89.999999999973952
 51
109.00000000007419
  0
LINE
  5
25DF4
  8
0
 10
396.33038274792278
 20
622.84654431187789
 30
0.0
 11
472.03039257076853
 21
622.84654431187755
 31
0.0
  0
LINE
  5
25DF5
  8
0
 10
396.33038274792278
 20
625.24654396021049
 30
0.0
 11
472.03039257076853
 21
625.24654396021015
 31
0.0
  0
LINE
  5
25DF6
  8
0
 10
396.33038274792278
 20
631.8465439244477
 30
0.0
 11
472.03039257076853
 21
631.84654392444725
 31
0.0
  0
LINE
  5
25DF7
  8
0
 10
396.33038274792278
 20
634.2465435727803
 30
0.0
 11
472.03039257076853
 21
634.2465435727803
 31
0.0
  0
LINE
  5
25DF8
  8
0
 10
405.8175769399752
 20
615.24444125735454
 30
0.0
 11
472.03039257076853
 21
615.24444125735397
 31
0.0
  0
LINE
  5
25DF9
  8
0
 10
405.81978454633338
 20
641.8486463666726
 30
0.0
 11
472.03039257076853
 21
641.84864647424308
 31
0.0
  0
LINE
  5
25DFA
  8
0
 10
407.49441602431921
 20
613.74444194280795
 30
0.0
 11
472.03039257076853
 21
613.74444194280738
 31
0.0
  0
LINE
  5
25DFB
  8
0
 10
407.49511660930762
 20
643.34864594185035
 30
0.0
 11
472.03039257076853
 21
643.34864594184955
 31
0.0
  0
LINE
  5
25DFC
  8
0
 10
411.85223119385932
 20
612.24444044510119
 30
0.0
 11
472.03039257076853
 21
612.24443981956244
 31
0.0
  0
LINE
  5
25DFD
  8
0
 10
411.85223119385932
 20
644.84864636667362
 30
0.0
 11
472.03039257076853
 21
644.84864667185855
 31
0.0
  0
LINE
  5
25DFE
  8
0
 10
432.53241717935879
 20
606.04654340588695
 30
0.0
 11
472.03039257076853
 21
606.04654327386788
 31
0.0
  0
LINE
  5
25DFF
  8
0
 10
432.53241719147422
 20
651.04654340588775
 30
0.0
 11
472.03039257076853
 21
651.04654324636329
 31
0.0
  0
TEXT
  5
271DD
  8
0
 62
     3
 10
0.0
 20
0.0
 30
0.0
 40
10.0
  1
CAE2-180SBL
  7
STANDARD1
  0
ENDSEC
  0
EOF
