  0
SECTION
  2
HEADER
  9
$ACADVER
  1
AC1009
  9
$INSBASE
 10
0.0
 20
0.0
 30
0.0
  9
$EXTMIN
 10
0.0
 20
-2.960436562073669
 30
0.0
  9
$EXTMAX
 10
547.09370702115029
 20
441.57567298692811
 30
0.0
  9
$LIMMIN
 10
0.0
 20
0.0
  9
$LIMMAX
 10
375.0
 20
270.0
  9
$ORTHOMODE
 70
     1
  9
$REGENMODE
 70
     1
  9
$FILLMODE
 70
     1
  9
$QTEXTMODE
 70
     0
  9
$MIRRTEXT
 70
     1
  9
$DRAGMODE
 70
     2
  9
$LTSCALE
 40
10.0
  9
$OSMODE
 70
  3071
  9
$ATTMODE
 70
     1
  9
$TEXTSIZE
 40
5.0
  9
$TRACEWID
 40
0.05
  9
$TEXTSTYLE
  7
STANDARD
  9
$CLAYER
  8
0
  9
$CELTYPE
  6
BYLAYER
  9
$CECOLOR
 62
     6
  9
$DIMSCALE
 40
2.0
  9
$DIMASZ
 40
3.0
  9
$DIMEXO
 40
2.0
  9
$DIMDLI
 40
0.38
  9
$DIMRND
 40
0.0
  9
$DIMDLE
 40
0.0
  9
$DIMEXE
 40
2.0
  9
$DIMTP
 40
0.0
  9
$DIMTM
 40
0.0
  9
$DIMTXT
 40
3.2000000000000002
  9
$DIMCEN
 40
0.0
  9
$DIMTSZ
 40
0.0
  9
$DIMTOL
 70
     0
  9
$DIMLIM
 70
     0
  9
$DIMTIH
 70
     0
  9
$DIMTOH
 70
     0
  9
$DIMSE1
 70
     0
  9
$DIMSE2
 70
     0
  9
$DIMTAD
 70
     1
  9
$DIMZIN
 70
     8
  9
$DIMBLK
  1

  9
$DIMASO
 70
     0
  9
$DIMSHO
 70
     0
  9
$DIMPOST
  1

  9
$DIMAPOST
  1

  9
$DIMALT
 70
     0
  9
$DIMALTD
 70
     2
  9
$DIMALTF
 40
25.399999999999999
  9
$DIMLFAC
 40
1.0
  9
$DIMTOFL
 70
     0
  9
$DIMTVP
 40
1.6000000000000001
  9
$DIMTIX
 70
     1
  9
$DIMSOXD
 70
     0
  9
$DIMSAH
 70
     0
  9
$DIMBLK1
  1

  9
$DIMBLK2
  1

  9
$DIMSTYLE
  2
STANDARD
  9
$DIMCLRD
 70
     0
  9
$DIMCLRE
 70
     0
  9
$DIMCLRT
 70
     0
  9
$DIMTFAC
 40
1.0
  9
$DIMGAP
 40
1.1999999999999991
  9
$LUNITS
 70
     2
  9
$LUPREC
 70
     4
  9
$SKETCHINC
 40
0.1
  9
$FILLETRAD
 40
0.0
  9
$AUNITS
 70
     0
  9
$AUPREC
 70
     4
  9
$MENU
  1
ACAD
  9
$ELEVATION
 40
0.0
  9
$PELEVATION
 40
0.0
  9
$THICKNESS
 40
0.0
  9
$LIMCHECK
 70
     0
  9
$BLIPMODE
 70
     0
  9
$CHAMFERA
 40
0.0
  9
$CHAMFERB
 40
0.0
  9
$SKPOLY
 70
     0
  9
$TDCREATE
 40
2448055.7149187499
  9
$TDUPDATE
 40
2456598.5590435299
  9
$TDINDWG
 40
4.5318102545999999
  9
$TDUSRTIMER
 40
4.5318102545999999
  9
$USRTIMER
 70
     1
  9
$ANGBASE
 50
0.0
  9
$ANGDIR
 70
     0
  9
$PDMODE
 70
     0
  9
$PDSIZE
 40
0.0
  9
$PLINEWID
 40
0.0
  9
$COORDS
 70
     1
  9
$SPLFRAME
 70
     0
  9
$SPLINETYPE
 70
     6
  9
$SPLINESEGS
 70
     8
  9
$ATTDIA
 70
     0
  9
$ATTREQ
 70
     1
  9
$HANDLING
 70
     1
  9
$HANDSEED
  5
442AE
  9
$SURFTAB1
 70
     6
  9
$SURFTAB2
 70
     6
  9
$SURFTYPE
 70
     6
  9
$SURFU
 70
     6
  9
$SURFV
 70
     6
  9
$UCSNAME
  2

  9
$UCSORG
 10
0.0
 20
0.0
 30
0.0
  9
$UCSXDIR
 10
1.0
 20
0.0
 30
0.0
  9
$UCSYDIR
 10
0.0
 20
1.0
 30
0.0
  9
$PUCSNAME
  2

  9
$PUCSORG
 10
0.0
 20
0.0
 30
0.0
  9
$PUCSXDIR
 10
1.0
 20
0.0
 30
0.0
  9
$PUCSYDIR
 10
0.0
 20
1.0
 30
0.0
  9
$USERI1
 70
     0
  9
$USERI2
 70
     0
  9
$USERI3
 70
     0
  9
$USERI4
 70
     0
  9
$USERI5
 70
     0
  9
$USERR1
 40
0.0
  9
$USERR2
 40
0.0
  9
$USERR3
 40
0.0
  9
$USERR4
 40
0.0
  9
$USERR5
 40
0.0
  9
$WORLDVIEW
 70
     1
  9
$SHADEDGE
 70
     3
  9
$SHADEDIF
 70
    70
  9
$TILEMODE
 70
     1
  9
$MAXACTVP
 70
    16
  9
$PLIMCHECK
 70
     0
  9
$PEXTMIN
 10
1.0000000000000000E+020
 20
1.0000000000000000E+020
 30
1.0000000000000000E+020
  9
$PEXTMAX
 10
-1.0000000000000000E+020
 20
-1.0000000000000000E+020
 30
-1.0000000000000000E+020
  9
$PLIMMIN
 10
0.0
 20
0.0
  9
$PLIMMAX
 10
12.0
 20
9.0
  9
$UNITMODE
 70
     0
  9
$VISRETAIN
 70
     0
  9
$PLINEGEN
 70
     1
  9
$PSLTSCALE
 70
     0
  0
ENDSEC
  0
SECTION
  2
TABLES
  0
TABLE
  2
VPORT
 70
     1
  0
VPORT
  2
*ACTIVE
 70
     0
 10
0.0
 20
0.0
 11
1.0
 21
1.0
 12
285.8653347345749
 22
219.30549730902931
 13
0.0
 23
0.0
 14
5.0
 24
5.0
 15
10.0
 25
10.0
 16
0.0
 26
0.0
 36
1.0
 17
0.0
 27
0.0
 37
0.0
 40
448.5544557702305
 41
1.831871345029239
 42
50.0
 43
0.0
 44
0.0
 50
0.0
 51
0.0
 71
     0
 72
   500
 73
     1
 74
     1
 75
     0
 76
     0
 77
     0
 78
     2
  0
ENDTAB
  0
TABLE
  2
LTYPE
 70
     3
  0
LTYPE
  2
CONTINUOUS
 70
     0
  3
実線
 72
    65
 73
     0
 40
0.0
  0
LTYPE
  2
CENTER
 70
     0
  3
____ _ ____ _ ____ _ ____ _ ____ _ ____ _ ____
 72
    65
 73
     4
 40
2.0
 49
1.25
 49
-0.25
 49
0.25
 49
-0.25
  0
LTYPE
  2
PHANTOM2
 70
     0
  3
___ _ _ ___ _ _ ___ _ _ ___ _ _
 72
    65
 73
     6
 40
1.25
 49
0.625
 49
-0.125
 49
0.125
 49
-0.125
 49
0.125
 49
-0.125
  0
ENDTAB
  0
TABLE
  2
LAYER
 70
     4
  0
LAYER
  2
0
 70
     0
 62
     7
  6
CONTINUOUS
  0
LAYER
  2
1
 70
     0
 62
     1
  6
CENTER
  0
LAYER
  2
DEFPOINTS
 70
     0
 62
     7
  6
CONTINUOUS
  0
LAYER
  2
3
 70
     0
 62
     3
  6
CONTINUOUS
  0
ENDTAB
  0
TABLE
  2
STYLE
 70
     3
  0
STYLE
  2
STANDARD
 70
     0
 40
0.0
 41
1.0
 50
0.0
 71
     0
 42
5.0
  3
simplex.shx
  4
bigfont.shx
  0
STYLE
  2
07500
 70
     0
 40
0.0
 41
0.75
 50
0.0
 71
     0
 42
0.2
  3
simplex.shx
  4
bigfont.shx
  0
STYLE
  2
STANDARD1
 70
     0
 40
0.0
 41
1.0
 50
0.0
 71
     0
 42
3.0
  3
txt
  4

  0
ENDTAB
  0
TABLE
  2
VIEW
 70
     2
  0
VIEW
  2
ALL
 70
     0
 40
270.0
 10
220.99159663865549
 20
135.0
 41
0.0
 11
0.0
 21
0.0
 31
1.0
 12
0.0
 22
0.0
 32
0.0
 42
0.0
 43
0.0
 44
0.0
 50
0.0
 71
     0
  0
VIEW
  2
OLE1
 70
     0
 40
168.2487151179721
 10
2892.3009567448912
 20
702.51600084347126
 41
162.5749581879237
 11
0.0
 21
0.0
 31
1.0
 12
0.0
 22
0.0
 32
0.0
 42
50.0
 43
0.0
 44
0.0
 50
0.0
 71
     0
  0
ENDTAB
  0
TABLE
  2
UCS
 70
     0
  0
ENDTAB
  0
TABLE
  2
APPID
 70
    48
  0
APPID
  2
ACAD
 70
     0
  0
APPID
  2
DCO15
 70
     0
  0
APPID
  2
GENIUS_GENOREF_13
 70
     0
  0
APPID
  2
GENIUS_GENOENT_13
 70
     0
  0
APPID
  2
GENIUS_GENBH_13
 70
     0
  0
APPID
  2
GENIUS_GENOBJ_13
 70
     0
  0
APPID
  2
GENIUS_GENODEF_13
 70
     0
  0
APPID
  2
GENIUS_GENOLIS_13
 70
     0
  0
APPID
  2
GENIUS_GENOBJ-NBEHI-BHF_13
 70
     0
  0
APPID
  2
GENIUS_GENOBJ-NBEHI-BHB_13
 70
     0
  0
APPID
  2
GENIUS_GENOBJ-F-PART_13
 70
     0
  0
APPID
  2
GENIUS_GEFSTDP_13
 70
     0
  0
APPID
  2
GENIUS_GENOBJ-N-RSSYM_13
 70
     0
  0
APPID
  2
GENIUS_GENSYMENT_13
 70
     0
  0
APPID
  2
GENIUS_GENOBJ-N-TIT_13
 70
     0
  0
APPID
  2
GENIUS_GENTITLE_13
 70
     0
  0
APPID
  2
GENIUS_GENZVEED_13
 70
     0
  0
APPID
  2
GENIUS_GENOBJ-N-LEADER_13
 70
     0
  0
APPID
  2
GENIUS_GENOBJ-N-FIL_13
 70
     0
  0
APPID
  2
GENIUS_GENOBJ-N-SEC_13
 70
     0
  0
APPID
  2
GENIUS_GENOBJ-N-CRS_13
 70
     0
  0
APPID
  2
GENIUS_GENOBJ-N-ZOO_13
 70
     0
  0
APPID
  2
GENIUS_GENZOO_13
 70
     0
  0
APPID
  2
GENIUS_GENOBJ-F-TOL_13
 70
     0
  0
APPID
  2
GENIUS_GENFIL_13
 70
     0
  0
APPID
  2
GENIUS_GENOBJ-N-CHA_13
 70
     0
  0
APPID
  2
_CALL_MAC$
 70
     0
  0
APPID
  2
ASM_BASE
 70
     0
  0
APPID
  2
ASM_EXPLO_VER_2_00
 70
     0
  0
APPID
  2
ASM_CADM_VER_12_00
 70
     0
  0
APPID
  2
ASM_BASEFORO
 70
     0
  0
APPID
  2
ASM_BASETRAVI
 70
     0
  0
APPID
  2
ASM_BASETRAVI1
 70
     0
  0
APPID
  2
ASM_GRUPPI
 70
     0
  0
APPID
  2
ASM_CADM_ALBERO
 70
     0
  0
APPID
  2
ASM_GOLE
 70
     0
  0
APPID
  2
ACAD_MLEADERVER
 70
     0
  0
APPID
  2
ACAD_DSTYLE_DIMJAG
 70
     0
  0
APPID
  2
ACAD_DSTYLE_DIMTALN
 70
     0
  0
APPID
  2
ACAD_EXEMPT_FROM_CAD_STANDARDS
 70
     0
  0
APPID
  2
ACAD_DSTYLE_DIMRADIAL_EXTENSION
 70
     0
  0
APPID
  2
ACAD_PSEXT
 70
     0
  0
APPID
  2
ACAD_DSTYLE_DIMBREAK
 70
     0
  0
APPID
  2
ACAECLAYERSTANDARD
 70
     0
  0
APPID
  2
ACCMTRANSPARENCY
 70
     0
  0
APPID
  2
GRADIENTCOLOR1ACI
 70
     0
  0
APPID
  2
GRADIENTCOLOR2ACI
 70
     0
  0
APPID
  2
ACAD_NAV_VCDISPLAY
 70
     0
  0
ENDTAB
  0
TABLE
  2
DIMSTYLE
 70
     1
  0
DIMSTYLE
  2
STANDARD
 70
     0
  3

  4

  5

  6

  7

 40
1.0
 41
0.18
 42
0.0625
 43
0.38
 44
0.18
 45
0.0
 46
0.0
 47
0.0
 48
0.0
140
0.18
141
0.09
142
0.0
143
25.399999999999999
144
1.0
145
0.0
146
1.0
147
0.09
 71
     0
 72
     0
 73
     1
 74
     1
 75
     0
 76
     0
 77
     0
 78
     0
170
     0
171
     2
172
     0
173
     0
174
     0
175
     0
176
     0
177
     0
178
     0
  0
ENDTAB
  0
ENDSEC
  0
SECTION
  2
BLOCKS
  0
BLOCK
  8
0
  2
$MODEL_SPACE
 70
     0
 10
0.0
 20
0.0
 30
0.0
  3
$MODEL_SPACE
  1

  0
ENDBLK
  5
36
  8
0
  0
BLOCK
 67
     1
  8
0
  2
$PAPER_SPACE
 70
     0
 10
0.0
 20
0.0
 30
0.0
  3
$PAPER_SPACE
  1

  0
ENDBLK
  5
34
 67
     1
  8
0
  0
ENDSEC
  0
SECTION
  2
ENTITIES
  0
LINE
  5
43C57
  8
0
 10
313.95048305371643
 20
243.44368873142079
 30
0.0
 11
315.44926238973858
 21
234.94368873142079
 31
0.0
  0
LINE
  5
43C58
  8
0
 10
384.4517037176945
 20
234.94368873142079
 30
0.0
 11
385.95048305371643
 21
243.44368873142079
 31
0.0
  0
LINE
  5
43C59
  8
0
 10
315.15048305371653
 20
244.24368873142069
 30
0.0
 11
315.15048305371653
 21
243.44368873142079
 31
0.0
  0
LINE
  5
43C5A
  8
0
 10
384.75048305371638
 20
243.44368873142079
 30
0.0
 11
384.75048305371638
 21
244.24368873142069
 31
0.0
  0
LINE
  5
43C5B
  8
0
 10
318.95048305371643
 20
234.94368873142079
 30
0.0
 11
318.95048305371643
 21
232.94368873142079
 31
0.0
  0
LINE
  5
43C5C
  8
0
 10
380.95048305371643
 20
229.2436887314208
 30
0.0
 11
380.95048305371643
 21
234.94368873142079
 31
0.0
  0
CIRCLE
  5
43C61
  8
0
 10
310.95048305371643
 20
179.74368873142069
 30
0.0
 40
6.258333333333268
  0
LINE
  5
43C62
  8
0
 10
307.19770630398398
 20
173.24368873142069
 30
0.0
 11
314.7032598034491
 21
173.24368873142069
 31
0.0
  0
LINE
  5
43C63
  8
0
 10
303.4449295542513
 20
179.74368873142069
 30
0.0
 11
307.19770630398398
 21
173.24368873142069
 31
0.0
  0
LINE
  5
43C64
  8
0
 10
307.19770630398398
 20
186.2436887314208
 30
0.0
 11
303.4449295542513
 21
179.74368873142069
 31
0.0
  0
LINE
  5
43C65
  8
0
 10
314.7032598034491
 20
186.2436887314208
 30
0.0
 11
307.19770630398398
 21
186.2436887314208
 31
0.0
  0
LINE
  5
43C66
  8
0
 10
318.4560365531816
 20
179.74368873142069
 30
0.0
 11
314.7032598034491
 21
186.2436887314208
 31
0.0
  0
LINE
  5
43C67
  8
0
 10
314.7032598034491
 20
173.24368873142069
 30
0.0
 11
318.4560365531816
 21
179.74368873142069
 31
0.0
  0
LINE
  5
43C68
  8
0
 10
399.95048305371643
 20
244.24368873142069
 30
0.0
 11
399.95048305371643
 21
246.7436887314208
 31
0.0
  0
LINE
  5
43C6F
  8
0
 10
299.95048305371643
 20
244.24368873142069
 30
0.0
 11
299.95048305371643
 21
246.7436887314208
 31
0.0
  0
LINE
  5
43C70
  8
0
 10
299.95048305371643
 20
244.24368873142069
 30
0.0
 11
399.95048305371631
 21
244.24368873142069
 31
0.0
  0
LINE
  5
43C71
  8
0
 10
299.95048305371643
 20
246.7436887314208
 30
0.0
 11
399.95048305371631
 21
246.7436887314208
 31
0.0
  0
LINE
  5
43C73
  8
0
 10
315.44926238973858
 20
234.94368873142079
 30
0.0
 11
384.4517037176945
 21
234.94368873142079
 31
0.0
  0
LINE
  5
43C75
  8
0
 10
313.95048305371643
 20
243.44368873142079
 30
0.0
 11
385.95048305371643
 21
243.44368873142079
 31
0.0
  0
LINE
  5
43C76
  8
0
 10
328.11015338587481
 20
232.94368873142079
 30
0.0
 11
328.11015338587481
 21
177.9064851336596
 31
0.0
  0
LINE
  5
43C77
  8
0
 10
380.95048305371643
 20
229.2436887314208
 30
0.0
 11
328.11015338587481
 21
177.9064851336596
 31
0.0
  0
LINE
  5
43C78
  8
0
 10
298.98380405050739
 20
232.94368873142079
 30
0.0
 11
250.46714355211131
 21
219.94368873142079
 31
0.0
  0
LINE
  5
43C79
  8
0
 10
328.11015338587481
 20
232.94368873142079
 30
0.0
 11
298.98380405050739
 21
232.94368873142079
 31
0.0
  0
ARC
  5
43C7A
  8
0
 10
315.65048305371693
 20
179.7436887314189
 30
0.0
 40
9.9999999999981242
 50
270.0
 51
314.17336491332611
  0
LINE
  5
43C7B
  8
0
 10
299.6565461819439
 20
206.94368873142071
 30
0.0
 11
296.11248683547592
 21
181.12126783315489
 31
0.0
  0
LINE
  5
43C7C
  8
0
 10
253.9504830537164
 20
206.94368873142071
 30
0.0
 11
299.6565461819439
 21
206.94368873142071
 31
0.0
  0
LINE
  5
43C7D
  8
0
 10
250.46714355211131
 20
219.94368873142079
 30
0.0
 11
253.9504830537164
 21
206.94368873142071
 31
0.0
  0
LINE
  5
43C7E
  8
0
 10
306.03518201792798
 20
169.74368873142069
 30
0.0
 11
315.65048305371653
 21
169.74368873142069
 31
0.0
  0
ARC
  5
43C7F
  8
0
 10
306.03518201792798
 20
179.7594040194534
 30
0.0
 40
10.01571528803259
 50
172.18513004291049
 51
270.0
  0
LINE
  5
43C80
  8
0
 10
322.61880062703239
 20
172.571342518541
 30
0.0
 11
328.11015338587481
 21
177.9064851336596
 31
0.0
  0
LINE
  5
43CA2
  8
0
 10
122.3293424108992
 20
186.2436887314208
 30
0.0
 11
122.2645880227285
 21
186.0020220647541
 31
0.0
  0
LINE
  5
43CA3
  8
0
 10
122.2645880227285
 20
173.48535539808751
 30
0.0
 11
122.3293424108992
 21
173.24368873142069
 31
0.0
  0
LINE
  5
43CA4
  8
0
 10
127.69983363455771
 20
173.24368873142069
 30
0.0
 11
127.7645880227285
 21
173.48535539808751
 31
0.0
  0
LINE
  5
43CA5
  8
0
 10
127.7645880227285
 20
186.0020220647541
 30
0.0
 11
127.69983363455771
 21
186.2436887314208
 31
0.0
  0
LINE
  5
43CA6
  8
0
 10
177.19983363455751
 20
173.24368873142069
 30
0.0
 11
177.2645880227285
 21
173.48535539808751
 31
0.0
  0
LINE
  5
43CA7
  8
0
 10
177.2645880227285
 20
186.0020220647541
 30
0.0
 11
177.19983363455751
 21
186.2436887314208
 31
0.0
  0
LINE
  5
43CA8
  8
0
 10
169.7645880227285
 20
185.7436887314208
 30
0.0
 11
169.2645880227285
 21
185.7436887314208
 31
0.0
  0
LINE
  5
43CA9
  8
0
 10
130.2645880227285
 20
185.7436887314208
 30
0.0
 11
129.7645880227285
 21
185.7436887314208
 31
0.0
  0
LINE
  5
43CAA
  8
0
 10
129.7645880227285
 20
173.74368873142069
 30
0.0
 11
130.2645880227285
 21
173.74368873142069
 31
0.0
  0
LINE
  5
43CAB
  8
0
 10
169.2645880227285
 20
173.74368873142069
 30
0.0
 11
169.7645880227285
 21
173.74368873142069
 31
0.0
  0
LINE
  5
43CAC
  8
0
 10
122.2645880227285
 20
185.5586887314208
 30
0.0
 11
119.7645880227285
 21
185.5586887314208
 31
0.0
  0
LINE
  5
43CAD
  8
0
 10
119.7645880227285
 20
173.92868873142089
 30
0.0
 11
122.2645880227285
 21
173.92868873142089
 31
0.0
  0
LINE
  5
43CB0
  8
0
 10
113.7645880227283
 20
243.44368873142079
 30
0.0
 11
115.2633673587504
 21
234.94368873142079
 31
0.0
  0
LINE
  5
43CB1
  8
0
 10
184.26580868670629
 20
234.94368873142079
 30
0.0
 11
185.7645880227283
 21
243.44368873142079
 31
0.0
  0
LINE
  5
43CB2
  8
0
 10
114.96458802272829
 20
244.24368873142069
 30
0.0
 11
114.96458802272829
 21
243.44368873142079
 31
0.0
  0
LINE
  5
43CB3
  8
0
 10
184.5645880227284
 20
243.44368873142079
 30
0.0
 11
184.5645880227284
 21
244.24368873142069
 31
0.0
  0
LINE
  5
43CB4
  8
0
 10
118.7645880227282
 20
234.94368873142079
 30
0.0
 11
118.7645880227282
 21
199.12553236232571
 31
0.0
  0
LINE
  5
43CB5
  8
0
 10
180.7645880227283
 20
199.12553236232549
 30
0.0
 11
180.7645880227283
 21
234.94368873142079
 31
0.0
  0
ARC
  5
43CB6
  8
0
 10
143.487122903261
 20
140.7436887314218
 30
0.0
 40
1.000000000001072
 50
199.00000000003189
 51
269.99999999995441
  0
ARC
  5
43CB7
  8
0
 10
143.7645880227287
 20
140.0436887314207
 30
0.0
 40
0.2999999999998408
 50
269.99999999998039
 51
0.0000000000211698
  0
LINE
  5
43CB8
  8
0
 10
143.48712290326009
 20
139.7436887314208
 30
0.0
 11
143.7645880227285
 21
139.7436887314208
 31
0.0
  0
ARC
  5
43CB9
  8
0
 10
146.76458802272819
 20
140.0436887314207
 30
0.0
 40
0.2999999999998408
 50
179.9999999999788
 51
270.00000000001961
  0
LINE
  5
43CBA
  8
0
 10
146.7645880227285
 20
139.7436887314208
 30
0.0
 11
152.7645880227285
 21
139.7436887314208
 31
0.0
  0
ARC
  5
43CBB
  8
0
 10
152.7645880227285
 20
140.0436887314207
 30
0.0
 40
0.2999999999998977
 50
269.99999999998039
 51
0.0000000000211698
  0
ARC
  5
43CBC
  8
0
 10
156.04205314219601
 20
140.7436887314218
 30
0.0
 40
1.000000000001072
 50
270.00000000003911
 51
340.99999999996942
  0
LINE
  5
43CBD
  8
0
 10
155.7645880227285
 20
139.7436887314208
 30
0.0
 11
156.04205314219689
 21
139.7436887314208
 31
0.0
  0
ARC
  5
43CBE
  8
0
 10
155.7645880227283
 20
140.0436887314207
 30
0.0
 40
0.2999999999998408
 50
179.9999999999788
 51
270.00000000001961
  0
LINE
  5
43CBF
  8
0
 10
144.0645880227284
 20
140.04368873142079
 30
0.0
 11
146.46458802272849
 21
140.04368873142079
 31
0.0
  0
LINE
  5
43CC0
  8
0
 10
153.0645880227284
 20
140.04368873142079
 30
0.0
 11
155.46458802272849
 21
140.04368873142079
 31
0.0
  0
LINE
  5
43CC2
  8
0
 10
141.84931986891431
 20
142.42866063250079
 30
0.0
 11
142.54160432766071
 21
140.41812057696379
 31
0.0
  0
LINE
  5
43CC3
  8
0
 10
156.98757171779599
 20
140.41812057696379
 30
0.0
 11
157.67985617654239
 21
142.42866063250079
 31
0.0
  0
ARC
  5
43CC6
  8
0
 10
144.68587559570869
 20
143.4053650958715
 30
0.0
 40
2.9999999999962479
 50
179.9999999999967
 51
199.00000000001
  0
ARC
  5
43CC8
  8
0
 10
154.84330044974831
 20
143.4053650958715
 30
0.0
 40
2.9999999999961942
 50
340.99999999999352
 51
0.0000000000032569
  0
ARC
  5
43CCA
  8
0
 10
141.26920892904579
 20
144.11342513432641
 30
0.0
 40
0.4166666666666857
 50
180.00000000003911
 51
359.99999999996089
  0
ARC
  5
43CCC
  8
0
 10
158.25996711641119
 20
144.11342513432641
 30
0.0
 40
0.4166666666666288
 50
180.00000000003911
 51
359.99999999996089
  0
ARC
  5
43CCD
  8
0
 10
140.4358755957123
 20
212.95377659711909
 30
0.0
 40
0.4166666666667425
 50
359.99999999998528
 51
180.00000000001631
  0
ARC
  5
43CCE
  8
0
 10
140.4358755957123
 20
146.53360086572249
 30
0.0
 40
0.4166666666667425
 50
179.99999999997721
 51
0.0000000000227982
  0
ARC
  5
43CCF
  8
0
 10
159.09330044974439
 20
212.95377659711909
 30
0.0
 40
0.4166666666667425
 50
359.99999999998528
 51
180.00000000001631
  0
ARC
  5
43CD0
  8
0
 10
159.09330044974439
 20
146.53360086572249
 30
0.0
 40
0.4166666666667425
 50
179.99999999997721
 51
0.0000000000227982
  0
LINE
  5
43CD1
  8
0
 10
140.01920892904579
 20
211.7436887314208
 30
0.0
 11
137.42803229593051
 21
204.2183653675477
 31
0.0
  0
LINE
  5
43CD2
  8
0
 10
137.42803229593051
 20
155.26901209529379
 30
0.0
 11
140.01920892904579
 21
147.7436887314208
 31
0.0
  0
LINE
  5
43CD3
  8
0
 10
159.50996711641119
 20
147.7436887314208
 30
0.0
 11
162.1011437495265
 21
155.26901209529379
 31
0.0
  0
LINE
  5
43CD4
  8
0
 10
162.1011437495265
 20
204.2183653675477
 30
0.0
 11
159.50996711641119
 21
211.7436887314208
 31
0.0
  0
ARC
  5
43CD5
  8
0
 10
140.26458802270369
 20
203.24166090418069
 30
0.0
 40
2.9999999999752158
 50
160.99999999992329
 51
180.00000000003911
  0
ARC
  5
43CD6
  8
0
 10
140.26458802270369
 20
156.24571655866089
 30
0.0
 40
2.9999999999752158
 50
179.9999999999641
 51
199.00000000007799
  0
ARC
  5
43CD7
  8
0
 10
159.26458802275329
 20
203.24166090418069
 30
0.0
 40
2.9999999999751958
 50
359.99999999996248
 51
19.000000000076628
  0
ARC
  5
43CD8
  8
0
 10
159.26458802275329
 20
156.24571655866089
 30
0.0
 40
2.999999999975214
 50
340.99999999992338
 51
0.0000000000358258
  0
LINE
  5
43CD9
  8
0
 10
137.2645880227285
 20
192.74368873142129
 30
0.0
 11
131.68608408836619
 21
192.45133172849981
 31
0.0
  0
LINE
  5
43CDA
  8
0
 10
131.68608408836619
 20
167.0360457343418
 30
0.0
 11
137.2645880227285
 21
166.74368873142021
 31
0.0
  0
LINE
  5
43CDB
  8
0
 10
162.2645880227285
 20
166.74368873142021
 30
0.0
 11
167.84309195709079
 21
167.03604573434171
 31
0.0
  0
LINE
  5
43CDC
  8
0
 10
167.84309195709079
 20
192.45133172849981
 30
0.0
 11
162.2645880227285
 21
192.74368873142129
 31
0.0
  0
ARC
  5
43CDD
  8
0
 10
131.76458802273049
 20
190.95338742636579
 30
0.0
 40
1.5000000000021849
 50
92.999999999999076
 51
180.0
  0
ARC
  5
43CDE
  8
0
 10
131.76458802273049
 20
168.5339900364757
 30
0.0
 40
1.50000000000216
 50
180.0
 51
267.00000000000091
  0
ARC
  5
43CDF
  8
0
 10
167.7645880227262
 20
190.95338742636579
 30
0.0
 40
1.500000000002216
 50
0.0
 51
87.000000000000924
  0
ARC
  5
43CE0
  8
0
 10
167.7645880227262
 20
168.5339900364757
 30
0.0
 40
1.500000000002216
 50
272.99999999999909
 51
0.0
  0
LINE
  5
43CE1
  8
0
 10
122.2645880227285
 20
186.0020220647541
 30
0.0
 11
122.2645880227285
 21
173.48535539808751
 31
0.0
  0
ARC
  5
43CE2
  8
0
 10
142.24950924741549
 20
182.99368873142069
 30
0.0
 40
19.91767238800686
 50
170.60896010948241
 51
189.39103989051759
  0
ARC
  5
43CE3
  8
0
 10
142.46466626567781
 20
176.49368873142069
 30
0.0
 40
20.12997641996408
 50
170.7088864262241
 51
189.29111357377579
  0
ARC
  5
43CE6
  8
0
 10
107.7817442626833
 20
182.9936887314206
 30
0.0
 40
19.915622769072939
 50
350.60798487924791
 51
9.3920151207536406
  0
LINE
  5
43CE7
  8
0
 10
122.598779659027
 20
179.74368873142069
 30
0.0
 11
127.4303963864299
 21
179.74368873142069
 31
0.0
  0
LINE
  5
43CE8
  8
0
 10
122.3293424108992
 20
186.2436887314208
 30
0.0
 11
127.69983363455771
 21
186.2436887314208
 31
0.0
  0
ARC
  5
43CE9
  8
0
 10
107.5676355717514
 20
176.49368873142089
 30
0.0
 40
20.126891642305932
 50
350.70744979239072
 51
9.2925502076092652
  0
LINE
  5
43CEB
  8
0
 10
122.3293424108992
 20
173.24368873142069
 30
0.0
 11
127.69983363455771
 21
173.24368873142069
 31
0.0
  0
ARC
  5
43CED
  8
0
 10
157.0676355717726
 20
176.49368873142069
 30
0.0
 40
20.12689164228486
 50
350.70744979238032
 51
9.2925502076197226
  0
LINE
  5
43CEE
  8
0
 10
171.7645880227285
 20
173.24368873142069
 30
0.0
 11
177.19983363455739
 21
173.24368873142069
 31
0.0
  0
LINE
  5
43CEF
  8
0
 10
171.7645880227285
 20
179.74368873142069
 30
0.0
 11
176.93039638642969
 21
179.74368873142069
 31
0.0
  0
ARC
  5
43CF0
  8
0
 10
157.2817442627026
 20
182.9936887314208
 30
0.0
 40
19.915622769053488
 50
350.60798487923802
 51
9.3920151207635296
  0
LINE
  5
43CF1
  8
0
 10
171.7645880227285
 20
186.2436887314208
 30
0.0
 11
177.19983363455751
 21
186.2436887314208
 31
0.0
  0
LINE
  5
43CF2
  8
0
 10
177.2645880227285
 20
186.0020220647541
 30
0.0
 11
177.2645880227285
 21
173.48535539808751
 31
0.0
  0
LINE
  5
43CF5
  8
0
 10
119.7645880227285
 20
185.5586887314208
 30
0.0
 11
119.7645880227285
 21
173.92868873142089
 31
0.0
  0
LINE
  5
43D01
  8
0
 10
130.7645880227285
 20
218.01183707884269
 30
0.0
 11
129.7645880227287
 21
218.01183707884269
 31
0.0
  0
LINE
  5
43D03
  8
0
 10
129.7645880227287
 20
206.94368873142071
 30
0.0
 11
127.7645880227287
 21
206.94368873142071
 31
0.0
  0
LINE
  5
43D05
  8
0
 10
130.7645880227285
 20
219.94368873142079
 30
0.0
 11
127.7645880227287
 21
219.94368873142079
 31
0.0
  0
LINE
  5
43D07
  8
0
 10
171.7645880227287
 20
219.94368873142079
 30
0.0
 11
168.76458802272839
 21
219.94368873142079
 31
0.0
  0
LINE
  5
43D09
  8
0
 10
171.7645880227285
 20
232.94368873142079
 30
0.0
 11
127.7645880227285
 21
232.94368873142079
 31
0.0
  0
LINE
  5
43D0B
  8
0
 10
171.7645880227287
 20
206.94368873142071
 30
0.0
 11
169.7645880227287
 21
206.94368873142071
 31
0.0
  0
LINE
  5
43D0D
  8
0
 10
169.7645880227287
 20
218.01183707884269
 30
0.0
 11
168.76458802272839
 21
218.01183707884269
 31
0.0
  0
LINE
  5
43D0E
  8
0
 10
129.7645880227285
 20
181.12126783315489
 30
0.0
 11
127.7645880227285
 21
181.12126783315489
 31
0.0
  0
LINE
  5
43D0F
  8
0
 10
129.7645880227285
 20
169.74368873142069
 30
0.0
 11
127.7645880227285
 21
169.74368873142069
 31
0.0
  0
LINE
  5
43D11
  8
0
 10
127.7645880227285
 20
232.94368873142079
 30
0.0
 11
127.7645880227285
 21
169.74368873142069
 31
0.0
  0
LINE
  5
43D12
  8
0
 10
171.7645880227285
 20
169.74368873142069
 30
0.0
 11
169.7645880227285
 21
169.74368873142069
 31
0.0
  0
LINE
  5
43D13
  8
0
 10
171.7645880227285
 20
181.12126783315489
 30
0.0
 11
169.7645880227285
 21
181.12126783315489
 31
0.0
  0
LINE
  5
43D15
  8
0
 10
171.7645880227285
 20
232.94368873142079
 30
0.0
 11
171.7645880227285
 21
169.74368873142069
 31
0.0
  0
LINE
  5
43D16
  8
0
 10
129.7645880227285
 20
169.74368873142069
 30
0.0
 11
129.7645880227285
 21
218.01183707884269
 31
0.0
  0
LINE
  5
43D18
  8
0
 10
169.7645880227287
 20
218.01183707884269
 30
0.0
 11
169.7645880227287
 21
169.74368873142069
 31
0.0
  0
LINE
  5
43D1B
  8
0
 10
107.2645880227285
 20
244.24368873142069
 30
0.0
 11
107.2645880227285
 21
246.7436887314208
 31
0.0
  0
LINE
  5
43D21
  8
0
 10
192.2645880227285
 20
244.24368873142069
 30
0.0
 11
192.2645880227285
 21
246.7436887314208
 31
0.0
  0
LINE
  5
43D22
  8
0
 10
107.2645880227285
 20
244.24368873142069
 30
0.0
 11
192.2645880227285
 21
244.24368873142069
 31
0.0
  0
LINE
  5
43D23
  8
0
 10
107.2645880227285
 20
246.7436887314208
 30
0.0
 11
192.2645880227285
 21
246.7436887314208
 31
0.0
  0
LINE
  5
43D24
  8
0
 10
115.2633673587504
 20
234.94368873142079
 30
0.0
 11
184.26580868670629
 21
234.94368873142079
 31
0.0
  0
LINE
  5
43D25
  8
0
 10
113.7645880227283
 20
243.44368873142079
 30
0.0
 11
185.7645880227283
 21
243.44368873142079
 31
0.0
  0
POLYLINE
  5
43D26
  8
0
 10
118.76458802272813
 20
199.12553236232532
 30
0.0
 66
     1
 70
     8
  0
VERTEX
  8
0
  5
440A6
 10
118.765
 20
199.126
 30
0.000000
  70
    32
  0
VERTEX
  8
0
  5
440A7
 10
118.765
 20
199.016
 30
0.000000
  70
    32
  0
VERTEX
  8
0
  5
440A8
 10
118.765
 20
198.906
 30
0.000000
  70
    32
  0
VERTEX
  8
0
  5
440A9
 10
118.766
 20
198.796
 30
0.000000
  70
    32
  0
VERTEX
  8
0
  5
440AA
 10
118.768
 20
198.686
 30
0.000000
  70
    32
  0
VERTEX
  8
0
  5
440AB
 10
118.770
 20
198.576
 30
0.000000
  70
    32
  0
VERTEX
  8
0
  5
440AC
 10
118.772
 20
198.466
 30
0.000000
  70
    32
  0
VERTEX
  8
0
  5
440AD
 10
118.775
 20
198.356
 30
0.000000
  70
    32
  0
VERTEX
  8
0
  5
440AE
 10
118.778
 20
198.246
 30
0.000000
  70
    32
  0
VERTEX
  8
0
  5
440AF
 10
118.781
 20
198.136
 30
0.000000
  70
    32
  0
VERTEX
  8
0
  5
440B0
 10
118.785
 20
198.026
 30
0.000000
  70
    32
  0
VERTEX
  8
0
  5
440B1
 10
118.790
 20
197.916
 30
0.000000
  70
    32
  0
VERTEX
  8
0
  5
440B2
 10
118.794
 20
197.807
 30
0.000000
  70
    32
  0
VERTEX
  8
0
  5
440B3
 10
118.799
 20
197.697
 30
0.000000
  70
    32
  0
VERTEX
  8
0
  5
440B4
 10
118.805
 20
197.587
 30
0.000000
  70
    32
  0
VERTEX
  8
0
  5
440B5
 10
118.811
 20
197.477
 30
0.000000
  70
    32
  0
VERTEX
  8
0
  5
440B6
 10
118.817
 20
197.367
 30
0.000000
  70
    32
  0
VERTEX
  8
0
  5
440B7
 10
118.824
 20
197.258
 30
0.000000
  70
    32
  0
VERTEX
  8
0
  5
440B8
 10
118.831
 20
197.148
 30
0.000000
  70
    32
  0
VERTEX
  8
0
  5
440B9
 10
118.839
 20
197.038
 30
0.000000
  70
    32
  0
VERTEX
  8
0
  5
440BA
 10
118.847
 20
196.929
 30
0.000000
  70
    32
  0
VERTEX
  8
0
  5
440BB
 10
118.856
 20
196.819
 30
0.000000
  70
    32
  0
VERTEX
  8
0
  5
440BC
 10
118.865
 20
196.709
 30
0.000000
  70
    32
  0
VERTEX
  8
0
  5
440BD
 10
118.874
 20
196.600
 30
0.000000
  70
    32
  0
VERTEX
  8
0
  5
440BE
 10
118.883
 20
196.490
 30
0.000000
  70
    32
  0
VERTEX
  8
0
  5
440BF
 10
118.894
 20
196.381
 30
0.000000
  70
    32
  0
VERTEX
  8
0
  5
440C0
 10
118.904
 20
196.271
 30
0.000000
  70
    32
  0
VERTEX
  8
0
  5
440C1
 10
118.915
 20
196.162
 30
0.000000
  70
    32
  0
VERTEX
  8
0
  5
440C2
 10
118.926
 20
196.052
 30
0.000000
  70
    32
  0
VERTEX
  8
0
  5
440C3
 10
118.938
 20
195.943
 30
0.000000
  70
    32
  0
VERTEX
  8
0
  5
440C4
 10
118.950
 20
195.834
 30
0.000000
  70
    32
  0
VERTEX
  8
0
  5
440C5
 10
118.963
 20
195.724
 30
0.000000
  70
    32
  0
VERTEX
  8
0
  5
440C6
 10
118.976
 20
195.615
 30
0.000000
  70
    32
  0
VERTEX
  8
0
  5
440C7
 10
118.989
 20
195.506
 30
0.000000
  70
    32
  0
VERTEX
  8
0
  5
440C8
 10
119.003
 20
195.397
 30
0.000000
  70
    32
  0
VERTEX
  8
0
  5
440C9
 10
119.017
 20
195.288
 30
0.000000
  70
    32
  0
VERTEX
  8
0
  5
440CA
 10
119.032
 20
195.179
 30
0.000000
  70
    32
  0
VERTEX
  8
0
  5
440CB
 10
119.047
 20
195.070
 30
0.000000
  70
    32
  0
VERTEX
  8
0
  5
440CC
 10
119.062
 20
194.961
 30
0.000000
  70
    32
  0
VERTEX
  8
0
  5
440CD
 10
119.078
 20
194.852
 30
0.000000
  70
    32
  0
VERTEX
  8
0
  5
440CE
 10
119.095
 20
194.743
 30
0.000000
  70
    32
  0
VERTEX
  8
0
  5
440CF
 10
119.111
 20
194.634
 30
0.000000
  70
    32
  0
VERTEX
  8
0
  5
440D0
 10
119.128
 20
194.526
 30
0.000000
  70
    32
  0
VERTEX
  8
0
  5
440D1
 10
119.146
 20
194.417
 30
0.000000
  70
    32
  0
VERTEX
  8
0
  5
440D2
 10
119.164
 20
194.309
 30
0.000000
  70
    32
  0
VERTEX
  8
0
  5
440D3
 10
119.182
 20
194.200
 30
0.000000
  70
    32
  0
VERTEX
  8
0
  5
440D4
 10
119.201
 20
194.092
 30
0.000000
  70
    32
  0
VERTEX
  8
0
  5
440D5
 10
119.220
 20
193.983
 30
0.000000
  70
    32
  0
VERTEX
  8
0
  5
440D6
 10
119.239
 20
193.875
 30
0.000000
  70
    32
  0
VERTEX
  8
0
  5
440D7
 10
119.259
 20
193.767
 30
0.000000
  70
    32
  0
VERTEX
  8
0
  5
440D8
 10
119.280
 20
193.659
 30
0.000000
  70
    32
  0
VERTEX
  8
0
  5
440D9
 10
119.300
 20
193.550
 30
0.000000
  70
    32
  0
VERTEX
  8
0
  5
440DA
 10
119.321
 20
193.442
 30
0.000000
  70
    32
  0
VERTEX
  8
0
  5
440DB
 10
119.343
 20
193.335
 30
0.000000
  70
    32
  0
VERTEX
  8
0
  5
440DC
 10
119.365
 20
193.227
 30
0.000000
  70
    32
  0
VERTEX
  8
0
  5
440DD
 10
119.387
 20
193.119
 30
0.000000
  70
    32
  0
VERTEX
  8
0
  5
440DE
 10
119.410
 20
193.011
 30
0.000000
  70
    32
  0
VERTEX
  8
0
  5
440DF
 10
119.433
 20
192.904
 30
0.000000
  70
    32
  0
VERTEX
  8
0
  5
440E0
 10
119.457
 20
192.796
 30
0.000000
  70
    32
  0
VERTEX
  8
0
  5
440E1
 10
119.481
 20
192.689
 30
0.000000
  70
    32
  0
VERTEX
  8
0
  5
440E2
 10
119.505
 20
192.581
 30
0.000000
  70
    32
  0
VERTEX
  8
0
  5
440E3
 10
119.530
 20
192.474
 30
0.000000
  70
    32
  0
VERTEX
  8
0
  5
440E4
 10
119.555
 20
192.367
 30
0.000000
  70
    32
  0
VERTEX
  8
0
  5
440E5
 10
119.581
 20
192.260
 30
0.000000
  70
    32
  0
VERTEX
  8
0
  5
440E6
 10
119.607
 20
192.153
 30
0.000000
  70
    32
  0
VERTEX
  8
0
  5
440E7
 10
119.633
 20
192.046
 30
0.000000
  70
    32
  0
VERTEX
  8
0
  5
440E8
 10
119.660
 20
191.939
 30
0.000000
  70
    32
  0
VERTEX
  8
0
  5
440E9
 10
119.687
 20
191.832
 30
0.000000
  70
    32
  0
VERTEX
  8
0
  5
440EA
 10
119.715
 20
191.726
 30
0.000000
  70
    32
  0
VERTEX
  8
0
  5
440EB
 10
119.743
 20
191.619
 30
0.000000
  70
    32
  0
VERTEX
  8
0
  5
440EC
 10
119.771
 20
191.513
 30
0.000000
  70
    32
  0
VERTEX
  8
0
  5
440ED
 10
119.800
 20
191.406
 30
0.000000
  70
    32
  0
VERTEX
  8
0
  5
440EE
 10
119.829
 20
191.300
 30
0.000000
  70
    32
  0
VERTEX
  8
0
  5
440EF
 10
119.859
 20
191.194
 30
0.000000
  70
    32
  0
VERTEX
  8
0
  5
440F0
 10
119.889
 20
191.088
 30
0.000000
  70
    32
  0
VERTEX
  8
0
  5
440F1
 10
119.919
 20
190.982
 30
0.000000
  70
    32
  0
VERTEX
  8
0
  5
440F2
 10
119.950
 20
190.876
 30
0.000000
  70
    32
  0
VERTEX
  8
0
  5
440F3
 10
119.981
 20
190.771
 30
0.000000
  70
    32
  0
VERTEX
  8
0
  5
440F4
 10
120.013
 20
190.665
 30
0.000000
  70
    32
  0
VERTEX
  8
0
  5
440F5
 10
120.045
 20
190.559
 30
0.000000
  70
    32
  0
VERTEX
  8
0
  5
440F6
 10
120.077
 20
190.454
 30
0.000000
  70
    32
  0
VERTEX
  8
0
  5
440F7
 10
120.110
 20
190.349
 30
0.000000
  70
    32
  0
VERTEX
  8
0
  5
440F8
 10
120.143
 20
190.244
 30
0.000000
  70
    32
  0
VERTEX
  8
0
  5
440F9
 10
120.177
 20
190.139
 30
0.000000
  70
    32
  0
VERTEX
  8
0
  5
440FA
 10
120.211
 20
190.034
 30
0.000000
  70
    32
  0
VERTEX
  8
0
  5
440FB
 10
120.245
 20
189.929
 30
0.000000
  70
    32
  0
VERTEX
  8
0
  5
440FC
 10
120.280
 20
189.825
 30
0.000000
  70
    32
  0
VERTEX
  8
0
  5
440FD
 10
120.315
 20
189.720
 30
0.000000
  70
    32
  0
VERTEX
  8
0
  5
440FE
 10
120.351
 20
189.616
 30
0.000000
  70
    32
  0
VERTEX
  8
0
  5
440FF
 10
120.386
 20
189.511
 30
0.000000
  70
    32
  0
VERTEX
  8
0
  5
44100
 10
120.423
 20
189.407
 30
0.000000
  70
    32
  0
VERTEX
  8
0
  5
44101
 10
120.459
 20
189.303
 30
0.000000
  70
    32
  0
VERTEX
  8
0
  5
44102
 10
120.497
 20
189.199
 30
0.000000
  70
    32
  0
VERTEX
  8
0
  5
44103
 10
120.534
 20
189.096
 30
0.000000
  70
    32
  0
VERTEX
  8
0
  5
44104
 10
120.572
 20
188.992
 30
0.000000
  70
    32
  0
VERTEX
  8
0
  5
44105
 10
120.610
 20
188.889
 30
0.000000
  70
    32
  0
VERTEX
  8
0
  5
44106
 10
120.649
 20
188.785
 30
0.000000
  70
    32
  0
VERTEX
  8
0
  5
44107
 10
120.688
 20
188.682
 30
0.000000
  70
    32
  0
VERTEX
  8
0
  5
44108
 10
120.727
 20
188.579
 30
0.000000
  70
    32
  0
VERTEX
  8
0
  5
44109
 10
120.767
 20
188.476
 30
0.000000
  70
    32
  0
VERTEX
  8
0
  5
4410A
 10
120.807
 20
188.373
 30
0.000000
  70
    32
  0
VERTEX
  8
0
  5
4410B
 10
120.848
 20
188.271
 30
0.000000
  70
    32
  0
VERTEX
  8
0
  5
4410C
 10
120.889
 20
188.168
 30
0.000000
  70
    32
  0
VERTEX
  8
0
  5
4410D
 10
120.930
 20
188.066
 30
0.000000
  70
    32
  0
VERTEX
  8
0
  5
4410E
 10
120.972
 20
187.964
 30
0.000000
  70
    32
  0
VERTEX
  8
0
  5
4410F
 10
121.014
 20
187.862
 30
0.000000
  70
    32
  0
VERTEX
  8
0
  5
44110
 10
121.057
 20
187.760
 30
0.000000
  70
    32
  0
VERTEX
  8
0
  5
44111
 10
121.100
 20
187.658
 30
0.000000
  70
    32
  0
VERTEX
  8
0
  5
44112
 10
121.143
 20
187.556
 30
0.000000
  70
    32
  0
VERTEX
  8
0
  5
44113
 10
121.187
 20
187.455
 30
0.000000
  70
    32
  0
VERTEX
  8
0
  5
44114
 10
121.231
 20
187.354
 30
0.000000
  70
    32
  0
VERTEX
  8
0
  5
44115
 10
121.275
 20
187.252
 30
0.000000
  70
    32
  0
VERTEX
  8
0
  5
44116
 10
121.320
 20
187.152
 30
0.000000
  70
    32
  0
VERTEX
  8
0
  5
44117
 10
121.365
 20
187.051
 30
0.000000
  70
    32
  0
VERTEX
  8
0
  5
44118
 10
121.411
 20
186.950
 30
0.000000
  70
    32
  0
VERTEX
  8
0
  5
44119
 10
121.457
 20
186.850
 30
0.000000
  70
    32
  0
VERTEX
  8
0
  5
4411A
 10
121.503
 20
186.749
 30
0.000000
  70
    32
  0
VERTEX
  8
0
  5
4411B
 10
121.550
 20
186.649
 30
0.000000
  70
    32
  0
VERTEX
  8
0
  5
4411C
 10
121.597
 20
186.549
 30
0.000000
  70
    32
  0
VERTEX
  8
0
  5
4411D
 10
121.644
 20
186.449
 30
0.000000
  70
    32
  0
VERTEX
  8
0
  5
4411E
 10
121.692
 20
186.350
 30
0.000000
  70
    32
  0
VERTEX
  8
0
  5
4411F
 10
121.740
 20
186.250
 30
0.000000
  70
    32
  0
VERTEX
  8
0
  5
44120
 10
121.789
 20
186.151
 30
0.000000
  70
    32
  0
VERTEX
  8
0
  5
44121
 10
121.838
 20
186.052
 30
0.000000
  70
    32
  0
VERTEX
  8
0
  5
44122
 10
121.887
 20
185.953
 30
0.000000
  70
    32
  0
VERTEX
  8
0
  5
44123
 10
121.937
 20
185.854
 30
0.000000
  70
    32
  0
VERTEX
  8
0
  5
44124
 10
121.987
 20
185.755
 30
0.000000
  70
    32
  0
VERTEX
  8
0
  5
44125
 10
122.037
 20
185.657
 30
0.000000
  70
    32
  0
VERTEX
  8
0
  5
44126
 10
122.088
 20
185.559
 30
0.000000
  70
    32
  0
SEQEND
  8
0
  5
44127
  0
POLYLINE
  5
43D27
  8
0
 10
177.2645880227285
 20
185.22348879705882
 30
0.0
 66
     1
 70
     8
  0
VERTEX
  8
0
  5
44128
 10
177.265
 20
185.223
 30
0.000000
  70
    32
  0
VERTEX
  8
0
  5
44129
 10
177.318
 20
185.324
 30
0.000000
  70
    32
  0
VERTEX
  8
0
  5
4412A
 10
177.371
 20
185.424
 30
0.000000
  70
    32
  0
VERTEX
  8
0
  5
4412B
 10
177.424
 20
185.525
 30
0.000000
  70
    32
  0
VERTEX
  8
0
  5
4412C
 10
177.476
 20
185.626
 30
0.000000
  70
    32
  0
VERTEX
  8
0
  5
4412D
 10
177.528
 20
185.727
 30
0.000000
  70
    32
  0
VERTEX
  8
0
  5
4412E
 10
177.579
 20
185.828
 30
0.000000
  70
    32
  0
VERTEX
  8
0
  5
4412F
 10
177.631
 20
185.929
 30
0.000000
  70
    32
  0
VERTEX
  8
0
  5
44130
 10
177.681
 20
186.031
 30
0.000000
  70
    32
  0
VERTEX
  8
0
  5
44131
 10
177.732
 20
186.133
 30
0.000000
  70
    32
  0
VERTEX
  8
0
  5
44132
 10
177.781
 20
186.234
 30
0.000000
  70
    32
  0
VERTEX
  8
0
  5
44133
 10
177.831
 20
186.337
 30
0.000000
  70
    32
  0
VERTEX
  8
0
  5
44134
 10
177.880
 20
186.439
 30
0.000000
  70
    32
  0
VERTEX
  8
0
  5
44135
 10
177.929
 20
186.541
 30
0.000000
  70
    32
  0
VERTEX
  8
0
  5
44136
 10
177.977
 20
186.644
 30
0.000000
  70
    32
  0
VERTEX
  8
0
  5
44137
 10
178.025
 20
186.747
 30
0.000000
  70
    32
  0
VERTEX
  8
0
  5
44138
 10
178.073
 20
186.850
 30
0.000000
  70
    32
  0
VERTEX
  8
0
  5
44139
 10
178.120
 20
186.953
 30
0.000000
  70
    32
  0
VERTEX
  8
0
  5
4413A
 10
178.167
 20
187.056
 30
0.000000
  70
    32
  0
VERTEX
  8
0
  5
4413B
 10
178.213
 20
187.160
 30
0.000000
  70
    32
  0
VERTEX
  8
0
  5
4413C
 10
178.259
 20
187.264
 30
0.000000
  70
    32
  0
VERTEX
  8
0
  5
4413D
 10
178.305
 20
187.367
 30
0.000000
  70
    32
  0
VERTEX
  8
0
  5
4413E
 10
178.350
 20
187.471
 30
0.000000
  70
    32
  0
VERTEX
  8
0
  5
4413F
 10
178.395
 20
187.576
 30
0.000000
  70
    32
  0
VERTEX
  8
0
  5
44140
 10
178.439
 20
187.680
 30
0.000000
  70
    32
  0
VERTEX
  8
0
  5
44141
 10
178.483
 20
187.784
 30
0.000000
  70
    32
  0
VERTEX
  8
0
  5
44142
 10
178.526
 20
187.889
 30
0.000000
  70
    32
  0
VERTEX
  8
0
  5
44143
 10
178.570
 20
187.994
 30
0.000000
  70
    32
  0
VERTEX
  8
0
  5
44144
 10
178.612
 20
188.099
 30
0.000000
  70
    32
  0
VERTEX
  8
0
  5
44145
 10
178.655
 20
188.204
 30
0.000000
  70
    32
  0
VERTEX
  8
0
  5
44146
 10
178.697
 20
188.309
 30
0.000000
  70
    32
  0
VERTEX
  8
0
  5
44147
 10
178.738
 20
188.415
 30
0.000000
  70
    32
  0
VERTEX
  8
0
  5
44148
 10
178.779
 20
188.520
 30
0.000000
  70
    32
  0
VERTEX
  8
0
  5
44149
 10
178.820
 20
188.626
 30
0.000000
  70
    32
  0
VERTEX
  8
0
  5
4414A
 10
178.860
 20
188.732
 30
0.000000
  70
    32
  0
VERTEX
  8
0
  5
4414B
 10
178.900
 20
188.838
 30
0.000000
  70
    32
  0
VERTEX
  8
0
  5
4414C
 10
178.940
 20
188.944
 30
0.000000
  70
    32
  0
VERTEX
  8
0
  5
4414D
 10
178.979
 20
189.050
 30
0.000000
  70
    32
  0
VERTEX
  8
0
  5
4414E
 10
179.017
 20
189.157
 30
0.000000
  70
    32
  0
VERTEX
  8
0
  5
4414F
 10
179.056
 20
189.264
 30
0.000000
  70
    32
  0
VERTEX
  8
0
  5
44150
 10
179.093
 20
189.370
 30
0.000000
  70
    32
  0
VERTEX
  8
0
  5
44151
 10
179.131
 20
189.477
 30
0.000000
  70
    32
  0
VERTEX
  8
0
  5
44152
 10
179.168
 20
189.584
 30
0.000000
  70
    32
  0
VERTEX
  8
0
  5
44153
 10
179.204
 20
189.691
 30
0.000000
  70
    32
  0
VERTEX
  8
0
  5
44154
 10
179.241
 20
189.799
 30
0.000000
  70
    32
  0
VERTEX
  8
0
  5
44155
 10
179.276
 20
189.906
 30
0.000000
  70
    32
  0
VERTEX
  8
0
  5
44156
 10
179.312
 20
190.014
 30
0.000000
  70
    32
  0
VERTEX
  8
0
  5
44157
 10
179.347
 20
190.121
 30
0.000000
  70
    32
  0
VERTEX
  8
0
  5
44158
 10
179.381
 20
190.229
 30
0.000000
  70
    32
  0
VERTEX
  8
0
  5
44159
 10
179.415
 20
190.337
 30
0.000000
  70
    32
  0
VERTEX
  8
0
  5
4415A
 10
179.449
 20
190.445
 30
0.000000
  70
    32
  0
VERTEX
  8
0
  5
4415B
 10
179.482
 20
190.553
 30
0.000000
  70
    32
  0
VERTEX
  8
0
  5
4415C
 10
179.515
 20
190.661
 30
0.000000
  70
    32
  0
VERTEX
  8
0
  5
4415D
 10
179.548
 20
190.770
 30
0.000000
  70
    32
  0
VERTEX
  8
0
  5
4415E
 10
179.580
 20
190.878
 30
0.000000
  70
    32
  0
VERTEX
  8
0
  5
4415F
 10
179.611
 20
190.987
 30
0.000000
  70
    32
  0
VERTEX
  8
0
  5
44160
 10
179.643
 20
191.096
 30
0.000000
  70
    32
  0
VERTEX
  8
0
  5
44161
 10
179.673
 20
191.205
 30
0.000000
  70
    32
  0
VERTEX
  8
0
  5
44162
 10
179.704
 20
191.314
 30
0.000000
  70
    32
  0
VERTEX
  8
0
  5
44163
 10
179.734
 20
191.423
 30
0.000000
  70
    32
  0
VERTEX
  8
0
  5
44164
 10
179.763
 20
191.532
 30
0.000000
  70
    32
  0
VERTEX
  8
0
  5
44165
 10
179.792
 20
191.641
 30
0.000000
  70
    32
  0
VERTEX
  8
0
  5
44166
 10
179.821
 20
191.750
 30
0.000000
  70
    32
  0
VERTEX
  8
0
  5
44167
 10
179.849
 20
191.860
 30
0.000000
  70
    32
  0
VERTEX
  8
0
  5
44168
 10
179.877
 20
191.970
 30
0.000000
  70
    32
  0
VERTEX
  8
0
  5
44169
 10
179.904
 20
192.079
 30
0.000000
  70
    32
  0
VERTEX
  8
0
  5
4416A
 10
179.931
 20
192.189
 30
0.000000
  70
    32
  0
VERTEX
  8
0
  5
4416B
 10
179.958
 20
192.299
 30
0.000000
  70
    32
  0
VERTEX
  8
0
  5
4416C
 10
179.984
 20
192.409
 30
0.000000
  70
    32
  0
VERTEX
  8
0
  5
4416D
 10
180.010
 20
192.519
 30
0.000000
  70
    32
  0
VERTEX
  8
0
  5
4416E
 10
180.035
 20
192.629
 30
0.000000
  70
    32
  0
VERTEX
  8
0
  5
4416F
 10
180.060
 20
192.740
 30
0.000000
  70
    32
  0
VERTEX
  8
0
  5
44170
 10
180.084
 20
192.850
 30
0.000000
  70
    32
  0
VERTEX
  8
0
  5
44171
 10
180.108
 20
192.960
 30
0.000000
  70
    32
  0
VERTEX
  8
0
  5
44172
 10
180.132
 20
193.071
 30
0.000000
  70
    32
  0
VERTEX
  8
0
  5
44173
 10
180.155
 20
193.182
 30
0.000000
  70
    32
  0
VERTEX
  8
0
  5
44174
 10
180.178
 20
193.292
 30
0.000000
  70
    32
  0
VERTEX
  8
0
  5
44175
 10
180.200
 20
193.403
 30
0.000000
  70
    32
  0
VERTEX
  8
0
  5
44176
 10
180.222
 20
193.514
 30
0.000000
  70
    32
  0
VERTEX
  8
0
  5
44177
 10
180.243
 20
193.625
 30
0.000000
  70
    32
  0
VERTEX
  8
0
  5
44178
 10
180.264
 20
193.736
 30
0.000000
  70
    32
  0
VERTEX
  8
0
  5
44179
 10
180.285
 20
193.847
 30
0.000000
  70
    32
  0
VERTEX
  8
0
  5
4417A
 10
180.305
 20
193.958
 30
0.000000
  70
    32
  0
VERTEX
  8
0
  5
4417B
 10
180.325
 20
194.069
 30
0.000000
  70
    32
  0
VERTEX
  8
0
  5
4417C
 10
180.344
 20
194.181
 30
0.000000
  70
    32
  0
VERTEX
  8
0
  5
4417D
 10
180.363
 20
194.292
 30
0.000000
  70
    32
  0
VERTEX
  8
0
  5
4417E
 10
180.381
 20
194.404
 30
0.000000
  70
    32
  0
VERTEX
  8
0
  5
4417F
 10
180.399
 20
194.515
 30
0.000000
  70
    32
  0
VERTEX
  8
0
  5
44180
 10
180.417
 20
194.627
 30
0.000000
  70
    32
  0
VERTEX
  8
0
  5
44181
 10
180.434
 20
194.738
 30
0.000000
  70
    32
  0
VERTEX
  8
0
  5
44182
 10
180.451
 20
194.850
 30
0.000000
  70
    32
  0
VERTEX
  8
0
  5
44183
 10
180.467
 20
194.962
 30
0.000000
  70
    32
  0
VERTEX
  8
0
  5
44184
 10
180.483
 20
195.074
 30
0.000000
  70
    32
  0
VERTEX
  8
0
  5
44185
 10
180.498
 20
195.186
 30
0.000000
  70
    32
  0
VERTEX
  8
0
  5
44186
 10
180.513
 20
195.298
 30
0.000000
  70
    32
  0
VERTEX
  8
0
  5
44187
 10
180.528
 20
195.410
 30
0.000000
  70
    32
  0
VERTEX
  8
0
  5
44188
 10
180.542
 20
195.522
 30
0.000000
  70
    32
  0
VERTEX
  8
0
  5
44189
 10
180.556
 20
195.634
 30
0.000000
  70
    32
  0
VERTEX
  8
0
  5
4418A
 10
180.569
 20
195.746
 30
0.000000
  70
    32
  0
VERTEX
  8
0
  5
4418B
 10
180.582
 20
195.858
 30
0.000000
  70
    32
  0
VERTEX
  8
0
  5
4418C
 10
180.594
 20
195.970
 30
0.000000
  70
    32
  0
VERTEX
  8
0
  5
4418D
 10
180.606
 20
196.083
 30
0.000000
  70
    32
  0
VERTEX
  8
0
  5
4418E
 10
180.617
 20
196.195
 30
0.000000
  70
    32
  0
VERTEX
  8
0
  5
4418F
 10
180.629
 20
196.307
 30
0.000000
  70
    32
  0
VERTEX
  8
0
  5
44190
 10
180.639
 20
196.420
 30
0.000000
  70
    32
  0
VERTEX
  8
0
  5
44191
 10
180.649
 20
196.532
 30
0.000000
  70
    32
  0
VERTEX
  8
0
  5
44192
 10
180.659
 20
196.645
 30
0.000000
  70
    32
  0
VERTEX
  8
0
  5
44193
 10
180.669
 20
196.757
 30
0.000000
  70
    32
  0
VERTEX
  8
0
  5
44194
 10
180.678
 20
196.870
 30
0.000000
  70
    32
  0
VERTEX
  8
0
  5
44195
 10
180.686
 20
196.982
 30
0.000000
  70
    32
  0
VERTEX
  8
0
  5
44196
 10
180.694
 20
197.095
 30
0.000000
  70
    32
  0
VERTEX
  8
0
  5
44197
 10
180.702
 20
197.208
 30
0.000000
  70
    32
  0
VERTEX
  8
0
  5
44198
 10
180.709
 20
197.320
 30
0.000000
  70
    32
  0
VERTEX
  8
0
  5
44199
 10
180.716
 20
197.433
 30
0.000000
  70
    32
  0
VERTEX
  8
0
  5
4419A
 10
180.722
 20
197.546
 30
0.000000
  70
    32
  0
VERTEX
  8
0
  5
4419B
 10
180.728
 20
197.659
 30
0.000000
  70
    32
  0
VERTEX
  8
0
  5
4419C
 10
180.733
 20
197.771
 30
0.000000
  70
    32
  0
VERTEX
  8
0
  5
4419D
 10
180.738
 20
197.884
 30
0.000000
  70
    32
  0
VERTEX
  8
0
  5
4419E
 10
180.743
 20
197.997
 30
0.000000
  70
    32
  0
VERTEX
  8
0
  5
4419F
 10
180.747
 20
198.110
 30
0.000000
  70
    32
  0
VERTEX
  8
0
  5
441A0
 10
180.751
 20
198.223
 30
0.000000
  70
    32
  0
VERTEX
  8
0
  5
441A1
 10
180.754
 20
198.335
 30
0.000000
  70
    32
  0
VERTEX
  8
0
  5
441A2
 10
180.757
 20
198.448
 30
0.000000
  70
    32
  0
VERTEX
  8
0
  5
441A3
 10
180.759
 20
198.561
 30
0.000000
  70
    32
  0
VERTEX
  8
0
  5
441A4
 10
180.761
 20
198.674
 30
0.000000
  70
    32
  0
VERTEX
  8
0
  5
441A5
 10
180.763
 20
198.787
 30
0.000000
  70
    32
  0
VERTEX
  8
0
  5
441A6
 10
180.764
 20
198.900
 30
0.000000
  70
    32
  0
VERTEX
  8
0
  5
441A7
 10
180.764
 20
199.013
 30
0.000000
  70
    32
  0
VERTEX
  8
0
  5
441A8
 10
180.765
 20
199.126
 30
0.000000
  70
    32
  0
SEQEND
  8
0
  5
441A9
  0
LINE
  5
43D28
  8
0
 10
144.0645880227284
 20
214.44370824486589
 30
0.0
 11
144.0645880227284
 21
140.04368873142079
 31
0.0
  0
LINE
  5
43D29
  8
0
 10
146.46458802272849
 20
214.44370824486589
 30
0.0
 11
146.46458802272849
 21
140.04368873142079
 31
0.0
  0
LINE
  5
43D2A
  8
0
 10
153.0645880227284
 20
214.44370824486589
 30
0.0
 11
153.0645880227284
 21
140.04368873142079
 31
0.0
  0
LINE
  5
43D2B
  8
0
 10
155.46458802272849
 20
214.44370824486589
 30
0.0
 11
155.46458802272849
 21
140.04368873142079
 31
0.0
  0
LINE
  5
43D2C
  8
0
 10
141.6858755957125
 20
214.43109668695431
 30
0.0
 11
141.6858755957125
 21
143.40536509587179
 31
0.0
  0
LINE
  5
43D2D
  8
0
 10
157.84330044974439
 20
214.43109668695431
 30
0.0
 11
157.84330044974439
 21
143.40536509587179
 31
0.0
  0
LINE
  5
43D2E
  8
0
 10
140.8525422623793
 20
214.43109668695431
 30
0.0
 11
140.8525422623793
 21
144.11342513432581
 31
0.0
  0
LINE
  5
43D2F
  8
0
 10
158.6766337830777
 20
214.43109668695431
 30
0.0
 11
158.6766337830777
 21
144.11342513432581
 31
0.0
  0
LINE
  5
43D30
  8
0
 10
140.01920892904579
 20
212.95377659711889
 30
0.0
 11
140.01920892904579
 21
146.5336008657228
 31
0.0
  0
LINE
  5
43D31
  8
0
 10
159.50996711641119
 20
212.95377659711889
 30
0.0
 11
159.50996711641119
 21
146.5336008657228
 31
0.0
  0
LINE
  5
43D32
  8
0
 10
137.2645880227285
 20
203.24166090417691
 30
0.0
 11
137.2645880227285
 21
156.24571655866481
 31
0.0
  0
LINE
  5
43D33
  8
0
 10
162.2645880227285
 20
203.24166090417691
 30
0.0
 11
162.2645880227285
 21
156.24571655866481
 31
0.0
  0
LINE
  5
43D34
  8
0
 10
130.2645880227285
 20
190.95338742636579
 30
0.0
 11
130.2645880227285
 21
168.5339900364757
 31
0.0
  0
LINE
  5
43D35
  8
0
 10
169.2645880227285
 20
190.95338742636579
 30
0.0
 11
169.2645880227285
 21
168.5339900364757
 31
0.0
  0
LINE
  5
43D42
  8
0
 10
131.68608408836619
 20
192.45133172849981
 30
0.0
 11
131.68608408836619
 21
167.0360457343418
 31
0.0
  0
LINE
  5
43D43
  8
0
 10
167.84309195709079
 20
192.45133172849981
 30
0.0
 11
167.84309195709079
 21
167.03604573434171
 31
0.0
  0
LINE
  5
43D44
  8
0
 10
532.02895263297955
 20
173.24368873142049
 30
0.0
 11
532.09370702115052
 21
173.48535539808731
 31
0.0
  0
LINE
  5
43D45
  8
0
 10
526.59370702115052
 20
173.48535539808731
 30
0.0
 11
526.65846140932115
 21
173.24368873142049
 31
0.0
  0
LINE
  5
43D46
  8
0
 10
477.09370702115052
 20
173.48535539808731
 30
0.0
 11
477.15846140932149
 21
173.24368873142049
 31
0.0
  0
LINE
  5
43D47
  8
0
 10
484.59370702115052
 20
173.74368873142049
 30
0.0
 11
485.09370702115052
 21
173.74368873142049
 31
0.0
  0
LINE
  5
43D48
  8
0
 10
524.09370702115052
 20
173.74368873142049
 30
0.0
 11
524.59370702115052
 21
173.74368873142049
 31
0.0
  0
LINE
  5
43D49
  8
0
 10
524.59370702115052
 20
185.7436887314206
 30
0.0
 11
524.09370702115052
 21
185.7436887314206
 31
0.0
  0
LINE
  5
43D4A
  8
0
 10
485.09370702115052
 20
185.7436887314206
 30
0.0
 11
484.59370702115052
 21
185.7436887314206
 31
0.0
  0
LINE
  5
43D4B
  8
0
 10
532.09370702115052
 20
173.92868873142069
 30
0.0
 11
534.59370702115052
 21
173.92868873142069
 31
0.0
  0
LINE
  5
43D4C
  8
0
 10
534.59370702115052
 20
185.5586887314206
 30
0.0
 11
532.27049600025043
 21
185.5586887314206
 31
0.0
  0
LINE
  5
43D4F
  8
0
 10
468.59370702115029
 20
243.44368873142059
 30
0.0
 11
470.09248635717239
 21
234.94368873142059
 31
0.0
  0
LINE
  5
43D50
  8
0
 10
539.09492768512837
 20
234.94368873142059
 30
0.0
 11
540.59370702115029
 21
243.44368873142059
 31
0.0
  0
LINE
  5
43D51
  8
0
 10
469.79370702115028
 20
244.24368873142049
 30
0.0
 11
469.79370702115028
 21
243.44368873142059
 31
0.0
  0
LINE
  5
43D52
  8
0
 10
539.39370702115025
 20
243.44368873142059
 30
0.0
 11
539.39370702115025
 21
244.24368873142049
 31
0.0
  0
LINE
  5
43D53
  8
0
 10
473.59370702115029
 20
234.94368873142059
 30
0.0
 11
473.59370702115029
 21
199.12553236232549
 31
0.0
  0
LINE
  5
43D54
  8
0
 10
535.59370702115029
 20
199.12553236232529
 30
0.0
 11
535.59370702115029
 21
234.94368873142059
 31
0.0
  0
ARC
  5
43D55
  8
0
 10
510.87117214061789
 20
140.74368873142171
 30
0.0
 40
1.000000000001058
 50
270.00000000004559
 51
340.99999999996942
  0
ARC
  5
43D56
  8
0
 10
510.87117214061789
 20
218.74368873141961
 30
0.0
 40
1.000000000001058
 50
19.00000000003206
 51
89.999999999947889
  0
LINE
  5
43D57
  8
0
 10
510.59370702115052
 20
139.7436887314206
 30
0.0
 11
510.87117214061891
 21
139.7436887314206
 31
0.0
  0
LINE
  5
43D58
  8
0
 10
510.87117214061891
 20
219.74368873142069
 30
0.0
 11
510.59370702115052
 21
219.74368873142069
 31
0.0
  0
ARC
  5
43D59
  8
0
 10
510.59370702115029
 20
140.0436887314205
 30
0.0
 40
0.2999999999998977
 50
179.9999999999788
 51
270.00000000001961
  0
ARC
  5
43D5A
  8
0
 10
510.59370702115029
 20
219.44368873142079
 30
0.0
 40
0.2999999999998977
 50
89.99999999998046
 51
180.0000000000114
  0
LINE
  5
43D5B
  8
0
 10
501.59370702115052
 20
139.7436887314206
 30
0.0
 11
507.59370702115052
 21
139.7436887314206
 31
0.0
  0
LINE
  5
43D5C
  8
0
 10
507.59370702115052
 20
219.74368873142069
 30
0.0
 11
501.59370702115052
 21
219.74368873142069
 31
0.0
  0
ARC
  5
43D5D
  8
0
 10
507.59370702115052
 20
140.0436887314205
 30
0.0
 40
0.2999999999998835
 50
269.99999999997391
 51
0.0000000000211698
  0
ARC
  5
43D5E
  8
0
 10
507.59370702115052
 20
219.44368873142079
 30
0.0
 40
0.2999999999998977
 50
359.99999999999022
 51
90.000000000026048
  0
ARC
  5
43D5F
  8
0
 10
501.59370702115029
 20
140.0436887314205
 30
0.0
 40
0.2999999999998835
 50
179.9999999999788
 51
270.00000000002598
  0
ARC
  5
43D60
  8
0
 10
501.59370702115029
 20
219.44368873142079
 30
0.0
 40
0.2999999999998977
 50
89.999999999973952
 51
180.0000000000114
  0
ARC
  5
43D61
  8
0
 10
498.31624190168282
 20
140.74368873142171
 30
0.0
 40
1.0000000000010449
 50
199.000000000032
 51
269.99999999996089
  0
ARC
  5
43D62
  8
0
 10
498.31624190168282
 20
218.74368873141961
 30
0.0
 40
1.0000000000010449
 50
90.000000000039066
 51
160.99999999996791
  0
ARC
  5
43D63
  8
0
 10
498.59370702115041
 20
140.0436887314205
 30
0.0
 40
0.2999999999998835
 50
269.99999999998039
 51
0.0000000000211698
  0
ARC
  5
43D64
  8
0
 10
498.59370702115041
 20
219.44368873142079
 30
0.0
 40
0.2999999999998977
 50
359.99999999999022
 51
90.000000000019526
  0
LINE
  5
43D65
  8
0
 10
498.31624190168208
 20
139.7436887314206
 30
0.0
 11
498.59370702115041
 21
139.7436887314206
 31
0.0
  0
LINE
  5
43D66
  8
0
 10
498.59370702115041
 20
219.74368873142069
 30
0.0
 11
498.31624190168208
 21
219.74368873142069
 31
0.0
  0
LINE
  5
43D67
  8
0
 10
507.89370702115042
 20
140.04368873142059
 30
0.0
 11
510.29370702115051
 21
140.04368873142059
 31
0.0
  0
LINE
  5
43D68
  8
0
 10
510.29370702115051
 20
219.44368873142059
 30
0.0
 11
507.89370702115042
 21
219.44368873142059
 31
0.0
  0
LINE
  5
43D69
  8
0
 10
498.89370702115048
 20
140.04368873142059
 30
0.0
 11
501.29370702115051
 21
140.04368873142059
 31
0.0
  0
LINE
  5
43D6A
  8
0
 10
501.29370702115051
 20
219.44368873142059
 30
0.0
 11
498.89370702115048
 21
219.44368873142059
 31
0.0
  0
LINE
  5
43D6B
  8
0
 10
511.81669071621832
 20
140.41812057696359
 30
0.0
 11
512.50897517496435
 21
142.42866063250059
 31
0.0
  0
LINE
  5
43D6C
  8
0
 10
512.50897517496435
 20
217.05871683034059
 30
0.0
 11
511.81669071621832
 21
219.06925688587771
 31
0.0
  0
LINE
  5
43D6D
  8
0
 10
497.37072332608273
 20
219.06925688587771
 30
0.0
 11
496.67843886733658
 21
217.05871683034059
 31
0.0
  0
LINE
  5
43D6E
  8
0
 10
496.67843886733658
 20
142.42866063250059
 30
0.0
 11
497.37072332608273
 21
140.41812057696359
 31
0.0
  0
ARC
  5
43D6F
  8
0
 10
509.67241944816999
 20
143.4053650958713
 30
0.0
 40
2.999999999996275
 50
340.99999999999352
 51
0.0000000000032569
  0
ARC
  5
43D70
  8
0
 10
509.67241944816999
 20
216.08201236696991
 30
0.0
 40
2.999999999996275
 50
359.99999999999841
 51
19.000000000006398
  0
ARC
  5
43D71
  8
0
 10
499.51499459413071
 20
143.4053650958713
 30
0.0
 40
2.9999999999961808
 50
179.9999999999967
 51
199.00000000000981
  0
ARC
  5
43D72
  8
0
 10
499.51499459413071
 20
216.08201236696991
 30
0.0
 40
2.9999999999961768
 50
160.99999999999329
 51
180.00000000000321
  0
ARC
  5
43D73
  8
0
 10
513.08908611483321
 20
144.11342513432629
 30
0.0
 40
0.4166666666666572
 50
180.00000000003911
 51
359.99999999996089
  0
ARC
  5
43D74
  8
0
 10
513.08908611483321
 20
215.373952328515
 30
0.0
 40
0.4166666666666572
 50
0.0000000000472249
 51
179.99999999995279
  0
ARC
  5
43D75
  8
0
 10
496.09832792746778
 20
144.11342513432629
 30
0.0
 40
0.416666666666643
 50
180.00000000003911
 51
359.99999999996089
  0
ARC
  5
43D76
  8
0
 10
496.09832792746778
 20
215.373952328515
 30
0.0
 40
0.416666666666643
 50
0.0000000000472249
 51
179.99999999995279
  0
ARC
  5
43D77
  8
0
 10
513.92241944816647
 20
146.53360086572229
 30
0.0
 40
0.4166666666667141
 50
179.99999999997721
 51
0.0000000000227982
  0
ARC
  5
43D78
  8
0
 10
513.92241944816647
 20
212.95377659711889
 30
0.0
 40
0.4166666666667141
 50
359.99999999998528
 51
180.00000000001631
  0
ARC
  5
43D79
  8
0
 10
495.26499459413452
 20
146.53360086572229
 30
0.0
 40
0.4166666666666999
 50
179.99999999997721
 51
0.0000000000227982
  0
ARC
  5
43D7A
  8
0
 10
495.26499459413452
 20
212.95377659711889
 30
0.0
 40
0.4166666666666999
 50
359.99999999998528
 51
180.00000000001631
  0
LINE
  5
43D7B
  8
0
 10
514.33908611483321
 20
147.7436887314206
 30
0.0
 11
516.93026274794852
 21
155.26901209529359
 31
0.0
  0
LINE
  5
43D7C
  8
0
 10
516.93026274794852
 20
204.21836536754759
 30
0.0
 11
514.33908611483321
 21
211.74368873142069
 31
0.0
  0
LINE
  5
43D7D
  8
0
 10
494.84832792746778
 20
211.74368873142069
 30
0.0
 11
492.25715129435252
 21
204.21836536754759
 31
0.0
  0
LINE
  5
43D7E
  8
0
 10
492.25715129435252
 20
155.26901209529359
 30
0.0
 11
494.84832792746778
 21
147.7436887314206
 31
0.0
  0
ARC
  5
43D7F
  8
0
 10
514.09370702117519
 20
156.24571655866069
 30
0.0
 40
2.999999999975187
 50
340.99999999992332
 51
0.0000000000358258
  0
ARC
  5
43D80
  8
0
 10
514.09370702117519
 20
203.24166090418049
 30
0.0
 40
2.999999999975187
 50
359.99999999996248
 51
19.0000000000767
  0
ARC
  5
43D81
  8
0
 10
495.09370702112568
 20
156.24571655866069
 30
0.0
 40
2.999999999975187
 50
179.9999999999641
 51
199.0000000000781
  0
ARC
  5
43D82
  8
0
 10
495.09370702112568
 20
203.24166090418049
 30
0.0
 40
2.999999999975187
 50
160.99999999992349
 51
180.00000000003911
  0
LINE
  5
43D83
  8
0
 10
517.09370702115052
 20
166.74368873142009
 30
0.0
 11
522.67221095551281
 21
167.0360457343416
 31
0.0
  0
LINE
  5
43D84
  8
0
 10
522.67221095551281
 20
192.45133172849961
 30
0.0
 11
517.09370702115052
 21
192.74368873142109
 31
0.0
  0
LINE
  5
43D85
  8
0
 10
492.09370702115052
 20
192.74368873142109
 30
0.0
 11
486.51520308678818
 21
192.45133172849961
 31
0.0
  0
LINE
  5
43D86
  8
0
 10
486.51520308678818
 20
167.03604573434151
 30
0.0
 11
492.09370702115052
 21
166.74368873142009
 31
0.0
  0
ARC
  5
43D87
  8
0
 10
522.59370702114825
 20
168.5339900364755
 30
0.0
 40
1.500000000002188
 50
272.99999999999909
 51
0.0
  0
ARC
  5
43D88
  8
0
 10
522.59370702114825
 20
190.95338742636559
 30
0.0
 40
1.500000000002188
 50
0.0
 51
87.000000000000924
  0
ARC
  5
43D89
  8
0
 10
486.59370702115268
 20
168.5339900364755
 30
0.0
 40
1.500000000002188
 50
180.0
 51
267.00000000000091
  0
ARC
  5
43D8A
  8
0
 10
486.59370702115268
 20
190.95338742636559
 30
0.0
 40
1.500000000002188
 50
92.999999999999076
 51
180.0
  0
LINE
  5
43D8B
  8
0
 10
532.09370702115052
 20
173.48535539808731
 30
0.0
 11
532.09370702115052
 21
185.22348879705811
 31
0.0
  0
ARC
  5
43D8D
  8
0
 10
512.11089113080152
 20
176.49368873142049
 30
0.0
 40
19.915595272972901
 50
350.60797179493147
 51
9.3920282050699875
  0
POLYLINE
  5
43D8E
  8
0
 66
     1
 10
0.0
 20
0.0
 30
0.0
 70
   128
  0
VERTEX
  5
4408E
  8
0
 10
531.90786171749846
 20
184.99025305325509
 30
0.0
  0
VERTEX
  5
4408F
  8
0
 10
532.02230226725317
 20
182.5012944200293
 30
0.0
  0
VERTEX
  5
44090
  8
0
 10
531.75951538485185
 20
179.74368873142049
 30
0.0
  0
SEQEND
  5
44091
  8
0
  0
LINE
  5
43D8F
  8
0
 10
531.75951538485185
 20
179.74368873142049
 30
0.0
 11
528.32183556027758
 21
179.74368873142049
 31
0.0
  0
ARC
  5
43D90
  8
0
 10
542.84460727098121
 20
176.1503747490726
 30
0.0
 40
16.1799393290983
 50
173.02066562770159
 51
190.34922967796601
  0
LINE
  5
43D91
  8
0
 10
532.02895263297955
 20
173.24368873142049
 30
0.0
 11
526.65846140932115
 21
173.24368873142049
 31
0.0
  0
POLYLINE
  5
43D93
  8
0
 66
     1
 10
0.0
 20
0.0
 30
0.0
 70
   128
  0
VERTEX
  5
44092
  8
0
 10
477.4278986574493
 20
179.74368873142049
 30
0.0
  0
VERTEX
  5
44093
  8
0
 10
477.16620399548151
 20
182.46231359060641
 30
0.0
  0
VERTEX
  5
44094
  8
0
 10
477.27724497333583
 20
184.93343535844531
 30
0.0
  0
SEQEND
  5
44095
  8
0
  0
LINE
  5
43D94
  8
0
 10
480.86557848202318
 20
179.74368873142049
 30
0.0
 11
477.4278986574493
 21
179.74368873142049
 31
0.0
  0
ARC
  5
43D95
  8
0
 10
497.07860083313278
 20
176.49368873142049
 30
0.0
 40
19.917645342695909
 50
170.6089472423651
 51
189.39105275763731
  0
LINE
  5
43D96
  8
0
 10
482.59370702115052
 20
173.24368873142049
 30
0.0
 11
477.15846140932149
 21
173.24368873142049
 31
0.0
  0
LINE
  5
43D97
  8
0
 10
477.09370702115052
 20
173.48535539808731
 30
0.0
 11
477.09370702115052
 21
185.22348879705831
 31
0.0
  0
LINE
  5
43D99
  8
0
 10
534.59370702115052
 20
173.92868873142069
 30
0.0
 11
534.59370702115052
 21
185.5586887314206
 31
0.0
  0
LINE
  5
43D9B
  8
0
 10
547.09370702115029
 20
244.24368873142049
 30
0.0
 11
547.09370702115029
 21
246.74368873142069
 31
0.0
  0
LINE
  5
43DA2
  8
0
 10
462.09370702115018
 20
244.24368873142049
 30
0.0
 11
462.09370702115018
 21
246.74368873142069
 31
0.0
  0
LINE
  5
43DA3
  8
0
 10
462.09370702115018
 20
246.74368873142069
 30
0.0
 11
547.09370702114995
 21
246.74368873142069
 31
0.0
  0
LINE
  5
43DA4
  8
0
 10
462.09370702115018
 20
244.24368873142049
 30
0.0
 11
547.09370702114995
 21
244.2436887314206
 31
0.0
  0
LINE
  5
43DA5
  8
0
 10
470.09248635717239
 20
234.94368873142059
 30
0.0
 11
539.09492768512837
 21
234.94368873142059
 31
0.0
  0
LINE
  5
43DA6
  8
0
 10
468.59370702115029
 20
243.44368873142059
 30
0.0
 11
540.59370702115029
 21
243.44368873142059
 31
0.0
  0
POLYLINE
  5
43DA7
  8
0
 10
526.59370702115052
 20
177.90648513365977
 30
0.0
 66
     1
 70
     8
  0
VERTEX
  8
0
  5
441AA
 10
526.594
 20
177.906
 30
0.000000
  70
    32
  0
VERTEX
  8
0
  5
441AB
 10
527.381
 20
178.706
 30
0.000000
  70
    32
  0
VERTEX
  8
0
  5
441AC
 10
528.138
 20
179.534
 30
0.000000
  70
    32
  0
VERTEX
  8
0
  5
441AD
 10
528.864
 20
180.388
 30
0.000000
  70
    32
  0
VERTEX
  8
0
  5
441AE
 10
529.556
 20
181.267
 30
0.000000
  70
    32
  0
VERTEX
  8
0
  5
441AF
 10
530.215
 20
182.170
 30
0.000000
  70
    32
  0
VERTEX
  8
0
  5
441B0
 10
530.839
 20
183.096
 30
0.000000
  70
    32
  0
VERTEX
  8
0
  5
441B1
 10
531.427
 20
184.044
 30
0.000000
  70
    32
  0
VERTEX
  8
0
  5
441B2
 10
531.980
 20
185.013
 30
0.000000
  70
    32
  0
VERTEX
  8
0
  5
441B3
 10
532.495
 20
186.000
 30
0.000000
  70
    32
  0
VERTEX
  8
0
  5
441B4
 10
532.973
 20
187.005
 30
0.000000
  70
    32
  0
VERTEX
  8
0
  5
441B5
 10
533.412
 20
188.027
 30
0.000000
  70
    32
  0
VERTEX
  8
0
  5
441B6
 10
533.812
 20
189.063
 30
0.000000
  70
    32
  0
VERTEX
  8
0
  5
441B7
 10
534.173
 20
190.113
 30
0.000000
  70
    32
  0
VERTEX
  8
0
  5
441B8
 10
534.494
 20
191.175
 30
0.000000
  70
    32
  0
VERTEX
  8
0
  5
441B9
 10
534.775
 20
192.248
 30
0.000000
  70
    32
  0
VERTEX
  8
0
  5
441BA
 10
535.014
 20
193.330
 30
0.000000
  70
    32
  0
VERTEX
  8
0
  5
441BB
 10
535.213
 20
194.421
 30
0.000000
  70
    32
  0
VERTEX
  8
0
  5
441BC
 10
535.370
 20
195.517
 30
0.000000
  70
    32
  0
VERTEX
  8
0
  5
441BD
 10
535.486
 20
196.618
 30
0.000000
  70
    32
  0
VERTEX
  8
0
  5
441BE
 10
535.560
 20
197.723
 30
0.000000
  70
    32
  0
VERTEX
  8
0
  5
441BF
 10
535.592
 20
198.830
 30
0.000000
  70
    32
  0
VERTEX
  8
0
  5
441C0
 10
535.582
 20
199.937
 30
0.000000
  70
    32
  0
VERTEX
  8
0
  5
441C1
 10
535.531
 20
201.043
 30
0.000000
  70
    32
  0
VERTEX
  8
0
  5
441C2
 10
535.437
 20
202.146
 30
0.000000
  70
    32
  0
VERTEX
  8
0
  5
441C3
 10
535.302
 20
203.245
 30
0.000000
  70
    32
  0
VERTEX
  8
0
  5
441C4
 10
535.126
 20
204.339
 30
0.000000
  70
    32
  0
VERTEX
  8
0
  5
441C5
 10
534.908
 20
205.425
 30
0.000000
  70
    32
  0
VERTEX
  8
0
  5
441C6
 10
534.649
 20
206.503
 30
0.000000
  70
    32
  0
VERTEX
  8
0
  5
441C7
 10
534.350
 20
207.572
 30
0.000000
  70
    32
  0
VERTEX
  8
0
  5
441C8
 10
534.010
 20
208.628
 30
0.000000
  70
    32
  0
VERTEX
  8
0
  5
441C9
 10
533.631
 20
209.672
 30
0.000000
  70
    32
  0
VERTEX
  8
0
  5
441CA
 10
533.212
 20
210.702
 30
0.000000
  70
    32
  0
VERTEX
  8
0
  5
441CB
 10
532.755
 20
211.716
 30
0.000000
  70
    32
  0
VERTEX
  8
0
  5
441CC
 10
532.260
 20
212.713
 30
0.000000
  70
    32
  0
VERTEX
  8
0
  5
441CD
 10
531.727
 20
213.692
 30
0.000000
  70
    32
  0
VERTEX
  8
0
  5
441CE
 10
531.158
 20
214.651
 30
0.000000
  70
    32
  0
VERTEX
  8
0
  5
441CF
 10
530.553
 20
215.588
 30
0.000000
  70
    32
  0
VERTEX
  8
0
  5
441D0
 10
529.912
 20
216.504
 30
0.000000
  70
    32
  0
VERTEX
  8
0
  5
441D1
 10
529.238
 20
217.396
 30
0.000000
  70
    32
  0
VERTEX
  8
0
  5
441D2
 10
528.530
 20
218.264
 30
0.000000
  70
    32
  0
VERTEX
  8
0
  5
441D3
 10
527.790
 20
219.106
 30
0.000000
  70
    32
  0
VERTEX
  8
0
  5
441D4
 10
527.019
 20
219.921
 30
0.000000
  70
    32
  0
VERTEX
  8
0
  5
441D5
 10
526.217
 20
220.707
 30
0.000000
  70
    32
  0
VERTEX
  8
0
  5
441D6
 10
525.386
 20
221.465
 30
0.000000
  70
    32
  0
VERTEX
  8
0
  5
441D7
 10
524.527
 20
222.192
 30
0.000000
  70
    32
  0
VERTEX
  8
0
  5
441D8
 10
523.641
 20
222.888
 30
0.000000
  70
    32
  0
VERTEX
  8
0
  5
441D9
 10
522.729
 20
223.552
 30
0.000000
  70
    32
  0
VERTEX
  8
0
  5
441DA
 10
521.793
 20
224.183
 30
0.000000
  70
    32
  0
VERTEX
  8
0
  5
441DB
 10
520.833
 20
224.780
 30
0.000000
  70
    32
  0
VERTEX
  8
0
  5
441DC
 10
519.852
 20
225.343
 30
0.000000
  70
    32
  0
VERTEX
  8
0
  5
441DD
 10
518.850
 20
225.870
 30
0.000000
  70
    32
  0
VERTEX
  8
0
  5
441DE
 10
517.829
 20
226.361
 30
0.000000
  70
    32
  0
VERTEX
  8
0
  5
441DF
 10
516.790
 20
226.815
 30
0.000000
  70
    32
  0
VERTEX
  8
0
  5
441E0
 10
515.734
 20
227.232
 30
0.000000
  70
    32
  0
VERTEX
  8
0
  5
441E1
 10
514.663
 20
227.610
 30
0.000000
  70
    32
  0
VERTEX
  8
0
  5
441E2
 10
513.579
 20
227.951
 30
0.000000
  70
    32
  0
VERTEX
  8
0
  5
441E3
 10
512.483
 20
228.252
 30
0.000000
  70
    32
  0
VERTEX
  8
0
  5
441E4
 10
511.376
 20
228.514
 30
0.000000
  70
    32
  0
VERTEX
  8
0
  5
441E5
 10
510.259
 20
228.736
 30
0.000000
  70
    32
  0
VERTEX
  8
0
  5
441E6
 10
509.135
 20
228.919
 30
0.000000
  70
    32
  0
VERTEX
  8
0
  5
441E7
 10
508.005
 20
229.061
 30
0.000000
  70
    32
  0
VERTEX
  8
0
  5
441E8
 10
506.871
 20
229.162
 30
0.000000
  70
    32
  0
VERTEX
  8
0
  5
441E9
 10
505.733
 20
229.223
 30
0.000000
  70
    32
  0
VERTEX
  8
0
  5
441EA
 10
504.594
 20
229.244
 30
0.000000
  70
    32
  0
VERTEX
  8
0
  5
441EB
 10
503.454
 20
229.223
 30
0.000000
  70
    32
  0
VERTEX
  8
0
  5
441EC
 10
502.317
 20
229.162
 30
0.000000
  70
    32
  0
VERTEX
  8
0
  5
441ED
 10
501.182
 20
229.061
 30
0.000000
  70
    32
  0
VERTEX
  8
0
  5
441EE
 10
500.052
 20
228.919
 30
0.000000
  70
    32
  0
VERTEX
  8
0
  5
441EF
 10
498.928
 20
228.736
 30
0.000000
  70
    32
  0
VERTEX
  8
0
  5
441F0
 10
497.812
 20
228.514
 30
0.000000
  70
    32
  0
VERTEX
  8
0
  5
441F1
 10
496.705
 20
228.252
 30
0.000000
  70
    32
  0
VERTEX
  8
0
  5
441F2
 10
495.608
 20
227.951
 30
0.000000
  70
    32
  0
VERTEX
  8
0
  5
441F3
 10
494.524
 20
227.610
 30
0.000000
  70
    32
  0
VERTEX
  8
0
  5
441F4
 10
493.453
 20
227.232
 30
0.000000
  70
    32
  0
VERTEX
  8
0
  5
441F5
 10
492.398
 20
226.815
 30
0.000000
  70
    32
  0
VERTEX
  8
0
  5
441F6
 10
491.359
 20
226.361
 30
0.000000
  70
    32
  0
VERTEX
  8
0
  5
441F7
 10
490.337
 20
225.870
 30
0.000000
  70
    32
  0
VERTEX
  8
0
  5
441F8
 10
489.335
 20
225.343
 30
0.000000
  70
    32
  0
VERTEX
  8
0
  5
441F9
 10
488.354
 20
224.780
 30
0.000000
  70
    32
  0
VERTEX
  8
0
  5
441FA
 10
487.395
 20
224.183
 30
0.000000
  70
    32
  0
VERTEX
  8
0
  5
441FB
 10
486.458
 20
223.552
 30
0.000000
  70
    32
  0
VERTEX
  8
0
  5
441FC
 10
485.547
 20
222.888
 30
0.000000
  70
    32
  0
VERTEX
  8
0
  5
441FD
 10
484.661
 20
222.192
 30
0.000000
  70
    32
  0
VERTEX
  8
0
  5
441FE
 10
483.802
 20
221.465
 30
0.000000
  70
    32
  0
VERTEX
  8
0
  5
441FF
 10
482.971
 20
220.707
 30
0.000000
  70
    32
  0
VERTEX
  8
0
  5
44200
 10
482.169
 20
219.921
 30
0.000000
  70
    32
  0
VERTEX
  8
0
  5
44201
 10
481.397
 20
219.106
 30
0.000000
  70
    32
  0
VERTEX
  8
0
  5
44202
 10
480.657
 20
218.264
 30
0.000000
  70
    32
  0
VERTEX
  8
0
  5
44203
 10
479.949
 20
217.396
 30
0.000000
  70
    32
  0
VERTEX
  8
0
  5
44204
 10
479.275
 20
216.504
 30
0.000000
  70
    32
  0
VERTEX
  8
0
  5
44205
 10
478.635
 20
215.588
 30
0.000000
  70
    32
  0
VERTEX
  8
0
  5
44206
 10
478.030
 20
214.651
 30
0.000000
  70
    32
  0
VERTEX
  8
0
  5
44207
 10
477.460
 20
213.692
 30
0.000000
  70
    32
  0
VERTEX
  8
0
  5
44208
 10
476.928
 20
212.713
 30
0.000000
  70
    32
  0
VERTEX
  8
0
  5
44209
 10
476.432
 20
211.716
 30
0.000000
  70
    32
  0
VERTEX
  8
0
  5
4420A
 10
475.975
 20
210.702
 30
0.000000
  70
    32
  0
VERTEX
  8
0
  5
4420B
 10
475.557
 20
209.672
 30
0.000000
  70
    32
  0
VERTEX
  8
0
  5
4420C
 10
475.177
 20
208.628
 30
0.000000
  70
    32
  0
VERTEX
  8
0
  5
4420D
 10
474.838
 20
207.572
 30
0.000000
  70
    32
  0
VERTEX
  8
0
  5
4420E
 10
474.538
 20
206.503
 30
0.000000
  70
    32
  0
VERTEX
  8
0
  5
4420F
 10
474.279
 20
205.425
 30
0.000000
  70
    32
  0
VERTEX
  8
0
  5
44210
 10
474.062
 20
204.339
 30
0.000000
  70
    32
  0
VERTEX
  8
0
  5
44211
 10
473.885
 20
203.245
 30
0.000000
  70
    32
  0
VERTEX
  8
0
  5
44212
 10
473.750
 20
202.146
 30
0.000000
  70
    32
  0
VERTEX
  8
0
  5
44213
 10
473.657
 20
201.043
 30
0.000000
  70
    32
  0
VERTEX
  8
0
  5
44214
 10
473.605
 20
199.937
 30
0.000000
  70
    32
  0
VERTEX
  8
0
  5
44215
 10
473.595
 20
198.830
 30
0.000000
  70
    32
  0
VERTEX
  8
0
  5
44216
 10
473.627
 20
197.723
 30
0.000000
  70
    32
  0
VERTEX
  8
0
  5
44217
 10
473.701
 20
196.618
 30
0.000000
  70
    32
  0
VERTEX
  8
0
  5
44218
 10
473.817
 20
195.517
 30
0.000000
  70
    32
  0
VERTEX
  8
0
  5
44219
 10
473.974
 20
194.421
 30
0.000000
  70
    32
  0
VERTEX
  8
0
  5
4421A
 10
474.173
 20
193.330
 30
0.000000
  70
    32
  0
VERTEX
  8
0
  5
4421B
 10
474.413
 20
192.248
 30
0.000000
  70
    32
  0
VERTEX
  8
0
  5
4421C
 10
474.693
 20
191.175
 30
0.000000
  70
    32
  0
VERTEX
  8
0
  5
4421D
 10
475.014
 20
190.113
 30
0.000000
  70
    32
  0
VERTEX
  8
0
  5
4421E
 10
475.375
 20
189.063
 30
0.000000
  70
    32
  0
VERTEX
  8
0
  5
4421F
 10
475.775
 20
188.027
 30
0.000000
  70
    32
  0
VERTEX
  8
0
  5
44220
 10
476.215
 20
187.005
 30
0.000000
  70
    32
  0
VERTEX
  8
0
  5
44221
 10
476.692
 20
186.000
 30
0.000000
  70
    32
  0
VERTEX
  8
0
  5
44222
 10
477.208
 20
185.013
 30
0.000000
  70
    32
  0
VERTEX
  8
0
  5
44223
 10
477.760
 20
184.044
 30
0.000000
  70
    32
  0
VERTEX
  8
0
  5
44224
 10
478.349
 20
183.096
 30
0.000000
  70
    32
  0
VERTEX
  8
0
  5
44225
 10
478.973
 20
182.170
 30
0.000000
  70
    32
  0
VERTEX
  8
0
  5
44226
 10
479.631
 20
181.267
 30
0.000000
  70
    32
  0
VERTEX
  8
0
  5
44227
 10
480.324
 20
180.388
 30
0.000000
  70
    32
  0
VERTEX
  8
0
  5
44228
 10
481.049
 20
179.534
 30
0.000000
  70
    32
  0
VERTEX
  8
0
  5
44229
 10
481.806
 20
178.706
 30
0.000000
  70
    32
  0
VERTEX
  8
0
  5
4422A
 10
482.594
 20
177.906
 30
0.000000
  70
    32
  0
SEQEND
  8
0
  5
4422B
  0
LINE
  5
43DA8
  8
0
 10
482.59370702115052
 20
169.74368873142049
 30
0.0
 11
482.59370702115052
 21
177.9064851336594
 31
0.0
  0
LINE
  5
43DA9
  8
0
 10
526.59370702115052
 20
169.74368873142049
 30
0.0
 11
526.59370702115052
 21
177.9064851336594
 31
0.0
  0
LINE
  5
43DAA
  8
0
 10
524.59370702115052
 20
172.5713425185408
 30
0.0
 11
526.59370702115052
 21
172.5713425185408
 31
0.0
  0
POLYLINE
  5
43DAC
  8
0
 10
524.59370702115052
 20
178.72291030584171
 30
0.0
 66
     1
 70
     8
  0
VERTEX
  8
0
  5
4422C
 10
524.594
 20
178.723
 30
0.000000
  70
    32
  0
VERTEX
  8
0
  5
4422D
 10
525.361
 20
179.460
 30
0.000000
  70
    32
  0
VERTEX
  8
0
  5
4422E
 10
526.099
 20
180.224
 30
0.000000
  70
    32
  0
VERTEX
  8
0
  5
4422F
 10
526.808
 20
181.014
 30
0.000000
  70
    32
  0
VERTEX
  8
0
  5
44230
 10
527.486
 20
181.829
 30
0.000000
  70
    32
  0
VERTEX
  8
0
  5
44231
 10
528.132
 20
182.668
 30
0.000000
  70
    32
  0
VERTEX
  8
0
  5
44232
 10
528.746
 20
183.530
 30
0.000000
  70
    32
  0
VERTEX
  8
0
  5
44233
 10
529.326
 20
184.413
 30
0.000000
  70
    32
  0
VERTEX
  8
0
  5
44234
 10
529.872
 20
185.317
 30
0.000000
  70
    32
  0
VERTEX
  8
0
  5
44235
 10
530.383
 20
186.240
 30
0.000000
  70
    32
  0
VERTEX
  8
0
  5
44236
 10
530.858
 20
187.180
 30
0.000000
  70
    32
  0
VERTEX
  8
0
  5
44237
 10
531.297
 20
188.138
 30
0.000000
  70
    32
  0
VERTEX
  8
0
  5
44238
 10
531.700
 20
189.110
 30
0.000000
  70
    32
  0
VERTEX
  8
0
  5
44239
 10
532.064
 20
190.096
 30
0.000000
  70
    32
  0
VERTEX
  8
0
  5
4423A
 10
532.391
 20
191.095
 30
0.000000
  70
    32
  0
VERTEX
  8
0
  5
4423B
 10
532.679
 20
192.105
 30
0.000000
  70
    32
  0
VERTEX
  8
0
  5
4423C
 10
532.928
 20
193.124
 30
0.000000
  70
    32
  0
VERTEX
  8
0
  5
4423D
 10
533.138
 20
194.152
 30
0.000000
  70
    32
  0
VERTEX
  8
0
  5
4423E
 10
533.309
 20
195.187
 30
0.000000
  70
    32
  0
VERTEX
  8
0
  5
4423F
 10
533.440
 20
196.227
 30
0.000000
  70
    32
  0
VERTEX
  8
0
  5
44240
 10
533.531
 20
197.271
 30
0.000000
  70
    32
  0
VERTEX
  8
0
  5
44241
 10
533.582
 20
198.318
 30
0.000000
  70
    32
  0
VERTEX
  8
0
  5
44242
 10
533.593
 20
199.366
 30
0.000000
  70
    32
  0
VERTEX
  8
0
  5
44243
 10
533.563
 20
200.414
 30
0.000000
  70
    32
  0
VERTEX
  8
0
  5
44244
 10
533.494
 20
201.460
 30
0.000000
  70
    32
  0
VERTEX
  8
0
  5
44245
 10
533.385
 20
202.502
 30
0.000000
  70
    32
  0
VERTEX
  8
0
  5
44246
 10
533.236
 20
203.540
 30
0.000000
  70
    32
  0
VERTEX
  8
0
  5
44247
 10
533.047
 20
204.572
 30
0.000000
  70
    32
  0
VERTEX
  8
0
  5
44248
 10
532.819
 20
205.596
 30
0.000000
  70
    32
  0
VERTEX
  8
0
  5
44249
 10
532.551
 20
206.611
 30
0.000000
  70
    32
  0
VERTEX
  8
0
  5
4424A
 10
532.246
 20
207.616
 30
0.000000
  70
    32
  0
VERTEX
  8
0
  5
4424B
 10
531.901
 20
208.609
 30
0.000000
  70
    32
  0
VERTEX
  8
0
  5
4424C
 10
531.520
 20
209.589
 30
0.000000
  70
    32
  0
VERTEX
  8
0
  5
4424D
 10
531.100
 20
210.555
 30
0.000000
  70
    32
  0
VERTEX
  8
0
  5
4424E
 10
530.645
 20
211.505
 30
0.000000
  70
    32
  0
VERTEX
  8
0
  5
4424F
 10
530.153
 20
212.438
 30
0.000000
  70
    32
  0
VERTEX
  8
0
  5
44250
 10
529.625
 20
213.352
 30
0.000000
  70
    32
  0
VERTEX
  8
0
  5
44251
 10
529.064
 20
214.246
 30
0.000000
  70
    32
  0
VERTEX
  8
0
  5
44252
 10
528.468
 20
215.120
 30
0.000000
  70
    32
  0
VERTEX
  8
0
  5
44253
 10
527.839
 20
215.971
 30
0.000000
  70
    32
  0
VERTEX
  8
0
  5
44254
 10
527.178
 20
216.800
 30
0.000000
  70
    32
  0
VERTEX
  8
0
  5
44255
 10
526.486
 20
217.603
 30
0.000000
  70
    32
  0
VERTEX
  8
0
  5
44256
 10
525.764
 20
218.382
 30
0.000000
  70
    32
  0
VERTEX
  8
0
  5
44257
 10
525.012
 20
219.133
 30
0.000000
  70
    32
  0
VERTEX
  8
0
  5
44258
 10
524.232
 20
219.857
 30
0.000000
  70
    32
  0
VERTEX
  8
0
  5
44259
 10
523.425
 20
220.552
 30
0.000000
  70
    32
  0
VERTEX
  8
0
  5
4425A
 10
522.592
 20
221.218
 30
0.000000
  70
    32
  0
VERTEX
  8
0
  5
4425B
 10
521.734
 20
221.853
 30
0.000000
  70
    32
  0
VERTEX
  8
0
  5
4425C
 10
520.852
 20
222.456
 30
0.000000
  70
    32
  0
VERTEX
  8
0
  5
4425D
 10
519.948
 20
223.028
 30
0.000000
  70
    32
  0
VERTEX
  8
0
  5
4425E
 10
519.022
 20
223.566
 30
0.000000
  70
    32
  0
VERTEX
  8
0
  5
4425F
 10
518.077
 20
224.070
 30
0.000000
  70
    32
  0
VERTEX
  8
0
  5
44260
 10
517.113
 20
224.540
 30
0.000000
  70
    32
  0
VERTEX
  8
0
  5
44261
 10
516.131
 20
224.975
 30
0.000000
  70
    32
  0
VERTEX
  8
0
  5
44262
 10
515.134
 20
225.374
 30
0.000000
  70
    32
  0
VERTEX
  8
0
  5
44263
 10
514.122
 20
225.736
 30
0.000000
  70
    32
  0
VERTEX
  8
0
  5
44264
 10
513.097
 20
226.062
 30
0.000000
  70
    32
  0
VERTEX
  8
0
  5
44265
 10
512.060
 20
226.351
 30
0.000000
  70
    32
  0
VERTEX
  8
0
  5
44266
 10
511.012
 20
226.602
 30
0.000000
  70
    32
  0
VERTEX
  8
0
  5
44267
 10
509.956
 20
226.815
 30
0.000000
  70
    32
  0
VERTEX
  8
0
  5
44268
 10
508.893
 20
226.989
 30
0.000000
  70
    32
  0
VERTEX
  8
0
  5
44269
 10
507.823
 20
227.125
 30
0.000000
  70
    32
  0
VERTEX
  8
0
  5
4426A
 10
506.749
 20
227.223
 30
0.000000
  70
    32
  0
VERTEX
  8
0
  5
4426B
 10
505.672
 20
227.281
 30
0.000000
  70
    32
  0
VERTEX
  8
0
  5
4426C
 10
504.594
 20
227.301
 30
0.000000
  70
    32
  0
VERTEX
  8
0
  5
4426D
 10
503.515
 20
227.281
 30
0.000000
  70
    32
  0
VERTEX
  8
0
  5
4426E
 10
502.438
 20
227.223
 30
0.000000
  70
    32
  0
VERTEX
  8
0
  5
4426F
 10
501.364
 20
227.125
 30
0.000000
  70
    32
  0
VERTEX
  8
0
  5
44270
 10
500.295
 20
226.989
 30
0.000000
  70
    32
  0
VERTEX
  8
0
  5
44271
 10
499.231
 20
226.815
 30
0.000000
  70
    32
  0
VERTEX
  8
0
  5
44272
 10
498.175
 20
226.602
 30
0.000000
  70
    32
  0
VERTEX
  8
0
  5
44273
 10
497.128
 20
226.351
 30
0.000000
  70
    32
  0
VERTEX
  8
0
  5
44274
 10
496.091
 20
226.062
 30
0.000000
  70
    32
  0
VERTEX
  8
0
  5
44275
 10
495.066
 20
225.736
 30
0.000000
  70
    32
  0
VERTEX
  8
0
  5
44276
 10
494.054
 20
225.374
 30
0.000000
  70
    32
  0
VERTEX
  8
0
  5
44277
 10
493.056
 20
224.975
 30
0.000000
  70
    32
  0
VERTEX
  8
0
  5
44278
 10
492.075
 20
224.540
 30
0.000000
  70
    32
  0
VERTEX
  8
0
  5
44279
 10
491.111
 20
224.070
 30
0.000000
  70
    32
  0
VERTEX
  8
0
  5
4427A
 10
490.165
 20
223.566
 30
0.000000
  70
    32
  0
VERTEX
  8
0
  5
4427B
 10
489.240
 20
223.028
 30
0.000000
  70
    32
  0
VERTEX
  8
0
  5
4427C
 10
488.335
 20
222.456
 30
0.000000
  70
    32
  0
VERTEX
  8
0
  5
4427D
 10
487.454
 20
221.853
 30
0.000000
  70
    32
  0
VERTEX
  8
0
  5
4427E
 10
486.596
 20
221.218
 30
0.000000
  70
    32
  0
VERTEX
  8
0
  5
4427F
 10
485.762
 20
220.552
 30
0.000000
  70
    32
  0
VERTEX
  8
0
  5
44280
 10
484.955
 20
219.857
 30
0.000000
  70
    32
  0
VERTEX
  8
0
  5
44281
 10
484.175
 20
219.133
 30
0.000000
  70
    32
  0
VERTEX
  8
0
  5
44282
 10
483.424
 20
218.382
 30
0.000000
  70
    32
  0
VERTEX
  8
0
  5
44283
 10
482.701
 20
217.603
 30
0.000000
  70
    32
  0
VERTEX
  8
0
  5
44284
 10
482.009
 20
216.800
 30
0.000000
  70
    32
  0
VERTEX
  8
0
  5
44285
 10
481.348
 20
215.971
 30
0.000000
  70
    32
  0
VERTEX
  8
0
  5
44286
 10
480.719
 20
215.120
 30
0.000000
  70
    32
  0
VERTEX
  8
0
  5
44287
 10
480.124
 20
214.246
 30
0.000000
  70
    32
  0
VERTEX
  8
0
  5
44288
 10
479.562
 20
213.352
 30
0.000000
  70
    32
  0
VERTEX
  8
0
  5
44289
 10
479.035
 20
212.438
 30
0.000000
  70
    32
  0
VERTEX
  8
0
  5
4428A
 10
478.543
 20
211.505
 30
0.000000
  70
    32
  0
VERTEX
  8
0
  5
4428B
 10
478.087
 20
210.555
 30
0.000000
  70
    32
  0
VERTEX
  8
0
  5
4428C
 10
477.668
 20
209.589
 30
0.000000
  70
    32
  0
VERTEX
  8
0
  5
4428D
 10
477.286
 20
208.609
 30
0.000000
  70
    32
  0
VERTEX
  8
0
  5
4428E
 10
476.942
 20
207.616
 30
0.000000
  70
    32
  0
VERTEX
  8
0
  5
4428F
 10
476.636
 20
206.611
 30
0.000000
  70
    32
  0
VERTEX
  8
0
  5
44290
 10
476.369
 20
205.596
 30
0.000000
  70
    32
  0
VERTEX
  8
0
  5
44291
 10
476.141
 20
204.572
 30
0.000000
  70
    32
  0
VERTEX
  8
0
  5
44292
 10
475.952
 20
203.540
 30
0.000000
  70
    32
  0
VERTEX
  8
0
  5
44293
 10
475.803
 20
202.502
 30
0.000000
  70
    32
  0
VERTEX
  8
0
  5
44294
 10
475.693
 20
201.460
 30
0.000000
  70
    32
  0
VERTEX
  8
0
  5
44295
 10
475.624
 20
200.414
 30
0.000000
  70
    32
  0
VERTEX
  8
0
  5
44296
 10
475.595
 20
199.366
 30
0.000000
  70
    32
  0
VERTEX
  8
0
  5
44297
 10
475.606
 20
198.318
 30
0.000000
  70
    32
  0
VERTEX
  8
0
  5
44298
 10
475.657
 20
197.271
 30
0.000000
  70
    32
  0
VERTEX
  8
0
  5
44299
 10
475.748
 20
196.227
 30
0.000000
  70
    32
  0
VERTEX
  8
0
  5
4429A
 10
475.878
 20
195.187
 30
0.000000
  70
    32
  0
VERTEX
  8
0
  5
4429B
 10
476.049
 20
194.152
 30
0.000000
  70
    32
  0
VERTEX
  8
0
  5
4429C
 10
476.259
 20
193.124
 30
0.000000
  70
    32
  0
VERTEX
  8
0
  5
4429D
 10
476.508
 20
192.105
 30
0.000000
  70
    32
  0
VERTEX
  8
0
  5
4429E
 10
476.797
 20
191.095
 30
0.000000
  70
    32
  0
VERTEX
  8
0
  5
4429F
 10
477.123
 20
190.096
 30
0.000000
  70
    32
  0
VERTEX
  8
0
  5
442A0
 10
477.488
 20
189.110
 30
0.000000
  70
    32
  0
VERTEX
  8
0
  5
442A1
 10
477.890
 20
188.138
 30
0.000000
  70
    32
  0
VERTEX
  8
0
  5
442A2
 10
478.329
 20
187.180
 30
0.000000
  70
    32
  0
VERTEX
  8
0
  5
442A3
 10
478.804
 20
186.240
 30
0.000000
  70
    32
  0
VERTEX
  8
0
  5
442A4
 10
479.315
 20
185.317
 30
0.000000
  70
    32
  0
VERTEX
  8
0
  5
442A5
 10
479.862
 20
184.413
 30
0.000000
  70
    32
  0
VERTEX
  8
0
  5
442A6
 10
480.442
 20
183.530
 30
0.000000
  70
    32
  0
VERTEX
  8
0
  5
442A7
 10
481.055
 20
182.668
 30
0.000000
  70
    32
  0
VERTEX
  8
0
  5
442A8
 10
481.702
 20
181.829
 30
0.000000
  70
    32
  0
VERTEX
  8
0
  5
442A9
 10
482.380
 20
181.014
 30
0.000000
  70
    32
  0
VERTEX
  8
0
  5
442AA
 10
483.088
 20
180.224
 30
0.000000
  70
    32
  0
VERTEX
  8
0
  5
442AB
 10
483.827
 20
179.460
 30
0.000000
  70
    32
  0
VERTEX
  8
0
  5
442AC
 10
484.594
 20
178.723
 30
0.000000
  70
    32
  0
SEQEND
  8
0
  5
442AD
  0
LINE
  5
43DAE
  8
0
 10
482.59370702115052
 20
172.5713425185408
 30
0.0
 11
484.59370702115052
 21
172.5713425185408
 31
0.0
  0
LINE
  5
43DAF
  8
0
 10
524.59370702115052
 20
219.52815441880909
 30
0.0
 11
524.59370702115052
 21
169.74368873142049
 31
0.0
  0
LINE
  5
43DB0
  8
0
 10
484.59370702115052
 20
169.74368873142049
 30
0.0
 11
484.59370702115052
 21
219.52815441880949
 31
0.0
  0
LINE
  5
43DB1
  8
0
 10
524.59370702115052
 20
169.74368873142049
 30
0.0
 11
526.59370702115052
 21
169.74368873142049
 31
0.0
  0
LINE
  5
43DB4
  8
0
 10
482.59370702115052
 20
169.74368873142049
 30
0.0
 11
484.59370702115052
 21
169.74368873142049
 31
0.0
  0
LINE
  5
43DB7
  8
0
 10
523.59370702115041
 20
218.01183707884249
 30
0.0
 11
524.59370702115075
 21
218.01183707884249
 31
0.0
  0
LINE
  5
43DB8
  8
0
 10
484.59370702115069
 20
218.01183707884249
 30
0.0
 11
485.59370702115052
 21
218.01183707884249
 31
0.0
  0
LINE
  5
43DBA
  8
0
 10
490.59177222434499
 20
223.7988930065948
 30
0.0
 11
518.59564181795531
 21
223.7988930065948
 31
0.0
  0
LINE
  5
43DBB
  8
0
 10
486.19125532930559
 20
220.9011155277268
 30
0.0
 11
522.99615871299466
 21
220.9011155277268
 31
0.0
  0
LINE
  5
43DBF
  8
0
 10
510.29370702115011
 20
140.0436887314205
 30
0.0
 11
510.29370702115051
 21
219.44368873142059
 31
0.0
  0
LINE
  5
43DC1
  8
0
 10
507.89370702114968
 20
140.0436887314205
 30
0.0
 11
507.89370702115042
 21
219.44368873142059
 31
0.0
  0
LINE
  5
43DC3
  8
0
 10
501.29370702115011
 20
140.0436887314205
 30
0.0
 11
501.29370702115051
 21
219.44368873142059
 31
0.0
  0
LINE
  5
43DC5
  8
0
 10
498.89370702114968
 20
140.0436887314205
 30
0.0
 11
498.89370702115048
 21
219.44368873142059
 31
0.0
  0
LINE
  5
43DC7
  8
0
 10
512.67241944816635
 20
143.4053650958715
 30
0.0
 11
512.67241944816635
 21
216.08201236696971
 31
0.0
  0
LINE
  5
43DC9
  8
0
 10
496.51499459413378
 20
143.4053650958713
 30
0.0
 11
496.51499459413452
 21
216.08201236696971
 31
0.0
  0
LINE
  5
43DCB
  8
0
 10
513.50575278149995
 20
144.11342513432601
 30
0.0
 11
513.50575278149972
 21
215.37395232851571
 31
0.0
  0
LINE
  5
43DCD
  8
0
 10
495.68166126080109
 20
144.11342513432629
 30
0.0
 11
495.68166126080109
 21
215.37395232851571
 31
0.0
  0
LINE
  5
43DCF
  8
0
 10
514.33908611483275
 20
146.53360086572229
 30
0.0
 11
514.33908611483321
 21
212.95377659711869
 31
0.0
  0
LINE
  5
43DD1
  8
0
 10
494.84832792746749
 20
146.53360086572229
 30
0.0
 11
494.84832792746778
 21
212.95377659711869
 31
0.0
  0
LINE
  5
43DD3
  8
0
 10
517.09370702115052
 20
156.24571655866069
 30
0.0
 11
517.09370702115052
 21
203.24166090417671
 31
0.0
  0
LINE
  5
43DD5
  8
0
 10
492.09370702115052
 20
156.24571655866069
 30
0.0
 11
492.09370702115052
 21
203.24166090417671
 31
0.0
  0
LINE
  5
43DD8
  8
0
 10
524.09370702115052
 20
168.5339900364755
 30
0.0
 11
524.09370702115052
 21
190.95338742636559
 31
0.0
  0
LINE
  5
43DD9
  8
0
 10
485.09370702115052
 20
168.5339900364755
 30
0.0
 11
485.09370702115052
 21
190.95338742636559
 31
0.0
  0
LINE
  5
43DF4
  8
0
 10
522.67221095551281
 20
167.0360457343416
 30
0.0
 11
522.67221095551281
 21
192.4513317284997
 31
0.0
  0
LINE
  5
43DF5
  8
0
 10
486.51520308678818
 20
167.03604573434151
 30
0.0
 11
486.51520308678818
 21
192.45133172849961
 31
0.0
  0
LINE
  5
43DF9
  8
0
 10
315.52723287730231
 20
411.57567298692828
 30
0.0
 11
306.040399896797
 21
411.57567298692828
 31
0.0
  0
LINE
  5
43DFA
  8
0
 10
306.09576198065071
 20
411.40958673536772
 30
0.0
 11
307.19770630398398
 21
411.24148135062978
 31
0.0
  0
POLYLINE
  5
43DFB
  8
0
 66
     1
 10
0.0
 20
0.0
 30
0.0
 70
   128
  0
VERTEX
  5
44096
  8
0
 10
314.7032598034491
 20
411.24148135062978
 30
0.0
  0
VERTEX
  5
44097
  8
0
 10
315.29099063676398
 20
411.37900158303898
 30
0.0
  0
VERTEX
  5
44098
  8
0
 10
315.58498557662551
 20
411.40241488895902
 30
0.0
  0
SEQEND
  5
44099
  8
0
  0
ARC
  5
43DFC
  8
0
 10
310.95048305371643
 20
384.64495853333477
 30
0.0
 40
26.859976904387349
 50
81.968569569195765
 51
98.031430430804235
  0
ARC
  5
43DFD
  8
0
 10
310.98461174077693
 20
431.7387175186991
 30
0.0
 40
25.600373677243251
 50
262.8224177893959
 51
278.3521947577442
  0
LINE
  5
43DFE
  8
0
 10
307.19770630398398
 20
411.24148135062978
 30
0.0
 11
307.19770630398398
 21
408.1037537653678
 31
0.0
  0
LINE
  5
43DFF
  8
0
 10
314.7032598034491
 20
411.24148135062978
 30
0.0
 11
314.7032598034491
 21
406.40986462322678
 31
0.0
  0
POLYLINE
  5
43E00
  8
0
 66
     1
 10
0.0
 20
0.0
 30
0.0
 70
   128
  0
VERTEX
  5
4409A
  8
0
 10
316.85692275239012
 20
406.15046712864671
 30
0.0
  0
VERTEX
  5
4409B
  8
0
 10
315.29099063676398
 20
406.27234439081758
 30
0.0
  0
VERTEX
  5
4409C
  8
0
 10
314.7032598034491
 20
406.40986462322678
 30
0.0
  0
SEQEND
  5
4409D
  8
0
  0
LINE
  5
43E01
  8
0
 10
307.19770630398398
 20
356.90986462322712
 30
0.0
 11
306.09576198065088
 21
356.74175923848912
 31
0.0
  0
LINE
  5
43E02
  8
0
 10
307.19770630398398
 20
360.04759220848831
 30
0.0
 11
307.19770630398398
 21
356.90986462322712
 31
0.0
  0
ARC
  5
43E03
  8
0
 10
310.95048305371643
 20
383.51002499727952
 30
0.0
 40
26.863578787247231
 50
261.9696535351386
 51
278.03034646486151
  0
LINE
  5
43E04
  8
0
 10
314.7032598034491
 20
362.07567298692828
 30
0.0
 11
314.7032598034491
 21
356.90986462322712
 31
0.0
  0
POLYLINE
  5
43E05
  8
0
 66
     1
 10
0.0
 20
0.0
 30
0.0
 70
   128
  0
VERTEX
  5
4409E
  8
0
 10
315.58515827489919
 20
356.749449179718
 30
0.0
  0
VERTEX
  5
4409F
  8
0
 10
315.29099063676398
 20
356.77234439081781
 30
0.0
  0
VERTEX
  5
440A0
  8
0
 10
314.7032598034491
 20
356.90986462322712
 30
0.0
  0
SEQEND
  5
440A1
  8
0
  0
LINE
  5
43E06
  8
0
 10
315.52723287730259
 20
356.5756729869284
 30
0.0
 11
306.04039989679723
 21
356.5756729869284
 31
0.0
  0
LINE
  5
43E07
  8
0
 10
314.69389954396911
 20
414.07567298692828
 30
0.0
 11
305.45048305371643
 21
414.07567298692828
 31
0.0
  0
LINE
  5
43E09
  8
0
 10
399.95048305371643
 20
350.57567298692783
 30
0.0
 11
399.95048305371643
 21
417.57567298692811
 31
0.0
  0
ARC
  5
43E0A
  8
0
 10
390.95048305371671
 20
350.57567298692783
 30
0.0
 40
8.9999999999997726
 50
270.0
 51
0.0
  0
LINE
  5
43E0B
  8
0
 10
308.9504830537162
 20
341.57567298692811
 30
0.0
 11
390.95048305371643
 21
341.57567298692811
 31
0.0
  0
ARC
  5
43E0C
  8
0
 10
308.9504830537162
 20
350.57567298692788
 30
0.0
 40
8.9999999999998295
 50
179.9999999999967
 51
270.0
  0
LINE
  5
43E0D
  8
0
 10
299.95048305371643
 20
417.57567298692811
 30
0.0
 11
299.95048305371643
 21
350.57567298692811
 31
0.0
  0
LINE
  5
43E0E
  8
0
 10
383.18140821248932
 20
360.15264803985229
 30
0.0
 11
385.68140821248949
 21
352.65264803985212
 31
0.0
  0
ARC
  5
43E0F
  8
0
 10
389.95048305371643
 20
354.07567298692811
 30
0.0
 40
4.4999999999998312
 50
198.43494882292811
 51
18.43494882292201
  0
LINE
  5
43E10
  8
0
 10
394.21955789494359
 20
355.4986979340037
 30
0.0
 11
391.71955789494359
 21
362.9986979340041
 31
0.0
  0
ARC
  5
43E11
  8
0
 10
387.45048305371643
 20
361.57567298692811
 30
0.0
 40
4.4999999999998401
 50
18.434948822928192
 51
198.43494882292509
  0
LINE
  5
43E12
  8
0
 10
391.71955789494359
 20
405.15264803985229
 30
0.0
 11
394.21955789494342
 21
412.65264803985212
 31
0.0
  0
ARC
  5
43E13
  8
0
 10
389.95048305371643
 20
414.07567298692811
 30
0.0
 40
4.4999999999998304
 50
341.56505117707491
 51
161.565051177078
  0
LINE
  5
43E14
  8
0
 10
385.68140821248932
 20
415.4986979340037
 30
0.0
 11
383.18140821248949
 21
407.99869793400399
 31
0.0
  0
ARC
  5
43E15
  8
0
 10
387.45048305371643
 20
406.575672986928
 30
0.0
 40
4.4999999999998224
 50
161.56505117707181
 51
341.56505117707798
  0
LINE
  5
43E17
  8
0
 10
314.21955789494399
 20
352.65264803985258
 30
0.0
 11
316.71955789494382
 21
360.15264803985212
 31
0.0
  0
ARC
  5
43E18
  8
0
 10
312.45048305371643
 20
361.57567298692783
 30
0.0
 40
4.5000000000000817
 50
341.56505117708309
 51
161.565051177078
  0
LINE
  5
43E19
  8
0
 10
308.18140821248898
 20
362.99869793400347
 30
0.0
 11
305.68140821248932
 21
355.4986979340041
 31
0.0
  0
ARC
  5
43E1A
  8
0
 10
309.95048305371671
 20
354.07567298692851
 30
0.0
 40
4.5000000000000906
 50
161.565051177078
 51
341.56505117707798
  0
LINE
  5
43E1B
  8
0
 10
305.68140821248932
 20
412.65264803985201
 30
0.0
 11
308.18140821248932
 21
405.15264803985201
 31
0.0
  0
ARC
  5
43E1C
  8
0
 10
312.45048305371643
 20
406.5756729869284
 30
0.0
 40
4.5000000000000906
 50
198.4349488229312
 51
18.434948822925101
  0
LINE
  5
43E1D
  8
0
 10
316.71955789494359
 20
407.9986979340041
 30
0.0
 11
314.21955789494382
 21
415.4986979340041
 31
0.0
  0
ARC
  5
43E1E
  8
0
 10
309.95048305371671
 20
414.07567298692771
 30
0.0
 40
4.5000000000000906
 50
18.434948822931279
 51
198.43494882292509
  0
ARC
  5
43E1F
  8
0
 10
390.95048305371671
 20
417.57567298692828
 30
0.0
 40
8.9999999999997726
 50
359.99999999999682
 51
90.0
  0
LINE
  5
43E20
  8
0
 10
390.95048305371671
 20
426.57567298692811
 30
0.0
 11
308.9504830537162
 21
426.57567298692811
 31
0.0
  0
ARC
  5
43E21
  8
0
 10
308.9504830537162
 20
417.57567298692828
 30
0.0
 40
8.9999999999998295
 50
90.0
 51
180.0
  0
LINE
  5
43E30
  8
0
 10
316.92261900871608
 20
362.07567298692811
 30
0.0
 11
307.87373323013048
 21
362.07567298692811
 31
0.0
  0
LINE
  5
43E33
  8
0
 10
316.92261900871608
 20
406.07567298692811
 30
0.0
 11
307.87373323013048
 21
406.07567298692811
 31
0.0
  0
LINE
  5
43E35
  8
0
 10
299.95048305371643
 20
362.07567298692811
 30
0.0
 11
250.46714355211131
 21
362.07567298692823
 31
0.0
  0
LINE
  5
43E36
  8
0
 10
250.46714355211131
 20
362.07567298692823
 30
0.0
 11
250.46714355211131
 21
406.07567298692811
 31
0.0
  0
LINE
  5
43E39
  8
0
 10
299.95048305371643
 20
406.07567298692811
 30
0.0
 11
250.46714355211131
 21
406.07567298692811
 31
0.0
  0
LINE
  5
43E8B
  8
1
 10
215.46714355210949
 20
384.07567298692771
 30
0.0
 11
414.9504830537166
 21
384.07567298692811
 31
0.0
  0
LINE
  5
43E8C
  8
1
 10
349.9504830537162
 20
326.57567298692811
 30
0.0
 11
349.9504830537166
 21
441.57567298692811
 31
0.0
  0
CIRCLE
  5
43E8D
  8
0
 10
349.9504830537166
 20
384.07567298692572
 30
0.0
 40
8.9249999999999972
  0
CIRCLE
  5
43E8E
  8
0
 10
349.9504830537166
 20
384.07567298692572
 30
0.0
 40
13.579006893609151
  0
CIRCLE
  5
43E8F
  8
0
 10
349.9504830537166
 20
384.07567298692572
 30
0.0
 40
20.175000000000001
  0
CIRCLE
  5
43E90
  8
0
 10
349.9504830537166
 20
384.07567298692572
 30
0.0
 40
23.802288713680468
  0
CIRCLE
  5
43E91
  8
0
 10
349.9504830537166
 20
384.07567298692572
 30
0.0
 40
25.668546822706869
  0
CIRCLE
  5
43E92
  8
0
 10
349.9504830537166
 20
384.07567298692572
 30
0.0
 40
27.174999999999269
  0
CIRCLE
  5
43E93
  8
0
 10
349.9504830537166
 20
384.07567298692572
 30
0.0
 40
31.175000000000001
  0
LINE
  5
43E9A
  8
0
 10
230.46714355210949
 20
368.0541523036128
 30
0.0
 11
230.46714355210949
 21
400.09719367024633
 31
0.0
  0
LINE
  5
43E9B
  8
0
 10
235.01130381613709
 20
365.07567298692823
 30
0.0
 11
235.01130381613709
 21
403.07567298692823
 31
0.0
  0
LINE
  5
43E9C
  8
0
 10
247.46714355210949
 20
368.07567298692823
 30
0.0
 11
247.46714355210949
 21
400.07567298692823
 31
0.0
  0
LINE
  5
43E9D
  8
0
 10
250.46714355210949
 20
365.07567298692823
 30
0.0
 11
232.06125325072301
 21
365.07567298692823
 31
0.0
  0
LINE
  5
43E9E
  8
0
 10
247.46714355210949
 20
368.07567298692823
 30
0.0
 11
250.46714355210949
 21
368.07567298692823
 31
0.0
  0
LINE
  5
43E9F
  8
0
 10
250.46714355210949
 20
403.07567298692823
 30
0.0
 11
232.06125325072301
 21
403.07567298692823
 31
0.0
  0
LINE
  5
43EA0
  8
0
 10
247.46714355210949
 20
400.07567298692823
 30
0.0
 11
250.46714355210949
 21
400.07567298692823
 31
0.0
  0
ARC
  5
43EA1
  8
0
 10
234.8035829457485
 20
368.4592240133735
 30
0.0
 40
4.3553174057440378
 50
185.33657785306869
 51
230.97562584389991
  0
ARC
  5
43EA2
  8
0
 10
234.8035829457485
 20
399.69212196048289
 30
0.0
 40
4.3553174057440378
 50
129.02437415610001
 51
174.66342214693131
  0
LINE
  5
43EA3
  8
0
 10
230.4671435521133
 20
220.86604156755331
 30
0.0
 11
233.68108160054649
 21
217.03581935195709
 31
0.0
  0
LINE
  5
43EA4
  8
0
 10
232.38225465991229
 20
222.47301059176991
 30
0.0
 11
230.4671435521133
 21
220.86604156755331
 31
0.0
  0
LINE
  5
43EA5
  8
0
 10
235.0113038161409
 20
219.3398318147249
 30
0.0
 11
232.38225465991229
 21
222.47301059176991
 31
0.0
  0
LINE
  5
43EA6
  8
0
 10
251.17671025174531
 20
217.09554975716151
 30
0.0
 11
235.0113038161409
 21
219.3398318147249
 31
0.0
  0
LINE
  5
43EA7
  8
0
 10
250.49327786516841
 20
219.64615414739839
 30
0.0
 11
250.18773622254329
 21
219.82552289953321
 31
0.0
  0
LINE
  5
43EA8
  8
0
 10
233.68108160054649
 20
217.03581935195709
 30
0.0
 11
251.8906483001785
 21
214.4310966869545
 31
0.0
  0
LINE
  5
43EA9
  8
0
 10
247.9215238325643
 20
223.6021496727864
 30
0.0
 11
250.4655575260814
 21
223.25182632734521
 31
0.0
  0
LINE
  5
43EAA
  8
0
 10
247.47060554046499
 20
220.49170897867421
 30
0.0
 11
247.9215238325643
 21
223.6021496727864
 31
0.0
  0
LINE
  5
43EAB
  8
0
 10
250.12198514024311
 20
220.20457816929971
 30
0.0
 11
250.4655575260814
 21
223.25182632734521
 31
0.0
  0
LINE
  5
43EAC
  8
0
 10
247.47060554046499
 20
220.49170897867421
 30
0.0
 11
248.20855253301951
 21
217.50762619574039
 31
0.0
  0
LINE
  5
43EAD
  8
0
 10
250.12198514024311
 20
220.20457816929971
 30
0.0
 11
250.18773622254329
 21
219.82552289953321
 31
0.0
  0
ARC
  5
43EB0
  8
0
 10
310.95048305371643
 20
179.74368873142069
 30
0.0
 40
33.62675453236492
 50
126.0133783929477
 51
20.92122390974825
  0
ARC
  5
43EB1
  8
0
 10
310.95048305371643
 20
179.74368873142069
 30
0.0
 40
36.046930263761453
 50
131.01202420744559
 51
22.564220059647621
  0
ARC
  5
43EB2
  8
0
 10
310.95048305371643
 20
179.74368873142069
 30
0.0
 40
20.0
 50
130.29058598430939
 51
2.5864463115334599
  0
ARC
  5
43EB3
  8
0
 10
310.95048305371643
 20
179.74368873142069
 30
0.0
 40
31.999999999999989
 50
121.7883306170494
 51
19.66367284822266
  0
ARC
  5
43EB4
  8
0
 10
310.95048305371643
 20
179.74368873142069
 30
0.0
 40
40.0
 50
137.15635695640549
 51
24.790579075676671
  0
ARC
  5
43EB5
  8
0
 10
310.95048305371643
 20
179.74368873142069
 30
0.0
 40
23.994262491948579
 50
120.5349328357277
 51
10.58228860940455
  0
LINE
  5
43EB6
  8
1
 10
349.95048305371643
 20
261.74368873142072
 30
0.0
 11
349.95048305371643
 21
211.81480515326811
 31
0.0
  0
LINE
  5
43EB7
  8
1
 10
255.9504830537164
 20
179.74368873142069
 30
0.0
 11
365.95048305371643
 21
179.74368873142069
 31
0.0
  0
LINE
  5
43EB8
  8
1
 10
310.95048305371643
 20
124.7436887314207
 30
0.0
 11
310.95048305371643
 21
224.1177866939997
 31
0.0
  0
LINE
  5
43EC3
  8
0
 10
168.7645880227285
 20
214.43109668695431
 30
0.0
 11
130.7645880227285
 21
214.43109668695431
 31
0.0
  0
LINE
  5
43EC4
  8
0
 10
168.7645880227285
 20
214.43109668695431
 30
0.0
 11
168.7645880227285
 21
222.47301059176971
 31
0.0
  0
LINE
  5
43EC5
  8
0
 10
165.7645880227285
 20
222.47301059176971
 30
0.0
 11
165.7645880227285
 21
223.6021496727862
 31
0.0
  0
LINE
  5
43EC6
  8
0
 10
168.7645880227285
 20
222.47301059176971
 30
0.0
 11
130.7645880227285
 21
222.47301059176971
 31
0.0
  0
LINE
  5
43EC7
  8
0
 10
130.7645880227285
 20
214.43109668695431
 30
0.0
 11
130.7645880227285
 21
222.47301059176971
 31
0.0
  0
LINE
  5
43EC8
  8
0
 10
165.7645880227285
 20
223.6021496727862
 30
0.0
 11
133.7645880227285
 21
223.6021496727862
 31
0.0
  0
LINE
  5
43EC9
  8
0
 10
133.7645880227285
 20
222.47301059176971
 30
0.0
 11
133.7645880227285
 21
223.6021496727862
 31
0.0
  0
LINE
  5
43ECA
  8
0
 10
130.7645880227285
 20
217.0358193519578
 30
0.0
 11
168.7645880227285
 21
217.0358193519578
 31
0.0
  0
LINE
  5
43ECB
  8
1
 10
190.1645880227268
 20
179.7436887314208
 30
0.0
 11
109.3645880227257
 21
179.7436887314208
 31
0.0
  0
LINE
  5
43ECC
  8
1
 10
149.7645880227285
 20
261.74368873142078
 30
0.0
 11
149.7645880227285
 21
124.7436887314208
 31
0.0
  0
LINE
  5
43F0C
  8
0
 10
523.59370702115041
 20
216.2032792434058
 30
0.0
 11
523.59370702115041
 21
220.411201567256
 31
0.0
  0
LINE
  5
43F0D
  8
0
 10
485.59370702115052
 20
216.2032792434058
 30
0.0
 11
485.59370702115052
 21
220.41120156725651
 31
0.0
  0
LINE
  5
43F0F
  8
0
 10
485.59370702115052
 20
216.2032792434058
 30
0.0
 11
496.51744653869332
 21
216.2032792434058
 31
0.0
  0
LINE
  5
43F10
  8
0
 10
523.59370702115041
 20
216.2032792434058
 30
0.0
 11
512.66996750360772
 21
216.2032792434058
 31
0.0
  0
LINE
  5
43F11
  8
1
 10
310.9504830537166
 20
343.67567298692768
 30
0.0
 11
310.9504830537166
 21
424.47567298692883
 31
0.0
  0
LINE
  5
43F12
  8
1
 10
382.72548305371629
 20
361.57567298692828
 30
0.0
 11
392.1754830537152
 21
361.57567298692828
 31
0.0
  0
LINE
  5
43F13
  8
1
 10
387.4504830537166
 20
356.85067298692792
 30
0.0
 11
387.4504830537166
 21
366.30067298692859
 31
0.0
  0
LINE
  5
43F14
  8
1
 10
385.22548305371629
 20
354.07567298692828
 30
0.0
 11
394.6754830537152
 21
354.07567298692828
 31
0.0
  0
LINE
  5
43F15
  8
1
 10
389.9504830537166
 20
349.35067298692792
 30
0.0
 11
389.9504830537166
 21
358.80067298692859
 31
0.0
  0
LINE
  5
43F16
  8
1
 10
382.72548305371629
 20
406.57567298692823
 30
0.0
 11
392.1754830537152
 21
406.57567298692823
 31
0.0
  0
LINE
  5
43F17
  8
1
 10
387.4504830537166
 20
401.85067298692792
 30
0.0
 11
387.4504830537166
 21
411.30067298692859
 31
0.0
  0
LINE
  5
43F18
  8
1
 10
385.22548305371629
 20
414.07567298692823
 30
0.0
 11
394.6754830537152
 21
414.07567298692823
 31
0.0
  0
LINE
  5
43F19
  8
1
 10
389.9504830537166
 20
409.35067298692792
 30
0.0
 11
389.9504830537166
 21
418.80067298692859
 31
0.0
  0
LINE
  5
43F1A
  8
1
 10
305.22548305371629
 20
354.07567298692828
 30
0.0
 11
314.6754830537152
 21
354.07567298692828
 31
0.0
  0
LINE
  5
43F1B
  8
1
 10
309.95048305371671
 20
349.35067298692792
 30
0.0
 11
309.95048305371671
 21
358.80067298692859
 31
0.0
  0
LINE
  5
43F1C
  8
1
 10
307.72548305371629
 20
361.57567298692828
 30
0.0
 11
317.1754830537152
 21
361.57567298692828
 31
0.0
  0
LINE
  5
43F1D
  8
1
 10
312.4504830537166
 20
356.85067298692792
 30
0.0
 11
312.4504830537166
 21
366.30067298692859
 31
0.0
  0
LINE
  5
43F1E
  8
1
 10
305.22548305371629
 20
414.07567298692823
 30
0.0
 11
314.6754830537152
 21
414.07567298692823
 31
0.0
  0
LINE
  5
43F1F
  8
1
 10
309.95048305371671
 20
409.35067298692792
 30
0.0
 11
309.95048305371671
 21
418.80067298692859
 31
0.0
  0
LINE
  5
43F20
  8
1
 10
307.72548305371629
 20
406.57567298692823
 30
0.0
 11
317.1754830537152
 21
406.57567298692823
 31
0.0
  0
LINE
  5
43F21
  8
1
 10
312.4504830537166
 20
401.85067298692792
 30
0.0
 11
312.4504830537166
 21
411.30067298692859
 31
0.0
  0
LINE
  5
43F61
  8
0
 10
117.5315880227283
 20
183.7436887314208
 30
0.0
 11
119.7645880227285
 21
183.7436887314208
 31
0.0
  0
LINE
  5
43F62
  8
0
 10
119.7645880227286
 20
175.7436887314208
 30
0.0
 11
117.5315880227283
 21
175.7436887314208
 31
0.0
  0
LINE
  5
43F63
  8
0
 10
116.7645880227285
 20
182.97668873142089
 30
0.0
 11
117.5315880227283
 21
183.7436887314208
 31
0.0
  0
LINE
  5
43F64
  8
0
 10
117.5315880227283
 20
175.7436887314208
 30
0.0
 11
116.7645880227285
 21
176.5106887314206
 31
0.0
  0
LINE
  5
43F65
  8
0
 10
117.5315880227283
 20
175.7436887314208
 30
0.0
 11
117.5315880227283
 21
183.7436887314208
 31
0.0
  0
LINE
  5
43F66
  8
0
 10
116.7645880227285
 20
176.5106887314206
 30
0.0
 11
116.7645880227285
 21
182.97668873142089
 31
0.0
  0
LINE
  5
43F67
  8
3
 10
116.7645880227285
 20
176.5106887314206
 30
0.0
 11
119.7645880227285
 21
176.5106887314206
 31
0.0
  0
LINE
  5
43F68
  8
3
 10
116.7645880227285
 20
182.97668873142089
 30
0.0
 11
119.7645880227285
 21
182.97668873142101
 31
0.0
  0
LINE
  5
43F6A
  8
0
 10
536.8267070211507
 20
183.7436887314206
 30
0.0
 11
534.59370702115052
 21
183.7436887314206
 31
0.0
  0
LINE
  5
43F6B
  8
0
 10
534.59370702115052
 20
175.7436887314206
 30
0.0
 11
536.8267070211507
 21
175.7436887314206
 31
0.0
  0
LINE
  5
43F6C
  8
0
 10
537.59370702115052
 20
182.97668873142081
 30
0.0
 11
536.8267070211507
 21
183.7436887314206
 31
0.0
  0
LINE
  5
43F6D
  8
0
 10
536.8267070211507
 20
175.7436887314206
 30
0.0
 11
537.59370702115052
 21
176.5106887314204
 31
0.0
  0
LINE
  5
43F6E
  8
0
 10
536.8267070211507
 20
175.7436887314206
 30
0.0
 11
536.8267070211507
 21
183.7436887314206
 31
0.0
  0
LINE
  5
43F6F
  8
0
 10
537.59370702115052
 20
176.5106887314204
 30
0.0
 11
537.59370702115052
 21
182.97668873142081
 31
0.0
  0
LINE
  5
43F70
  8
3
 10
537.59370702115052
 20
176.5106887314204
 30
0.0
 11
534.59370702115052
 21
176.5106887314204
 31
0.0
  0
LINE
  5
43F71
  8
3
 10
537.59370702115052
 20
182.97668873142081
 30
0.0
 11
534.59370702115052
 21
182.97668873142081
 31
0.0
  0
LINE
  5
43F72
  8
0
 10
306.9504830537166
 20
413.8086729869284
 30
0.0
 11
306.9504830537166
 21
411.57567298692823
 31
0.0
  0
LINE
  5
43F73
  8
0
 10
314.9504830537166
 20
411.57567298692823
 30
0.0
 11
314.95048305371682
 21
413.30592245768509
 31
0.0
  0
LINE
  5
43F74
  8
0
 10
307.71748305371648
 20
414.57567298692823
 30
0.0
 11
306.9504830537166
 21
413.8086729869284
 31
0.0
  0
LINE
  5
43F75
  8
0
 10
314.69910778909542
 20
414.06004825154969
 30
0.0
 11
314.18348305371683
 21
414.57567298692823
 31
0.0
  0
LINE
  5
43F76
  8
0
 10
314.78289954396911
 20
413.8086729869284
 30
0.0
 11
306.9504830537166
 21
413.8086729869284
 31
0.0
  0
LINE
  5
43F77
  8
0
 10
314.18348305371683
 20
414.57567298692823
 30
0.0
 11
307.71748305371648
 21
414.57567298692823
 31
0.0
  0
LINE
  5
43F78
  8
3
 10
314.18348305371683
 20
414.57567298692823
 30
0.0
 11
314.18348305371683
 21
411.57567298692823
 31
0.0
  0
LINE
  5
43F79
  8
3
 10
307.71748305371648
 20
414.57567298692823
 30
0.0
 11
307.71748305371648
 21
411.57567298692823
 31
0.0
  0
LINE
  5
43F7F
  8
1
 10
544.99370702114879
 20
179.7436887314206
 30
0.0
 11
464.1937070211477
 21
179.7436887314206
 31
0.0
  0
LINE
  5
43F80
  8
1
 10
504.59370702115052
 20
261.74368873142072
 30
0.0
 11
504.59370702115052
 21
124.7436887314206
 31
0.0
  0
ARC
  5
43FC8
  8
0
 10
310.95048305371643
 20
179.74368873142069
 30
0.0
 40
11.20969869494502
 50
243.123287347466
 51
296.9449891627483
  0
ARC
  5
43FC9
  8
0
 10
310.95048305371643
 20
179.74368873142069
 30
0.0
 40
12.707642997079031
 50
226.7340917568024
 51
314.39873400738662
  0
ARC
  5
43FD1
  8
0
 10
310.95048305371643
 20
179.74368873142069
 30
0.0
 40
13.000000000000449
 50
223.2228554956703
 51
318.19495854469278
  0
TEXT
  5
4402D
  8
0
 62
     3
 10
0.0
 20
0.0
 30
0.0
 40
10.0
  1
CAE3-080SBF
  7
STANDARD1
  0
ENDSEC
  0
EOF
