  0
SECTION
  2
HEADER
  9
$ACADVER
  1
AC1009
  9
$INSBASE
 10
0.0
 20
0.0
 30
0.0
  9
$EXTMIN
 10
0.0
 20
-2.960436562073669
 30
0.0
  9
$EXTMAX
 10
579.99510027287215
 20
486.27251748446002
 30
0.0
  9
$LIMMIN
 10
0.0
 20
0.0
  9
$LIMMAX
 10
375.0
 20
270.0
  9
$ORTHOMODE
 70
     1
  9
$REGENMODE
 70
     1
  9
$FILLMODE
 70
     1
  9
$QTEXTMODE
 70
     0
  9
$MIRRTEXT
 70
     1
  9
$DRAGMODE
 70
     2
  9
$LTSCALE
 40
10.0
  9
$OSMODE
 70
    37
  9
$ATTMODE
 70
     1
  9
$TEXTSIZE
 40
5.0
  9
$TRACEWID
 40
0.05
  9
$TEXTSTYLE
  7
STANDARD
  9
$CLAYER
  8
0
  9
$CELTYPE
  6
BYLAYER
  9
$CECOLOR
 62
   256
  9
$DIMSCALE
 40
2.0
  9
$DIMASZ
 40
3.0
  9
$DIMEXO
 40
2.0
  9
$DIMDLI
 40
0.38
  9
$DIMRND
 40
0.0
  9
$DIMDLE
 40
0.0
  9
$DIMEXE
 40
2.0
  9
$DIMTP
 40
0.0
  9
$DIMTM
 40
0.0
  9
$DIMTXT
 40
3.2000000000000002
  9
$DIMCEN
 40
0.0
  9
$DIMTSZ
 40
0.0
  9
$DIMTOL
 70
     0
  9
$DIMLIM
 70
     0
  9
$DIMTIH
 70
     0
  9
$DIMTOH
 70
     0
  9
$DIMSE1
 70
     0
  9
$DIMSE2
 70
     0
  9
$DIMTAD
 70
     1
  9
$DIMZIN
 70
     8
  9
$DIMBLK
  1

  9
$DIMASO
 70
     0
  9
$DIMSHO
 70
     0
  9
$DIMPOST
  1

  9
$DIMAPOST
  1

  9
$DIMALT
 70
     0
  9
$DIMALTD
 70
     2
  9
$DIMALTF
 40
25.399999999999999
  9
$DIMLFAC
 40
1.0
  9
$DIMTOFL
 70
     0
  9
$DIMTVP
 40
1.6000000000000001
  9
$DIMTIX
 70
     1
  9
$DIMSOXD
 70
     0
  9
$DIMSAH
 70
     0
  9
$DIMBLK1
  1

  9
$DIMBLK2
  1

  9
$DIMSTYLE
  2
STANDARD
  9
$DIMCLRD
 70
     0
  9
$DIMCLRE
 70
     0
  9
$DIMCLRT
 70
     0
  9
$DIMTFAC
 40
1.0
  9
$DIMGAP
 40
1.1999999999999991
  9
$LUNITS
 70
     2
  9
$LUPREC
 70
     4
  9
$SKETCHINC
 40
0.1
  9
$FILLETRAD
 40
0.0
  9
$AUNITS
 70
     0
  9
$AUPREC
 70
     4
  9
$MENU
  1
ACAD
  9
$ELEVATION
 40
0.0
  9
$PELEVATION
 40
0.0
  9
$THICKNESS
 40
0.0
  9
$LIMCHECK
 70
     0
  9
$BLIPMODE
 70
     0
  9
$CHAMFERA
 40
0.0
  9
$CHAMFERB
 40
0.0
  9
$SKPOLY
 70
     0
  9
$TDCREATE
 40
2448055.7149187499
  9
$TDUPDATE
 40
2459565.484871319
  9
$TDINDWG
 40
4.8207179744999999
  9
$TDUSRTIMER
 40
4.8207179744999999
  9
$USRTIMER
 70
     1
  9
$ANGBASE
 50
0.0
  9
$ANGDIR
 70
     0
  9
$PDMODE
 70
     0
  9
$PDSIZE
 40
0.0
  9
$PLINEWID
 40
0.0
  9
$COORDS
 70
     1
  9
$SPLFRAME
 70
     0
  9
$SPLINETYPE
 70
     6
  9
$SPLINESEGS
 70
     8
  9
$ATTDIA
 70
     0
  9
$ATTREQ
 70
     1
  9
$HANDLING
 70
     1
  9
$HANDSEED
  5
4580C
  9
$SURFTAB1
 70
     6
  9
$SURFTAB2
 70
     6
  9
$SURFTYPE
 70
     6
  9
$SURFU
 70
     6
  9
$SURFV
 70
     6
  9
$UCSNAME
  2

  9
$UCSORG
 10
0.0
 20
0.0
 30
0.0
  9
$UCSXDIR
 10
1.0
 20
0.0
 30
0.0
  9
$UCSYDIR
 10
0.0
 20
1.0
 30
0.0
  9
$PUCSNAME
  2

  9
$PUCSORG
 10
0.0
 20
0.0
 30
0.0
  9
$PUCSXDIR
 10
1.0
 20
0.0
 30
0.0
  9
$PUCSYDIR
 10
0.0
 20
1.0
 30
0.0
  9
$USERI1
 70
     0
  9
$USERI2
 70
     0
  9
$USERI3
 70
     0
  9
$USERI4
 70
     0
  9
$USERI5
 70
     0
  9
$USERR1
 40
0.0
  9
$USERR2
 40
0.0
  9
$USERR3
 40
0.0
  9
$USERR4
 40
0.0
  9
$USERR5
 40
0.0
  9
$WORLDVIEW
 70
     1
  9
$SHADEDGE
 70
     3
  9
$SHADEDIF
 70
    70
  9
$TILEMODE
 70
     1
  9
$MAXACTVP
 70
    16
  9
$PLIMCHECK
 70
     0
  9
$PEXTMIN
 10
1.0000000000000000E+020
 20
1.0000000000000000E+020
 30
1.0000000000000000E+020
  9
$PEXTMAX
 10
-1.0000000000000000E+020
 20
-1.0000000000000000E+020
 30
-1.0000000000000000E+020
  9
$PLIMMIN
 10
0.0
 20
0.0
  9
$PLIMMAX
 10
12.0
 20
9.0
  9
$UNITMODE
 70
     0
  9
$VISRETAIN
 70
     0
  9
$PLINEGEN
 70
     1
  9
$PSLTSCALE
 70
     0
  0
ENDSEC
  0
SECTION
  2
TABLES
  0
TABLE
  2
VPORT
 70
     1
  0
VPORT
  2
*ACTIVE
 70
     0
 10
0.0
 20
0.0
 11
1.0
 21
1.0
 12
517.87361392579578
 22
241.6522773360042
 13
0.0
 23
0.0
 14
5.0
 24
5.0
 15
10.0
 25
10.0
 16
0.0
 26
0.0
 36
1.0
 17
0.0
 27
0.0
 37
0.0
 40
493.6667543940016
 41
2.3805970149253728
 42
50.0
 43
0.0
 44
0.0
 50
0.0
 51
0.0
 71
     0
 72
   500
 73
     1
 74
     1
 75
     0
 76
     0
 77
     0
 78
     2
  0
ENDTAB
  0
TABLE
  2
LTYPE
 70
     4
  0
LTYPE
  2
CONTINUOUS
 70
     0
  3
実線
 72
    65
 73
     0
 40
0.0
  0
LTYPE
  2
CENTER
 70
     0
  3
____ _ ____ _ ____ _ ____ _ ____ _ ____ _ ____
 72
    65
 73
     4
 40
2.0
 49
1.25
 49
-0.25
 49
0.25
 49
-0.25
  0
LTYPE
  2
HIDDEN
 70
     0
  3
_ _ _ _ _ _ _ _ _ _ _ _ _ _ _ _ _ _ _ _ _ _ _
 72
    65
 73
     2
 40
0.375
 49
0.25
 49
-0.125
  0
LTYPE
  2
PHANTOM2
 70
     0
  3
___ _ _ ___ _ _ ___ _ _ ___ _ _
 72
    65
 73
     6
 40
1.25
 49
0.625
 49
-0.125
 49
0.125
 49
-0.125
 49
0.125
 49
-0.125
  0
ENDTAB
  0
TABLE
  2
LAYER
 70
     5
  0
LAYER
  2
0
 70
     0
 62
     7
  6
CONTINUOUS
  0
LAYER
  2
1
 70
     0
 62
     1
  6
CENTER
  0
LAYER
  2
2
 70
     0
 62
     2
  6
HIDDEN
  0
LAYER
  2
DEFPOINTS
 70
     0
 62
     7
  6
CONTINUOUS
  0
LAYER
  2
3
 70
     0
 62
     3
  6
CONTINUOUS
  0
ENDTAB
  0
TABLE
  2
STYLE
 70
     3
  0
STYLE
  2
STANDARD
 70
     0
 40
0.0
 41
1.0
 50
0.0
 71
     0
 42
5.0
  3
simplex.shx
  4
bigfont.shx
  0
STYLE
  2
07500
 70
     0
 40
0.0
 41
0.75
 50
0.0
 71
     0
 42
0.2
  3
simplex.shx
  4
bigfont.shx
  0
STYLE
  2
STANDARD1
 70
     0
 40
0.0
 41
1.0
 50
0.0
 71
     0
 42
3.0
  3
txt
  4

  0
ENDTAB
  0
TABLE
  2
VIEW
 70
     2
  0
VIEW
  2
ALL
 70
     0
 40
270.0
 10
220.99159663865549
 20
135.0
 41
0.0
 11
0.0
 21
0.0
 31
1.0
 12
0.0
 22
0.0
 32
0.0
 42
0.0
 43
0.0
 44
0.0
 50
0.0
 71
     0
  0
VIEW
  2
OLE1
 70
     0
 40
168.2487151179721
 10
2892.3009567448912
 20
702.51600084347126
 41
162.5749581879237
 11
0.0
 21
0.0
 31
1.0
 12
0.0
 22
0.0
 32
0.0
 42
50.0
 43
0.0
 44
0.0
 50
0.0
 71
     0
  0
ENDTAB
  0
TABLE
  2
UCS
 70
     0
  0
ENDTAB
  0
TABLE
  2
APPID
 70
    48
  0
APPID
  2
ACAD
 70
     0
  0
APPID
  2
DCO15
 70
     0
  0
APPID
  2
GENIUS_GENOREF_13
 70
     0
  0
APPID
  2
GENIUS_GENOENT_13
 70
     0
  0
APPID
  2
GENIUS_GENBH_13
 70
     0
  0
APPID
  2
GENIUS_GENOBJ_13
 70
     0
  0
APPID
  2
GENIUS_GENODEF_13
 70
     0
  0
APPID
  2
GENIUS_GENOLIS_13
 70
     0
  0
APPID
  2
GENIUS_GENOBJ-NBEHI-BHF_13
 70
     0
  0
APPID
  2
GENIUS_GENOBJ-NBEHI-BHB_13
 70
     0
  0
APPID
  2
GENIUS_GENOBJ-F-PART_13
 70
     0
  0
APPID
  2
GENIUS_GEFSTDP_13
 70
     0
  0
APPID
  2
GENIUS_GENOBJ-N-RSSYM_13
 70
     0
  0
APPID
  2
GENIUS_GENSYMENT_13
 70
     0
  0
APPID
  2
GENIUS_GENOBJ-N-TIT_13
 70
     0
  0
APPID
  2
GENIUS_GENTITLE_13
 70
     0
  0
APPID
  2
GENIUS_GENZVEED_13
 70
     0
  0
APPID
  2
GENIUS_GENOBJ-N-LEADER_13
 70
     0
  0
APPID
  2
GENIUS_GENOBJ-N-FIL_13
 70
     0
  0
APPID
  2
GENIUS_GENOBJ-N-SEC_13
 70
     0
  0
APPID
  2
GENIUS_GENOBJ-N-CRS_13
 70
     0
  0
APPID
  2
GENIUS_GENOBJ-N-ZOO_13
 70
     0
  0
APPID
  2
GENIUS_GENZOO_13
 70
     0
  0
APPID
  2
GENIUS_GENOBJ-F-TOL_13
 70
     0
  0
APPID
  2
GENIUS_GENFIL_13
 70
     0
  0
APPID
  2
GENIUS_GENOBJ-N-CHA_13
 70
     0
  0
APPID
  2
_CALL_MAC$
 70
     0
  0
APPID
  2
ASM_BASE
 70
     0
  0
APPID
  2
ASM_EXPLO_VER_2_00
 70
     0
  0
APPID
  2
ASM_CADM_VER_12_00
 70
     0
  0
APPID
  2
ASM_BASEFORO
 70
     0
  0
APPID
  2
ASM_BASETRAVI
 70
     0
  0
APPID
  2
ASM_BASETRAVI1
 70
     0
  0
APPID
  2
ASM_GRUPPI
 70
     0
  0
APPID
  2
ASM_CADM_ALBERO
 70
     0
  0
APPID
  2
ASM_GOLE
 70
     0
  0
APPID
  2
ACAD_MLEADERVER
 70
     0
  0
APPID
  2
ACAD_DSTYLE_DIMJAG
 70
     0
  0
APPID
  2
ACAD_DSTYLE_DIMTALN
 70
     0
  0
APPID
  2
ACAD_EXEMPT_FROM_CAD_STANDARDS
 70
     0
  0
APPID
  2
ACAD_DSTYLE_DIMRADIAL_EXTENSION
 70
     0
  0
APPID
  2
ACAD_PSEXT
 70
     0
  0
APPID
  2
ACAD_DSTYLE_DIMBREAK
 70
     0
  0
APPID
  2
ACAECLAYERSTANDARD
 70
     0
  0
APPID
  2
ACCMTRANSPARENCY
 70
     0
  0
APPID
  2
GRADIENTCOLOR1ACI
 70
     0
  0
APPID
  2
GRADIENTCOLOR2ACI
 70
     0
  0
APPID
  2
ACAD_NAV_VCDISPLAY
 70
     0
  0
ENDTAB
  0
TABLE
  2
DIMSTYLE
 70
     1
  0
DIMSTYLE
  2
STANDARD
 70
     0
  3

  4

  5

  6

  7

 40
1.0
 41
0.18
 42
0.0625
 43
0.38
 44
0.18
 45
0.0
 46
0.0
 47
0.0
 48
0.0
140
0.18
141
0.09
142
0.0
143
25.399999999999999
144
1.0
145
0.0
146
1.0
147
0.09
 71
     0
 72
     0
 73
     1
 74
     1
 75
     0
 76
     0
 77
     0
 78
     0
170
     0
171
     2
172
     0
173
     0
174
     0
175
     0
176
     0
177
     0
178
     0
  0
ENDTAB
  0
ENDSEC
  0
SECTION
  2
BLOCKS
  0
BLOCK
  8
0
  2
$MODEL_SPACE
 70
     0
 10
0.0
 20
0.0
 30
0.0
  3
$MODEL_SPACE
  1

  0
ENDBLK
  5
36
  8
0
  0
BLOCK
 67
     1
  8
0
  2
$PAPER_SPACE
 70
     0
 10
0.0
 20
0.0
 30
0.0
  3
$PAPER_SPACE
  1

  0
ENDBLK
  5
34
 67
     1
  8
0
  0
ENDSEC
  0
SECTION
  2
ENTITIES
  0
ARC
  5
44EF5
  8
0
 10
330.73775161227672
 20
284.94368873141917
 30
0.0
 40
4.0000000000006253
 50
90.000000000006509
 51
179.99999999999019
  0
ARC
  5
44EF6
  8
0
 10
395.73775161227542
 20
284.94368873141917
 30
0.0
 40
4.0000000000006253
 50
0.0000000000065138
 51
89.999999999993491
  0
LINE
  5
44EF7
  8
0
 10
326.73775161227599
 20
284.94368873141991
 30
0.0
 11
326.73775161227599
 21
283.94368873141991
 31
0.0
  0
LINE
  5
44EF8
  8
0
 10
399.7377516122761
 20
283.94368873141991
 30
0.0
 11
399.7377516122761
 21
284.94368873141991
 31
0.0
  0
LINE
  5
44EF9
  8
0
 10
330.23775161227599
 20
283.94368873141991
 30
0.0
 11
330.23775161227599
 21
281.9436887314198
 31
0.0
  0
LINE
  5
44EFA
  8
0
 10
396.23775161227599
 20
279.9436887314198
 30
0.0
 11
396.23775161227599
 21
283.94368873141991
 31
0.0
  0
ARC
  5
44EFB
  8
0
 10
335.21275161227481
 20
289.44368873142099
 30
0.0
 40
2.9999999999988058
 50
89.999999999986969
 51
180.00000000002279
  0
ARC
  5
44EFC
  8
0
 10
391.26275161227733
 20
289.44368873142099
 30
0.0
 40
2.9999999999988058
 50
359.99999999997721
 51
90.000000000013031
  0
LINE
  5
44EFD
  8
0
 10
332.21275161227601
 20
289.44368873141991
 30
0.0
 11
332.21275161227601
 21
288.94368873141991
 31
0.0
  0
LINE
  5
44EFE
  8
0
 10
394.26275161227608
 20
288.94368873141991
 30
0.0
 11
394.26275161227608
 21
289.44368873141991
 31
0.0
  0
LINE
  5
44EFF
  8
0
 10
352.2377516122761
 20
295.74368873141981
 30
0.0
 11
352.2377516122761
 21
292.44368873141991
 31
0.0
  0
LINE
  5
44F00
  8
0
 10
374.23775161227599
 20
292.44368873141991
 30
0.0
 11
374.23775161227599
 21
295.74368873141981
 31
0.0
  0
LINE
  5
44F05
  8
0
 10
330.73775161227672
 20
288.9436887314198
 30
0.0
 11
395.7377516122761
 21
288.94368873141991
 31
0.0
  0
LINE
  5
44F07
  8
0
 10
326.73775161227599
 20
283.94368873141991
 30
0.0
 11
399.7377516122761
 21
283.94368873141991
 31
0.0
  0
LINE
  5
44F09
  8
0
 10
341.92270409571529
 20
196.77571039494299
 30
0.0
 11
341.13006064284201
 21
195.72114699994481
 31
0.0
  0
LINE
  5
44F0A
  8
0
 10
341.13006064284201
 20
281.9436887314198
 30
0.0
 11
341.13006064284201
 21
195.72114699994481
 31
0.0
  0
LINE
  5
44F0B
  8
0
 10
396.23775161227599
 20
279.9436887314198
 30
0.0
 11
341.92270409571529
 21
196.77571039494299
 31
0.0
  0
LINE
  5
44F0C
  8
0
 10
335.21275161227481
 20
292.44368873141991
 30
0.0
 11
391.26275161227608
 21
292.44368873141991
 31
0.0
  0
LINE
  5
44F0E
  8
0
 10
321.28755572999239
 20
192.24368873141981
 30
0.0
 11
333.55005738682809
 21
192.24368873141981
 31
0.0
  0
LINE
  5
44F0F
  8
0
 10
269.23775161227599
 20
255.9436887314198
 30
0.0
 11
319.84382572047821
 21
255.94368873141971
 31
0.0
  0
LINE
  5
44F10
  8
0
 10
265.75441211067118
 20
268.9436887314198
 30
0.0
 11
269.23775161227599
 21
255.9436887314198
 31
0.0
  0
ARC
  5
44F11
  8
0
 10
321.28755572999239
 20
202.26549027762741
 30
0.0
 40
10.02180154620771
 50
170.78424212497549
 51
270.0
  0
LINE
  5
44F12
  8
0
 10
341.13006064284201
 20
281.9436887314198
 30
0.0
 11
314.27107260906701
 21
281.9436887314198
 31
0.0
  0
LINE
  5
44F13
  8
0
 10
319.84382572047821
 20
255.94368873141971
 30
0.0
 11
311.39511303127529
 21
203.87050855919671
 31
0.0
  0
LINE
  5
44F14
  8
0
 10
314.27107260906701
 20
281.9436887314198
 30
0.0
 11
265.75441211067118
 21
268.9436887314198
 31
0.0
  0
ARC
  5
44F15
  8
0
 10
333.55005738682809
 20
202.2436887314216
 30
0.0
 40
10.000000000001929
 50
270.0
 51
319.2882267391638
  0
LINE
  5
44F17
  8
0
 10
352.2377516122761
 20
295.74368873141981
 30
0.0
 11
374.23775161227599
 21
295.74368873141981
 31
0.0
  0
CIRCLE
  5
44F20
  8
0
 10
326.23775161227599
 20
202.24368873141981
 30
0.0
 40
6.2583333333332121
  0
LINE
  5
44F21
  8
0
 10
322.4849748625436
 20
195.74368873141981
 30
0.0
 11
329.99052836200872
 21
195.74368873141981
 31
0.0
  0
LINE
  5
44F22
  8
0
 10
318.73219811281092
 20
202.24368873141981
 30
0.0
 11
322.4849748625436
 21
195.74368873141981
 31
0.0
  0
LINE
  5
44F23
  8
0
 10
322.4849748625436
 20
208.74368873141981
 30
0.0
 11
318.73219811281092
 21
202.24368873141981
 31
0.0
  0
LINE
  5
44F24
  8
0
 10
329.99052836200872
 20
208.74368873141981
 30
0.0
 11
322.4849748625436
 21
208.74368873141981
 31
0.0
  0
LINE
  5
44F25
  8
0
 10
333.74330511174111
 20
202.24368873141981
 30
0.0
 11
329.99052836200872
 21
208.74368873141981
 31
0.0
  0
LINE
  5
44F26
  8
0
 10
329.99052836200872
 20
195.74368873141981
 30
0.0
 11
333.74330511174111
 21
202.24368873141981
 31
0.0
  0
ARC
  5
44F46
  8
0
 10
507.34510027287291
 20
284.94368873141917
 30
0.0
 40
4.0000000000006324
 50
90.000000000006509
 51
179.99999999999019
  0
ARC
  5
44F47
  8
0
 10
572.34510027287149
 20
284.94368873141917
 30
0.0
 40
4.0000000000006528
 50
0.0000000000065138
 51
89.999999999993491
  0
LINE
  5
44F48
  8
0
 10
503.34510027287229
 20
284.94368873141991
 30
0.0
 11
503.34510027287229
 21
283.94368873141991
 31
0.0
  0
LINE
  5
44F49
  8
0
 10
576.34510027287217
 20
283.94368873141991
 30
0.0
 11
576.34510027287217
 21
284.94368873141991
 31
0.0
  0
LINE
  5
44F4A
  8
0
 10
506.84510027287217
 20
283.94368873141991
 30
0.0
 11
506.84510027287217
 21
229.41361630044369
 31
0.0
  0
LINE
  5
44F4B
  8
0
 10
572.84510027287217
 20
229.41361630044349
 30
0.0
 11
572.84510027287217
 21
283.94368873141991
 31
0.0
  0
ARC
  5
44F4C
  8
0
 10
511.820100272871
 20
289.44368873142099
 30
0.0
 40
2.9999999999988058
 50
89.999999999986969
 51
180.00000000002279
  0
ARC
  5
44F4D
  8
0
 10
567.87010027287351
 20
289.44368873142099
 30
0.0
 40
2.9999999999988058
 50
359.99999999997721
 51
90.000000000013031
  0
LINE
  5
44F4E
  8
0
 10
508.82010027287242
 20
289.44368873141991
 30
0.0
 11
508.82010027287242
 21
288.94368873141991
 31
0.0
  0
LINE
  5
44F4F
  8
0
 10
570.87010027287226
 20
288.94368873141991
 30
0.0
 11
570.87010027287226
 21
289.44368873141991
 31
0.0
  0
LINE
  5
44F52
  8
0
 10
569.7793140706616
 20
195.73983794899871
 30
0.0
 11
569.84510027287251
 21
195.9853553980866
 31
0.0
  0
LINE
  5
44F53
  8
0
 10
509.84510027287251
 20
195.9853553980866
 30
0.0
 11
509.90985466104331
 21
195.74368873141981
 31
0.0
  0
LINE
  5
44F54
  8
0
 10
517.3451002728724
 20
194.74368873141981
 30
0.0
 11
517.84510027287251
 21
194.74368873141981
 31
0.0
  0
LINE
  5
44F55
  8
0
 10
561.84510027287251
 20
194.74368873141981
 30
0.0
 11
562.34510027287251
 21
194.74368873141981
 31
0.0
  0
LINE
  5
44F56
  8
0
 10
562.34510027287251
 20
209.74368873141981
 30
0.0
 11
561.84510027287251
 21
209.74368873141981
 31
0.0
  0
LINE
  5
44F57
  8
0
 10
517.84510027287251
 20
209.74368873141981
 30
0.0
 11
517.3451002728724
 21
209.74368873141981
 31
0.0
  0
LINE
  5
44F58
  8
0
 10
569.84510027287251
 20
196.4286887314197
 30
0.0
 11
572.34510027287251
 21
196.4286887314197
 31
0.0
  0
LINE
  5
44F59
  8
0
 10
572.34510027287251
 20
208.05868873141989
 30
0.0
 11
569.84510027287251
 21
208.05868873141989
 31
0.0
  0
ARC
  5
44F5C
  8
0
 10
549.52361687273219
 20
140.7436887314224
 30
0.0
 40
1.0000000000026139
 50
270.0
 51
341.00000000000131
  0
ARC
  5
44F5D
  8
0
 10
549.52361687273219
 20
263.74368873141719
 30
0.0
 40
1.0000000000026039
 50
19.000000000002188
 51
90.0
  0
LINE
  5
44F5E
  8
0
 10
545.8451002728724
 20
139.74368873141981
 30
0.0
 11
549.52361687273219
 21
139.74368873141981
 31
0.0
  0
LINE
  5
44F5F
  8
0
 10
549.52361687273219
 20
264.74368873141992
 30
0.0
 11
545.8451002728724
 21
264.74368873141992
 31
0.0
  0
ARC
  5
44F60
  8
0
 10
545.84510027287229
 20
140.04368873141959
 30
0.0
 40
0.2999999999998692
 50
179.99999999997721
 51
270.00000000001961
  0
ARC
  5
44F61
  8
0
 10
545.84510027287229
 20
264.44368873141991
 30
0.0
 40
0.2999999999998692
 50
89.99999999998046
 51
180.00000000000981
  0
ARC
  5
44F62
  8
0
 10
542.84510027287251
 20
140.04368873141959
 30
0.0
 40
0.2999999999998835
 50
269.99999999997391
 51
0.0000000000195413
  0
ARC
  5
44F63
  8
0
 10
542.84510027287251
 20
264.44368873141991
 30
0.0
 40
0.2999999999998835
 50
359.99999999999022
 51
90.000000000026048
  0
LINE
  5
44F64
  8
0
 10
536.84510027287251
 20
139.74368873141981
 30
0.0
 11
542.84510027287251
 21
139.74368873141981
 31
0.0
  0
LINE
  5
44F65
  8
0
 10
542.84510027287251
 20
264.74368873141992
 30
0.0
 11
536.84510027287251
 21
264.74368873141992
 31
0.0
  0
ARC
  5
44F66
  8
0
 10
536.84510027287229
 20
140.04368873141959
 30
0.0
 40
0.2999999999998835
 50
179.99999999997721
 51
270.00000000002598
  0
ARC
  5
44F67
  8
0
 10
536.84510027287229
 20
264.44368873141991
 30
0.0
 40
0.2999999999998835
 50
89.999999999973952
 51
180.00000000000981
  0
ARC
  5
44F68
  8
0
 10
533.8451002728724
 20
140.04368873141959
 30
0.0
 40
0.2999999999998835
 50
269.99999999998039
 51
0.0000000000195413
  0
ARC
  5
44F69
  8
0
 10
533.8451002728724
 20
264.44368873141991
 30
0.0
 40
0.2999999999998835
 50
359.99999999999022
 51
90.000000000019526
  0
LINE
  5
44F6A
  8
0
 10
530.1665836730125
 20
139.74368873141981
 30
0.0
 11
533.8451002728724
 21
139.74368873141981
 31
0.0
  0
LINE
  5
44F6B
  8
0
 10
533.8451002728724
 20
264.74368873141992
 30
0.0
 11
530.1665836730125
 21
264.74368873141992
 31
0.0
  0
ARC
  5
44F6C
  8
0
 10
530.1665836730125
 20
140.7436887314224
 30
0.0
 40
1.0000000000026139
 50
199.0000000000021
 51
270.0
  0
ARC
  5
44F6D
  8
0
 10
530.1665836730125
 20
263.74368873141719
 30
0.0
 40
1.0000000000026039
 50
90.0
 51
160.99999999999781
  0
LINE
  5
44F6E
  8
0
 10
543.14510027287236
 20
140.04368873141971
 30
0.0
 11
545.54510027287233
 21
140.04368873141971
 31
0.0
  0
LINE
  5
44F6F
  8
0
 10
545.54510027287233
 20
264.44368873141991
 30
0.0
 11
543.14510027287236
 21
264.44368873141991
 31
0.0
  0
LINE
  5
44F70
  8
0
 10
534.14510027287236
 20
140.04368873141971
 30
0.0
 11
536.54510027287233
 21
140.04368873141971
 31
0.0
  0
LINE
  5
44F71
  8
0
 10
536.54510027287233
 20
264.44368873141991
 30
0.0
 11
534.14510027287236
 21
264.44368873141991
 31
0.0
  0
LINE
  5
44F72
  8
0
 10
550.46913544833376
 20
140.41812057696441
 30
0.0
 11
551.84422750021713
 21
144.4116778718487
 31
0.0
  0
LINE
  5
44F73
  8
0
 10
551.84422750021713
 20
260.07569959099089
 30
0.0
 11
550.46913544833376
 21
264.06925688587529
 31
0.0
  0
LINE
  5
44F74
  8
0
 10
529.22106509741093
 20
264.06925688587529
 30
0.0
 11
527.8459730455279
 21
260.07569959099089
 31
0.0
  0
LINE
  5
44F75
  8
0
 10
527.8459730455279
 20
144.4116778718487
 30
0.0
 11
529.22106509741093
 21
140.41812057696441
 31
0.0
  0
ARC
  5
44F76
  8
0
 10
549.00767177343164
 20
145.38838233521591
 30
0.0
 40
2.999999999986819
 50
341.00000000000131
 51
0.0
  0
ARC
  5
44F77
  8
0
 10
549.00767177343164
 20
259.0989951276236
 30
0.0
 40
2.9999999999868292
 50
0.0
 51
19.000000000002188
  0
ARC
  5
44F78
  8
0
 10
530.68252877231305
 20
145.38838233521591
 30
0.0
 40
2.9999999999867981
 50
180.0
 51
199.0000000000021
  0
ARC
  5
44F79
  8
0
 10
530.68252877231305
 20
259.0989951276236
 30
0.0
 40
2.9999999999868021
 50
160.99999999999781
 51
180.0
  0
ARC
  5
44F7A
  8
0
 10
552.64100510675189
 20
146.72568806383629
 30
0.0
 40
0.6333333333334963
 50
180.0000000000195
 51
359.9999999999805
  0
ARC
  5
44F7B
  8
0
 10
552.64100510675189
 20
257.76168939900327
 30
0.0
 40
0.6333333333334963
 50
0.0000000000260551
 51
179.99999999997391
  0
ARC
  5
44F7C
  8
0
 10
527.04919543899291
 20
146.72568806383629
 30
0.0
 40
0.6333333333334963
 50
180.0000000000195
 51
359.9999999999805
  0
ARC
  5
44F7D
  8
0
 10
527.04919543899291
 20
257.76168939900327
 30
0.0
 40
0.6333333333334963
 50
0.0000000000260551
 51
179.99999999997391
  0
ARC
  5
44F7E
  8
0
 10
553.9076717734182
 20
150.40435517555781
 30
0.0
 40
0.6333333333329989
 50
180.0
 51
0.0
  0
ARC
  5
44F7F
  8
0
 10
553.9076717734182
 20
254.08302228728169
 30
0.0
 40
0.6333333333329989
 50
0.0
 51
180.0
  0
ARC
  5
44F80
  8
0
 10
525.78252877232649
 20
150.40435517555781
 30
0.0
 40
0.6333333333329989
 50
180.0
 51
0.0
  0
ARC
  5
44F81
  8
0
 10
525.78252877232649
 20
254.08302228728169
 30
0.0
 40
0.6333333333329989
 50
0.0
 51
180.0
  0
LINE
  5
44F82
  8
0
 10
554.54100510675153
 20
152.24368873141981
 30
0.0
 11
558.43165599967165
 21
163.54295937587759
 31
0.0
  0
LINE
  5
44F83
  8
0
 10
558.43165599967165
 20
240.94441808696189
 30
0.0
 11
554.54100510675096
 21
252.2436887314208
 31
0.0
  0
LINE
  5
44F84
  8
0
 10
525.14919543899339
 20
252.24368873141981
 30
0.0
 11
521.25854454607315
 21
240.94441808696189
 31
0.0
  0
LINE
  5
44F85
  8
0
 10
521.25854454607315
 20
163.54295937587759
 30
0.0
 11
525.14919543899339
 21
152.24368873141981
 31
0.0
  0
ARC
  5
44F86
  8
0
 10
555.59510027289718
 20
164.51966383924099
 30
0.0
 40
2.9999999999750449
 50
341.00000000000131
 51
0.0
  0
ARC
  5
44F87
  8
0
 10
555.59510027289718
 20
239.96771362359851
 30
0.0
 40
2.9999999999750449
 50
0.0
 51
18.9999999999987
  0
ARC
  5
44F88
  8
0
 10
524.0951002728475
 20
164.51966383924099
 30
0.0
 40
2.9999999999749738
 50
180.0
 51
199.0000000000021
  0
ARC
  5
44F89
  8
0
 10
524.0951002728475
 20
239.9677136235986
 30
0.0
 40
2.9999999999749738
 50
161.00000000000119
 51
180.0
  0
LINE
  5
44F8A
  8
0
 10
558.59510027287217
 20
189.23058678659851
 30
0.0
 11
560.4236042072348
 21
189.32641461720871
 31
0.0
  0
LINE
  5
44F8B
  8
0
 10
560.4236042072348
 20
215.16096284563071
 30
0.0
 11
558.59510027287217
 21
215.256790676241
 31
0.0
  0
LINE
  5
44F8C
  8
0
 10
521.09510027287217
 20
215.25679067624091
 30
0.0
 11
519.26659633851023
 21
215.16096284563071
 31
0.0
  0
LINE
  5
44F8D
  8
0
 10
519.26659633851023
 20
189.32641461720871
 30
0.0
 11
521.09510027287217
 21
189.23058678659851
 31
0.0
  0
ARC
  5
44F8E
  8
0
 10
560.34510027287024
 20
190.82435891934281
 30
0.0
 40
1.5000000000022411
 50
272.99999999999909
 51
0.0
  0
ARC
  5
44F8F
  8
0
 10
560.34510027287024
 20
213.6630185434968
 30
0.0
 40
1.500000000002188
 50
0.0
 51
87.000000000000924
  0
ARC
  5
44F90
  8
0
 10
519.34510027287445
 20
190.82435891934281
 30
0.0
 40
1.5000000000022411
 50
180.0
 51
267.00000000000091
  0
ARC
  5
44F91
  8
0
 10
519.34510027287445
 20
213.6630185434968
 30
0.0
 40
1.500000000002188
 50
92.999999999999076
 51
180.0
  0
LINE
  5
44F92
  8
0
 10
507.34510027287229
 20
288.94368873141991
 30
0.0
 11
572.34510027287217
 21
288.94368873141991
 31
0.0
  0
LINE
  5
44F93
  8
0
 10
503.34510027287229
 20
283.94368873141991
 30
0.0
 11
576.34510027287217
 21
283.94368873141991
 31
0.0
  0
POLYLINE
  5
44F94
  8
0
 10
565.03773311199348
 20
196.77571039494359
 30
0.0
 66
     1
 70
     8
  0
VERTEX
  8
0
  5
45500
 10
565.038
 20
196.776
 30
0.000000
  70
    32
  0
VERTEX
  8
0
  5
45501
 10
565.779
 20
198.166
 30
0.000000
  70
    32
  0
VERTEX
  8
0
  5
45502
 10
566.487
 20
199.596
 30
0.000000
  70
    32
  0
VERTEX
  8
0
  5
45503
 10
567.162
 20
201.063
 30
0.000000
  70
    32
  0
VERTEX
  8
0
  5
45504
 10
567.802
 20
202.566
 30
0.000000
  70
    32
  0
VERTEX
  8
0
  5
45505
 10
568.407
 20
204.103
 30
0.000000
  70
    32
  0
VERTEX
  8
0
  5
45506
 10
568.976
 20
205.672
 30
0.000000
  70
    32
  0
VERTEX
  8
0
  5
45507
 10
569.508
 20
207.271
 30
0.000000
  70
    32
  0
VERTEX
  8
0
  5
45508
 10
570.003
 20
208.898
 30
0.000000
  70
    32
  0
VERTEX
  8
0
  5
45509
 10
570.459
 20
210.550
 30
0.000000
  70
    32
  0
VERTEX
  8
0
  5
4550A
 10
570.878
 20
212.227
 30
0.000000
  70
    32
  0
VERTEX
  8
0
  5
4550B
 10
571.257
 20
213.925
 30
0.000000
  70
    32
  0
VERTEX
  8
0
  5
4550C
 10
571.596
 20
215.642
 30
0.000000
  70
    32
  0
VERTEX
  8
0
  5
4550D
 10
571.895
 20
217.377
 30
0.000000
  70
    32
  0
VERTEX
  8
0
  5
4550E
 10
572.154
 20
219.128
 30
0.000000
  70
    32
  0
VERTEX
  8
0
  5
4550F
 10
572.372
 20
220.891
 30
0.000000
  70
    32
  0
VERTEX
  8
0
  5
45510
 10
572.549
 20
222.665
 30
0.000000
  70
    32
  0
VERTEX
  8
0
  5
45511
 10
572.685
 20
224.447
 30
0.000000
  70
    32
  0
VERTEX
  8
0
  5
45512
 10
572.780
 20
226.236
 30
0.000000
  70
    32
  0
VERTEX
  8
0
  5
45513
 10
572.833
 20
228.029
 30
0.000000
  70
    32
  0
VERTEX
  8
0
  5
45514
 10
572.844
 20
229.823
 30
0.000000
  70
    32
  0
VERTEX
  8
0
  5
45515
 10
572.814
 20
231.617
 30
0.000000
  70
    32
  0
VERTEX
  8
0
  5
45516
 10
572.742
 20
233.408
 30
0.000000
  70
    32
  0
VERTEX
  8
0
  5
45517
 10
572.628
 20
235.194
 30
0.000000
  70
    32
  0
VERTEX
  8
0
  5
45518
 10
572.474
 20
236.973
 30
0.000000
  70
    32
  0
VERTEX
  8
0
  5
45519
 10
572.278
 20
238.742
 30
0.000000
  70
    32
  0
VERTEX
  8
0
  5
4551A
 10
572.041
 20
240.500
 30
0.000000
  70
    32
  0
VERTEX
  8
0
  5
4551B
 10
571.764
 20
242.243
 30
0.000000
  70
    32
  0
VERTEX
  8
0
  5
4551C
 10
571.446
 20
243.971
 30
0.000000
  70
    32
  0
VERTEX
  8
0
  5
4551D
 10
571.089
 20
245.680
 30
0.000000
  70
    32
  0
VERTEX
  8
0
  5
4551E
 10
570.692
 20
247.368
 30
0.000000
  70
    32
  0
VERTEX
  8
0
  5
4551F
 10
570.256
 20
249.034
 30
0.000000
  70
    32
  0
VERTEX
  8
0
  5
45520
 10
569.782
 20
250.675
 30
0.000000
  70
    32
  0
VERTEX
  8
0
  5
45521
 10
569.270
 20
252.289
 30
0.000000
  70
    32
  0
VERTEX
  8
0
  5
45522
 10
568.721
 20
253.875
 30
0.000000
  70
    32
  0
VERTEX
  8
0
  5
45523
 10
568.135
 20
255.429
 30
0.000000
  70
    32
  0
VERTEX
  8
0
  5
45524
 10
567.514
 20
256.951
 30
0.000000
  70
    32
  0
VERTEX
  8
0
  5
45525
 10
566.858
 20
258.438
 30
0.000000
  70
    32
  0
VERTEX
  8
0
  5
45526
 10
566.168
 20
259.888
 30
0.000000
  70
    32
  0
VERTEX
  8
0
  5
45527
 10
565.445
 20
261.300
 30
0.000000
  70
    32
  0
VERTEX
  8
0
  5
45528
 10
564.689
 20
262.672
 30
0.000000
  70
    32
  0
VERTEX
  8
0
  5
45529
 10
563.902
 20
264.002
 30
0.000000
  70
    32
  0
VERTEX
  8
0
  5
4552A
 10
563.085
 20
265.288
 30
0.000000
  70
    32
  0
VERTEX
  8
0
  5
4552B
 10
562.238
 20
266.529
 30
0.000000
  70
    32
  0
VERTEX
  8
0
  5
4552C
 10
561.364
 20
267.723
 30
0.000000
  70
    32
  0
VERTEX
  8
0
  5
4552D
 10
560.462
 20
268.869
 30
0.000000
  70
    32
  0
VERTEX
  8
0
  5
4552E
 10
559.534
 20
269.965
 30
0.000000
  70
    32
  0
VERTEX
  8
0
  5
4552F
 10
558.581
 20
271.010
 30
0.000000
  70
    32
  0
VERTEX
  8
0
  5
45530
 10
557.604
 20
272.003
 30
0.000000
  70
    32
  0
VERTEX
  8
0
  5
45531
 10
556.606
 20
272.941
 30
0.000000
  70
    32
  0
VERTEX
  8
0
  5
45532
 10
555.586
 20
273.825
 30
0.000000
  70
    32
  0
VERTEX
  8
0
  5
45533
 10
554.546
 20
274.653
 30
0.000000
  70
    32
  0
VERTEX
  8
0
  5
45534
 10
553.487
 20
275.424
 30
0.000000
  70
    32
  0
VERTEX
  8
0
  5
45535
 10
552.412
 20
276.136
 30
0.000000
  70
    32
  0
VERTEX
  8
0
  5
45536
 10
551.320
 20
276.790
 30
0.000000
  70
    32
  0
VERTEX
  8
0
  5
45537
 10
550.215
 20
277.384
 30
0.000000
  70
    32
  0
VERTEX
  8
0
  5
45538
 10
549.096
 20
277.918
 30
0.000000
  70
    32
  0
VERTEX
  8
0
  5
45539
 10
547.965
 20
278.390
 30
0.000000
  70
    32
  0
VERTEX
  8
0
  5
4553A
 10
546.824
 20
278.801
 30
0.000000
  70
    32
  0
VERTEX
  8
0
  5
4553B
 10
545.674
 20
279.149
 30
0.000000
  70
    32
  0
VERTEX
  8
0
  5
4553C
 10
544.517
 20
279.435
 30
0.000000
  70
    32
  0
VERTEX
  8
0
  5
4553D
 10
543.355
 20
279.657
 30
0.000000
  70
    32
  0
VERTEX
  8
0
  5
4553E
 10
542.187
 20
279.816
 30
0.000000
  70
    32
  0
VERTEX
  8
0
  5
4553F
 10
541.017
 20
279.912
 30
0.000000
  70
    32
  0
VERTEX
  8
0
  5
45540
 10
539.845
 20
279.944
 30
0.000000
  70
    32
  0
VERTEX
  8
0
  5
45541
 10
538.673
 20
279.912
 30
0.000000
  70
    32
  0
VERTEX
  8
0
  5
45542
 10
537.503
 20
279.816
 30
0.000000
  70
    32
  0
VERTEX
  8
0
  5
45543
 10
536.336
 20
279.657
 30
0.000000
  70
    32
  0
VERTEX
  8
0
  5
45544
 10
535.173
 20
279.435
 30
0.000000
  70
    32
  0
VERTEX
  8
0
  5
45545
 10
534.016
 20
279.149
 30
0.000000
  70
    32
  0
VERTEX
  8
0
  5
45546
 10
532.866
 20
278.801
 30
0.000000
  70
    32
  0
VERTEX
  8
0
  5
45547
 10
531.725
 20
278.390
 30
0.000000
  70
    32
  0
VERTEX
  8
0
  5
45548
 10
530.595
 20
277.918
 30
0.000000
  70
    32
  0
VERTEX
  8
0
  5
45549
 10
529.476
 20
277.384
 30
0.000000
  70
    32
  0
VERTEX
  8
0
  5
4554A
 10
528.370
 20
276.790
 30
0.000000
  70
    32
  0
VERTEX
  8
0
  5
4554B
 10
527.278
 20
276.136
 30
0.000000
  70
    32
  0
VERTEX
  8
0
  5
4554C
 10
526.203
 20
275.424
 30
0.000000
  70
    32
  0
VERTEX
  8
0
  5
4554D
 10
525.144
 20
274.653
 30
0.000000
  70
    32
  0
VERTEX
  8
0
  5
4554E
 10
524.105
 20
273.825
 30
0.000000
  70
    32
  0
VERTEX
  8
0
  5
4554F
 10
523.085
 20
272.941
 30
0.000000
  70
    32
  0
VERTEX
  8
0
  5
45550
 10
522.086
 20
272.003
 30
0.000000
  70
    32
  0
VERTEX
  8
0
  5
45551
 10
521.109
 20
271.010
 30
0.000000
  70
    32
  0
VERTEX
  8
0
  5
45552
 10
520.157
 20
269.965
 30
0.000000
  70
    32
  0
VERTEX
  8
0
  5
45553
 10
519.229
 20
268.869
 30
0.000000
  70
    32
  0
VERTEX
  8
0
  5
45554
 10
518.327
 20
267.723
 30
0.000000
  70
    32
  0
VERTEX
  8
0
  5
45555
 10
517.452
 20
266.529
 30
0.000000
  70
    32
  0
VERTEX
  8
0
  5
45556
 10
516.605
 20
265.288
 30
0.000000
  70
    32
  0
VERTEX
  8
0
  5
45557
 10
515.788
 20
264.002
 30
0.000000
  70
    32
  0
VERTEX
  8
0
  5
45558
 10
515.001
 20
262.672
 30
0.000000
  70
    32
  0
VERTEX
  8
0
  5
45559
 10
514.246
 20
261.300
 30
0.000000
  70
    32
  0
VERTEX
  8
0
  5
4555A
 10
513.522
 20
259.888
 30
0.000000
  70
    32
  0
VERTEX
  8
0
  5
4555B
 10
512.832
 20
258.438
 30
0.000000
  70
    32
  0
VERTEX
  8
0
  5
4555C
 10
512.176
 20
256.951
 30
0.000000
  70
    32
  0
VERTEX
  8
0
  5
4555D
 10
511.555
 20
255.429
 30
0.000000
  70
    32
  0
VERTEX
  8
0
  5
4555E
 10
510.969
 20
253.875
 30
0.000000
  70
    32
  0
VERTEX
  8
0
  5
4555F
 10
510.420
 20
252.289
 30
0.000000
  70
    32
  0
VERTEX
  8
0
  5
45560
 10
509.909
 20
250.675
 30
0.000000
  70
    32
  0
VERTEX
  8
0
  5
45561
 10
509.434
 20
249.034
 30
0.000000
  70
    32
  0
VERTEX
  8
0
  5
45562
 10
508.999
 20
247.368
 30
0.000000
  70
    32
  0
VERTEX
  8
0
  5
45563
 10
508.602
 20
245.680
 30
0.000000
  70
    32
  0
VERTEX
  8
0
  5
45564
 10
508.244
 20
243.971
 30
0.000000
  70
    32
  0
VERTEX
  8
0
  5
45565
 10
507.927
 20
242.243
 30
0.000000
  70
    32
  0
VERTEX
  8
0
  5
45566
 10
507.649
 20
240.500
 30
0.000000
  70
    32
  0
VERTEX
  8
0
  5
45567
 10
507.412
 20
238.742
 30
0.000000
  70
    32
  0
VERTEX
  8
0
  5
45568
 10
507.216
 20
236.973
 30
0.000000
  70
    32
  0
VERTEX
  8
0
  5
45569
 10
507.062
 20
235.194
 30
0.000000
  70
    32
  0
VERTEX
  8
0
  5
4556A
 10
506.948
 20
233.408
 30
0.000000
  70
    32
  0
VERTEX
  8
0
  5
4556B
 10
506.876
 20
231.617
 30
0.000000
  70
    32
  0
VERTEX
  8
0
  5
4556C
 10
506.846
 20
229.823
 30
0.000000
  70
    32
  0
VERTEX
  8
0
  5
4556D
 10
506.858
 20
228.029
 30
0.000000
  70
    32
  0
VERTEX
  8
0
  5
4556E
 10
506.910
 20
226.236
 30
0.000000
  70
    32
  0
VERTEX
  8
0
  5
4556F
 10
507.005
 20
224.447
 30
0.000000
  70
    32
  0
VERTEX
  8
0
  5
45570
 10
507.141
 20
222.665
 30
0.000000
  70
    32
  0
VERTEX
  8
0
  5
45571
 10
507.318
 20
220.891
 30
0.000000
  70
    32
  0
VERTEX
  8
0
  5
45572
 10
507.536
 20
219.128
 30
0.000000
  70
    32
  0
VERTEX
  8
0
  5
45573
 10
507.795
 20
217.377
 30
0.000000
  70
    32
  0
VERTEX
  8
0
  5
45574
 10
508.094
 20
215.642
 30
0.000000
  70
    32
  0
VERTEX
  8
0
  5
45575
 10
508.434
 20
213.925
 30
0.000000
  70
    32
  0
VERTEX
  8
0
  5
45576
 10
508.813
 20
212.227
 30
0.000000
  70
    32
  0
VERTEX
  8
0
  5
45577
 10
509.231
 20
210.550
 30
0.000000
  70
    32
  0
VERTEX
  8
0
  5
45578
 10
509.688
 20
208.898
 30
0.000000
  70
    32
  0
VERTEX
  8
0
  5
45579
 10
510.182
 20
207.271
 30
0.000000
  70
    32
  0
VERTEX
  8
0
  5
4557A
 10
510.714
 20
205.672
 30
0.000000
  70
    32
  0
VERTEX
  8
0
  5
4557B
 10
511.283
 20
204.103
 30
0.000000
  70
    32
  0
VERTEX
  8
0
  5
4557C
 10
511.888
 20
202.566
 30
0.000000
  70
    32
  0
VERTEX
  8
0
  5
4557D
 10
512.529
 20
201.063
 30
0.000000
  70
    32
  0
VERTEX
  8
0
  5
4557E
 10
513.203
 20
199.596
 30
0.000000
  70
    32
  0
VERTEX
  8
0
  5
4557F
 10
513.911
 20
198.166
 30
0.000000
  70
    32
  0
VERTEX
  8
0
  5
45580
 10
514.652
 20
196.776
 30
0.000000
  70
    32
  0
SEQEND
  8
0
  5
45581
  0
LINE
  5
44F95
  8
0
 10
562.35440389086011
 20
196.77571039494299
 30
0.0
 11
565.03773311199325
 21
196.77571039494299
 31
0.0
  0
POLYLINE
  5
44F96
  8
0
 10
562.35440389086023
 20
196.77571039494359
 30
0.0
 66
     1
 70
     8
  0
VERTEX
  8
0
  5
45582
 10
562.354
 20
196.776
 30
0.000000
  70
    32
  0
VERTEX
  8
0
  5
45583
 10
563.115
 20
198.051
 30
0.000000
  70
    32
  0
VERTEX
  8
0
  5
45584
 10
563.845
 20
199.368
 30
0.000000
  70
    32
  0
VERTEX
  8
0
  5
45585
 10
564.543
 20
200.725
 30
0.000000
  70
    32
  0
VERTEX
  8
0
  5
45586
 10
565.208
 20
202.120
 30
0.000000
  70
    32
  0
VERTEX
  8
0
  5
45587
 10
565.840
 20
203.551
 30
0.000000
  70
    32
  0
VERTEX
  8
0
  5
45588
 10
566.437
 20
205.016
 30
0.000000
  70
    32
  0
VERTEX
  8
0
  5
45589
 10
566.999
 20
206.514
 30
0.000000
  70
    32
  0
VERTEX
  8
0
  5
4558A
 10
567.525
 20
208.042
 30
0.000000
  70
    32
  0
VERTEX
  8
0
  5
4558B
 10
568.015
 20
209.598
 30
0.000000
  70
    32
  0
VERTEX
  8
0
  5
4558C
 10
568.467
 20
211.180
 30
0.000000
  70
    32
  0
VERTEX
  8
0
  5
4558D
 10
568.881
 20
212.787
 30
0.000000
  70
    32
  0
VERTEX
  8
0
  5
4558E
 10
569.257
 20
214.415
 30
0.000000
  70
    32
  0
VERTEX
  8
0
  5
4558F
 10
569.594
 20
216.064
 30
0.000000
  70
    32
  0
VERTEX
  8
0
  5
45590
 10
569.891
 20
217.730
 30
0.000000
  70
    32
  0
VERTEX
  8
0
  5
45591
 10
570.149
 20
219.411
 30
0.000000
  70
    32
  0
VERTEX
  8
0
  5
45592
 10
570.367
 20
221.106
 30
0.000000
  70
    32
  0
VERTEX
  8
0
  5
45593
 10
570.544
 20
222.812
 30
0.000000
  70
    32
  0
VERTEX
  8
0
  5
45594
 10
570.680
 20
224.527
 30
0.000000
  70
    32
  0
VERTEX
  8
0
  5
45595
 10
570.776
 20
226.248
 30
0.000000
  70
    32
  0
VERTEX
  8
0
  5
45596
 10
570.831
 20
227.973
 30
0.000000
  70
    32
  0
VERTEX
  8
0
  5
45597
 10
570.845
 20
229.700
 30
0.000000
  70
    32
  0
VERTEX
  8
0
  5
45598
 10
570.817
 20
231.427
 30
0.000000
  70
    32
  0
VERTEX
  8
0
  5
45599
 10
570.749
 20
233.151
 30
0.000000
  70
    32
  0
VERTEX
  8
0
  5
4559A
 10
570.640
 20
234.870
 30
0.000000
  70
    32
  0
VERTEX
  8
0
  5
4559B
 10
570.490
 20
236.582
 30
0.000000
  70
    32
  0
VERTEX
  8
0
  5
4559C
 10
570.299
 20
238.284
 30
0.000000
  70
    32
  0
VERTEX
  8
0
  5
4559D
 10
570.068
 20
239.975
 30
0.000000
  70
    32
  0
VERTEX
  8
0
  5
4559E
 10
569.797
 20
241.652
 30
0.000000
  70
    32
  0
VERTEX
  8
0
  5
4559F
 10
569.487
 20
243.312
 30
0.000000
  70
    32
  0
VERTEX
  8
0
  5
455A0
 10
569.137
 20
244.954
 30
0.000000
  70
    32
  0
VERTEX
  8
0
  5
455A1
 10
568.748
 20
246.576
 30
0.000000
  70
    32
  0
VERTEX
  8
0
  5
455A2
 10
568.321
 20
248.174
 30
0.000000
  70
    32
  0
VERTEX
  8
0
  5
455A3
 10
567.857
 20
249.748
 30
0.000000
  70
    32
  0
VERTEX
  8
0
  5
455A4
 10
567.355
 20
251.295
 30
0.000000
  70
    32
  0
VERTEX
  8
0
  5
455A5
 10
566.817
 20
252.813
 30
0.000000
  70
    32
  0
VERTEX
  8
0
  5
455A6
 10
566.243
 20
254.300
 30
0.000000
  70
    32
  0
VERTEX
  8
0
  5
455A7
 10
565.634
 20
255.755
 30
0.000000
  70
    32
  0
VERTEX
  8
0
  5
455A8
 10
564.991
 20
257.174
 30
0.000000
  70
    32
  0
VERTEX
  8
0
  5
455A9
 10
564.315
 20
258.556
 30
0.000000
  70
    32
  0
VERTEX
  8
0
  5
455AA
 10
563.606
 20
259.900
 30
0.000000
  70
    32
  0
VERTEX
  8
0
  5
455AB
 10
562.866
 20
261.204
 30
0.000000
  70
    32
  0
VERTEX
  8
0
  5
455AC
 10
562.096
 20
262.465
 30
0.000000
  70
    32
  0
VERTEX
  8
0
  5
455AD
 10
561.296
 20
263.683
 30
0.000000
  70
    32
  0
VERTEX
  8
0
  5
455AE
 10
560.467
 20
264.855
 30
0.000000
  70
    32
  0
VERTEX
  8
0
  5
455AF
 10
559.611
 20
265.980
 30
0.000000
  70
    32
  0
VERTEX
  8
0
  5
455B0
 10
558.729
 20
267.057
 30
0.000000
  70
    32
  0
VERTEX
  8
0
  5
455B1
 10
557.823
 20
268.084
 30
0.000000
  70
    32
  0
VERTEX
  8
0
  5
455B2
 10
556.892
 20
269.060
 30
0.000000
  70
    32
  0
VERTEX
  8
0
  5
455B3
 10
555.939
 20
269.984
 30
0.000000
  70
    32
  0
VERTEX
  8
0
  5
455B4
 10
554.964
 20
270.853
 30
0.000000
  70
    32
  0
VERTEX
  8
0
  5
455B5
 10
553.969
 20
271.668
 30
0.000000
  70
    32
  0
VERTEX
  8
0
  5
455B6
 10
552.956
 20
272.427
 30
0.000000
  70
    32
  0
VERTEX
  8
0
  5
455B7
 10
551.925
 20
273.129
 30
0.000000
  70
    32
  0
VERTEX
  8
0
  5
455B8
 10
550.879
 20
273.773
 30
0.000000
  70
    32
  0
VERTEX
  8
0
  5
455B9
 10
549.817
 20
274.358
 30
0.000000
  70
    32
  0
VERTEX
  8
0
  5
455BA
 10
548.743
 20
274.884
 30
0.000000
  70
    32
  0
VERTEX
  8
0
  5
455BB
 10
547.657
 20
275.350
 30
0.000000
  70
    32
  0
VERTEX
  8
0
  5
455BC
 10
546.560
 20
275.754
 30
0.000000
  70
    32
  0
VERTEX
  8
0
  5
455BD
 10
545.454
 20
276.098
 30
0.000000
  70
    32
  0
VERTEX
  8
0
  5
455BE
 10
544.342
 20
276.379
 30
0.000000
  70
    32
  0
VERTEX
  8
0
  5
455BF
 10
543.223
 20
276.599
 30
0.000000
  70
    32
  0
VERTEX
  8
0
  5
455C0
 10
542.099
 20
276.756
 30
0.000000
  70
    32
  0
VERTEX
  8
0
  5
455C1
 10
540.973
 20
276.850
 30
0.000000
  70
    32
  0
VERTEX
  8
0
  5
455C2
 10
539.845
 20
276.881
 30
0.000000
  70
    32
  0
VERTEX
  8
0
  5
455C3
 10
538.717
 20
276.850
 30
0.000000
  70
    32
  0
VERTEX
  8
0
  5
455C4
 10
537.591
 20
276.756
 30
0.000000
  70
    32
  0
VERTEX
  8
0
  5
455C5
 10
536.468
 20
276.599
 30
0.000000
  70
    32
  0
VERTEX
  8
0
  5
455C6
 10
535.349
 20
276.379
 30
0.000000
  70
    32
  0
VERTEX
  8
0
  5
455C7
 10
534.236
 20
276.098
 30
0.000000
  70
    32
  0
VERTEX
  8
0
  5
455C8
 10
533.130
 20
275.754
 30
0.000000
  70
    32
  0
VERTEX
  8
0
  5
455C9
 10
532.034
 20
275.350
 30
0.000000
  70
    32
  0
VERTEX
  8
0
  5
455CA
 10
530.947
 20
274.884
 30
0.000000
  70
    32
  0
VERTEX
  8
0
  5
455CB
 10
529.873
 20
274.358
 30
0.000000
  70
    32
  0
VERTEX
  8
0
  5
455CC
 10
528.812
 20
273.773
 30
0.000000
  70
    32
  0
VERTEX
  8
0
  5
455CD
 10
527.765
 20
273.129
 30
0.000000
  70
    32
  0
VERTEX
  8
0
  5
455CE
 10
526.734
 20
272.427
 30
0.000000
  70
    32
  0
VERTEX
  8
0
  5
455CF
 10
525.721
 20
271.668
 30
0.000000
  70
    32
  0
VERTEX
  8
0
  5
455D0
 10
524.726
 20
270.853
 30
0.000000
  70
    32
  0
VERTEX
  8
0
  5
455D1
 10
523.752
 20
269.984
 30
0.000000
  70
    32
  0
VERTEX
  8
0
  5
455D2
 10
522.798
 20
269.060
 30
0.000000
  70
    32
  0
VERTEX
  8
0
  5
455D3
 10
521.868
 20
268.084
 30
0.000000
  70
    32
  0
VERTEX
  8
0
  5
455D4
 10
520.961
 20
267.057
 30
0.000000
  70
    32
  0
VERTEX
  8
0
  5
455D5
 10
520.079
 20
265.980
 30
0.000000
  70
    32
  0
VERTEX
  8
0
  5
455D6
 10
519.223
 20
264.855
 30
0.000000
  70
    32
  0
VERTEX
  8
0
  5
455D7
 10
518.395
 20
263.683
 30
0.000000
  70
    32
  0
VERTEX
  8
0
  5
455D8
 10
517.595
 20
262.465
 30
0.000000
  70
    32
  0
VERTEX
  8
0
  5
455D9
 10
516.824
 20
261.204
 30
0.000000
  70
    32
  0
VERTEX
  8
0
  5
455DA
 10
516.084
 20
259.900
 30
0.000000
  70
    32
  0
VERTEX
  8
0
  5
455DB
 10
515.375
 20
258.556
 30
0.000000
  70
    32
  0
VERTEX
  8
0
  5
455DC
 10
514.699
 20
257.174
 30
0.000000
  70
    32
  0
VERTEX
  8
0
  5
455DD
 10
514.056
 20
255.755
 30
0.000000
  70
    32
  0
VERTEX
  8
0
  5
455DE
 10
513.447
 20
254.300
 30
0.000000
  70
    32
  0
VERTEX
  8
0
  5
455DF
 10
512.874
 20
252.813
 30
0.000000
  70
    32
  0
VERTEX
  8
0
  5
455E0
 10
512.335
 20
251.295
 30
0.000000
  70
    32
  0
VERTEX
  8
0
  5
455E1
 10
511.834
 20
249.748
 30
0.000000
  70
    32
  0
VERTEX
  8
0
  5
455E2
 10
511.369
 20
248.174
 30
0.000000
  70
    32
  0
VERTEX
  8
0
  5
455E3
 10
510.942
 20
246.576
 30
0.000000
  70
    32
  0
VERTEX
  8
0
  5
455E4
 10
510.554
 20
244.954
 30
0.000000
  70
    32
  0
VERTEX
  8
0
  5
455E5
 10
510.204
 20
243.312
 30
0.000000
  70
    32
  0
VERTEX
  8
0
  5
455E6
 10
509.893
 20
241.652
 30
0.000000
  70
    32
  0
VERTEX
  8
0
  5
455E7
 10
509.622
 20
239.975
 30
0.000000
  70
    32
  0
VERTEX
  8
0
  5
455E8
 10
509.391
 20
238.284
 30
0.000000
  70
    32
  0
VERTEX
  8
0
  5
455E9
 10
509.201
 20
236.582
 30
0.000000
  70
    32
  0
VERTEX
  8
0
  5
455EA
 10
509.051
 20
234.870
 30
0.000000
  70
    32
  0
VERTEX
  8
0
  5
455EB
 10
508.941
 20
233.151
 30
0.000000
  70
    32
  0
VERTEX
  8
0
  5
455EC
 10
508.873
 20
231.427
 30
0.000000
  70
    32
  0
VERTEX
  8
0
  5
455ED
 10
508.846
 20
229.700
 30
0.000000
  70
    32
  0
VERTEX
  8
0
  5
455EE
 10
508.859
 20
227.973
 30
0.000000
  70
    32
  0
VERTEX
  8
0
  5
455EF
 10
508.914
 20
226.248
 30
0.000000
  70
    32
  0
VERTEX
  8
0
  5
455F0
 10
509.010
 20
224.527
 30
0.000000
  70
    32
  0
VERTEX
  8
0
  5
455F1
 10
509.146
 20
222.812
 30
0.000000
  70
    32
  0
VERTEX
  8
0
  5
455F2
 10
509.324
 20
221.106
 30
0.000000
  70
    32
  0
VERTEX
  8
0
  5
455F3
 10
509.541
 20
219.411
 30
0.000000
  70
    32
  0
VERTEX
  8
0
  5
455F4
 10
509.799
 20
217.730
 30
0.000000
  70
    32
  0
VERTEX
  8
0
  5
455F5
 10
510.096
 20
216.064
 30
0.000000
  70
    32
  0
VERTEX
  8
0
  5
455F6
 10
510.433
 20
214.415
 30
0.000000
  70
    32
  0
VERTEX
  8
0
  5
455F7
 10
510.809
 20
212.787
 30
0.000000
  70
    32
  0
VERTEX
  8
0
  5
455F8
 10
511.223
 20
211.180
 30
0.000000
  70
    32
  0
VERTEX
  8
0
  5
455F9
 10
511.676
 20
209.598
 30
0.000000
  70
    32
  0
VERTEX
  8
0
  5
455FA
 10
512.165
 20
208.042
 30
0.000000
  70
    32
  0
VERTEX
  8
0
  5
455FB
 10
512.691
 20
206.514
 30
0.000000
  70
    32
  0
VERTEX
  8
0
  5
455FC
 10
513.253
 20
205.016
 30
0.000000
  70
    32
  0
VERTEX
  8
0
  5
455FD
 10
513.850
 20
203.551
 30
0.000000
  70
    32
  0
VERTEX
  8
0
  5
455FE
 10
514.482
 20
202.120
 30
0.000000
  70
    32
  0
VERTEX
  8
0
  5
455FF
 10
515.147
 20
200.725
 30
0.000000
  70
    32
  0
VERTEX
  8
0
  5
45600
 10
515.845
 20
199.368
 30
0.000000
  70
    32
  0
VERTEX
  8
0
  5
45601
 10
516.575
 20
198.051
 30
0.000000
  70
    32
  0
VERTEX
  8
0
  5
45602
 10
517.336
 20
196.776
 30
0.000000
  70
    32
  0
SEQEND
  8
0
  5
45603
  0
LINE
  5
44F97
  8
0
 10
514.65246743375155
 20
196.77571039494299
 30
0.0
 11
517.33579665488469
 21
196.77571039494299
 31
0.0
  0
LINE
  5
44F98
  8
0
 10
514.65246743375155
 20
196.77571039494299
 30
0.0
 11
515.34510027287251
 21
195.72114699994481
 31
0.0
  0
LINE
  5
44F99
  8
0
 10
564.34510027287251
 20
195.72114699994481
 30
0.0
 11
565.03773311199325
 21
196.77571039494299
 31
0.0
  0
LINE
  5
44F9A
  8
0
 10
511.82010027287231
 20
292.44368873141991
 30
0.0
 11
567.870100271723
 21
292.44368873141991
 31
0.0
  0
LINE
  5
44F9B
  8
0
 10
562.35440389086011
 20
196.77571039494299
 30
0.0
 11
562.34510027287251
 21
196.76070237373779
 31
0.0
  0
LINE
  5
44F9C
  8
0
 10
562.34510027287251
 20
262.06655964248142
 30
0.0
 11
562.34510027287251
 21
192.24368873141981
 31
0.0
  0
LINE
  5
44F9D
  8
0
 10
517.3451002728724
 20
192.24368873141981
 30
0.0
 11
517.3451002728724
 21
262.06655964248182
 31
0.0
  0
LINE
  5
44F9E
  8
0
 10
517.3451002728724
 20
196.7607023737377
 30
0.0
 11
517.33579665488469
 21
196.77571039494299
 31
0.0
  0
LINE
  5
44FA0
  8
0
 10
564.34510027287251
 20
192.24368873141981
 30
0.0
 11
564.34510027287251
 21
195.72114699994481
 31
0.0
  0
LINE
  5
44FA1
  8
0
 10
562.34510027287251
 20
192.24368873141981
 30
0.0
 11
564.34510027287251
 21
192.24368873141981
 31
0.0
  0
LINE
  5
44FA3
  8
0
 10
515.34510027287251
 20
192.24368873141981
 30
0.0
 11
515.34510027287251
 21
195.72114699994481
 31
0.0
  0
LINE
  5
44FA5
  8
0
 10
515.34510027287251
 20
192.24368873141981
 30
0.0
 11
517.3451002728724
 21
192.24368873141981
 31
0.0
  0
LINE
  5
44FA8
  8
0
 10
528.3043165962797
 20
273.46924436170377
 30
0.0
 11
551.38588394946464
 21
273.46924436170377
 31
0.0
  0
LINE
  5
44FAB
  8
0
 10
524.40141587474488
 20
270.57146688283569
 30
0.0
 11
555.28878467099912
 21
270.57146688283569
 31
0.0
  0
LINE
  5
44FAE
  8
0
 10
569.84510027287251
 20
195.9853553980866
 30
0.0
 11
569.84510027287251
 21
208.36289977439361
 31
0.0
  0
ARC
  5
44FB0
  8
0
 10
549.84945160201551
 20
198.99176334020919
 30
0.0
 40
19.92739476567154
 50
350.60797223965898
 51
9.3920277603409392
  0
ARC
  5
44FB1
  8
0
 10
551.26832719221318
 20
205.4430746945832
 30
0.0
 40
18.519837471481829
 50
350.05198750930668
 51
7.3850384049252398
  0
LINE
  5
44FB2
  8
0
 10
569.50971720034624
 20
202.24368873141981
 30
0.0
 11
567.66863448700815
 21
202.24368873141981
 31
0.0
  0
LINE
  5
44FB3
  8
0
 10
564.68048334539844
 20
195.73983794899871
 30
0.0
 11
564.630589946908
 21
196.15581735180109
 31
0.0
  0
LINE
  5
44FB4
  8
0
 10
569.7793140706616
 20
195.73983794899871
 30
0.0
 11
564.35737641024878
 21
195.73983794899871
 31
0.0
  0
ARC
  5
44FB6
  8
0
 10
528.35113456152885
 20
205.440990219686
 30
0.0
 40
18.450978353163642
 50
172.75500882303669
 51
189.97894587326161
  0
LINE
  5
44FB7
  8
0
 10
512.02156605873643
 20
202.24368873141981
 30
0.0
 11
510.1792919091713
 21
202.24368873141981
 31
0.0
  0
ARC
  5
44FB8
  8
0
 10
529.82999408485489
 20
198.99368873141981
 30
0.0
 40
19.917645342695909
 50
170.60894724236249
 51
189.3910527576372
  0
LINE
  5
44FB9
  8
0
 10
515.34510027287251
 20
195.74368873141981
 30
0.0
 11
509.90985466104331
 21
195.74368873141981
 31
0.0
  0
LINE
  5
44FBA
  8
0
 10
509.84510027287251
 20
195.9853553980866
 30
0.0
 11
509.84510027287251
 21
208.36289977439361
 31
0.0
  0
LINE
  5
44FBC
  8
0
 10
572.34510027287251
 20
196.4286887314197
 30
0.0
 11
572.34510027287251
 21
208.05868873141989
 31
0.0
  0
LINE
  5
44FBF
  8
0
 10
545.54510027287233
 20
140.04368873141971
 30
0.0
 11
545.54510027287211
 21
264.44368873141991
 31
0.0
  0
LINE
  5
44FC1
  8
0
 10
543.14510027287236
 20
140.04368873141971
 30
0.0
 11
543.14510027287167
 21
264.44368873141991
 31
0.0
  0
LINE
  5
44FC3
  8
0
 10
536.54510027287233
 20
140.04368873141971
 30
0.0
 11
536.54510027287165
 21
264.44368873141991
 31
0.0
  0
LINE
  5
44FC5
  8
0
 10
534.14510027287236
 20
140.04368873141971
 30
0.0
 11
534.14510027287167
 21
264.44368873141991
 31
0.0
  0
LINE
  5
44FC7
  8
0
 10
552.00767177341845
 20
145.38838233521591
 30
0.0
 11
552.007671773418
 21
259.0989951276236
 31
0.0
  0
LINE
  5
44FC9
  8
0
 10
527.68252877232635
 20
145.38838233521591
 30
0.0
 11
527.68252877232635
 21
259.0989951276236
 31
0.0
  0
LINE
  5
44FCB
  8
0
 10
553.27433844008533
 20
146.72568806383569
 30
0.0
 11
553.27433844008476
 21
257.76168939900327
 31
0.0
  0
LINE
  5
44FCD
  8
0
 10
526.41586210565936
 20
146.72568806383569
 30
0.0
 11
526.41586210565902
 21
257.76168939900327
 31
0.0
  0
LINE
  5
44FCF
  8
0
 10
554.54100510675153
 20
150.40435517555781
 30
0.0
 11
554.54100510675096
 21
254.08302228728169
 31
0.0
  0
LINE
  5
44FD1
  8
0
 10
525.14919543899339
 20
150.40435517555781
 30
0.0
 11
525.14919543899305
 21
254.08302228728169
 31
0.0
  0
LINE
  5
44FD3
  8
0
 10
558.59510027287251
 20
164.51966383924099
 30
0.0
 11
558.59510027287217
 21
239.96771362359851
 31
0.0
  0
LINE
  5
44FD5
  8
0
 10
521.09510027287251
 20
164.51966383924099
 30
0.0
 11
521.09510027287251
 21
239.9677136235986
 31
0.0
  0
LINE
  5
44FD7
  8
0
 10
561.84510027287251
 20
190.82435891934281
 30
0.0
 11
561.84510027287274
 21
213.6630185434968
 31
0.0
  0
LINE
  5
44FD9
  8
0
 10
517.84510027287251
 20
190.82435891934281
 30
0.0
 11
517.84510027287217
 21
213.6630185434968
 31
0.0
  0
LINE
  5
44FF5
  8
0
 10
560.4236042072348
 20
189.32641461720871
 30
0.0
 11
560.4236042072348
 21
215.16096284563079
 31
0.0
  0
LINE
  5
44FF7
  8
0
 10
519.26659633851023
 20
189.32641461720871
 30
0.0
 11
519.26659633851
 21
215.16096284563071
 31
0.0
  0
LINE
  5
44FF8
  8
0
 10
76.130402951679343
 20
284.94368873141991
 30
0.0
 11
76.130402951679343
 21
283.94368873141991
 31
0.0
  0
LINE
  5
44FF9
  8
0
 10
149.13040295167929
 20
283.94368873141991
 30
0.0
 11
149.13040295167929
 21
284.94368873141991
 31
0.0
  0
ARC
  5
44FFA
  8
0
 10
80.130402951680026
 20
284.94368873141917
 30
0.0
 40
4.0000000000006821
 50
90.000000000006509
 51
179.99999999999019
  0
ARC
  5
44FFB
  8
0
 10
145.1304029516786
 20
284.94368873141917
 30
0.0
 40
4.0000000000006821
 50
0.0000000000065138
 51
89.999999999993491
  0
LINE
  5
44FFC
  8
0
 10
79.630402951679343
 20
283.94368873141991
 30
0.0
 11
79.630402951679343
 21
229.41361630044369
 31
0.0
  0
LINE
  5
44FFD
  8
0
 10
145.63040295167929
 20
229.41361630044349
 30
0.0
 11
145.63040295167929
 21
283.94368873141991
 31
0.0
  0
ARC
  5
44FFE
  8
0
 10
84.605402951678116
 20
289.44368873142099
 30
0.0
 40
2.9999999999988058
 50
89.999999999986969
 51
180.00000000002279
  0
ARC
  5
44FFF
  8
0
 10
140.65540295168049
 20
289.44368873142099
 30
0.0
 40
2.9999999999988058
 50
359.99999999997721
 51
90.000000000013031
  0
LINE
  5
45000
  8
0
 10
81.605402951679466
 20
289.44368873141991
 30
0.0
 11
81.605402951679466
 21
288.94368873141991
 31
0.0
  0
LINE
  5
45001
  8
0
 10
143.65540295167941
 20
288.94368873141991
 30
0.0
 11
143.65540295167941
 21
289.44368873141991
 31
0.0
  0
LINE
  5
45004
  8
0
 10
82.696189153890359
 20
208.74753951384091
 30
0.0
 11
82.630402951679571
 21
208.50202206475299
 31
0.0
  0
LINE
  5
45005
  8
0
 10
82.630402951679571
 20
195.9853553980866
 30
0.0
 11
82.696189153890359
 21
195.73983794899871
 31
0.0
  0
LINE
  5
45006
  8
0
 10
88.064616749468769
 20
195.73983794899871
 30
0.0
 11
88.130402951679557
 21
195.9853553980866
 31
0.0
  0
LINE
  5
45007
  8
0
 10
88.130402951679557
 20
208.50202206475299
 30
0.0
 11
88.064616749468769
 21
208.74753951384091
 31
0.0
  0
LINE
  5
45008
  8
0
 10
142.5656485635086
 20
195.74368873141981
 30
0.0
 11
142.63040295167951
 21
195.9853553980866
 31
0.0
  0
LINE
  5
45009
  8
0
 10
142.63040295167951
 20
208.50202206475299
 30
0.0
 11
142.5656485635086
 21
208.74368873141981
 31
0.0
  0
LINE
  5
4500A
  8
0
 10
135.13040295167951
 20
209.74368873141981
 30
0.0
 11
134.6304029516796
 21
209.74368873141981
 31
0.0
  0
LINE
  5
4500B
  8
0
 10
90.630402951679557
 20
209.74368873141981
 30
0.0
 11
90.130402951679571
 21
209.74368873141981
 31
0.0
  0
LINE
  5
4500C
  8
0
 10
90.130402951679571
 20
194.74368873141981
 30
0.0
 11
90.630402951679557
 21
194.74368873141981
 31
0.0
  0
LINE
  5
4500D
  8
0
 10
134.6304029516796
 20
194.74368873141981
 30
0.0
 11
135.13040295167951
 21
194.74368873141981
 31
0.0
  0
LINE
  5
4500E
  8
0
 10
82.630402951679571
 20
208.05868873141989
 30
0.0
 11
80.130402951679571
 21
208.05868873141989
 31
0.0
  0
LINE
  5
4500F
  8
0
 10
80.130402951679571
 20
196.4286887314197
 30
0.0
 11
82.630402951679571
 21
196.4286887314197
 31
0.0
  0
ARC
  5
45013
  8
0
 10
102.9518863518196
 20
140.7436887314224
 30
0.0
 40
1.0000000000026139
 50
199.0000000000023
 51
270.0
  0
LINE
  5
45015
  8
0
 10
102.9518863518196
 20
139.74368873141981
 30
0.0
 11
106.6304029516796
 21
139.74368873141981
 31
0.0
  0
ARC
  5
45016
  8
0
 10
106.6304029516796
 20
140.04368873141959
 30
0.0
 40
0.2999999999999545
 50
269.99999999998039
 51
0.0000000000195413
  0
ARC
  5
45017
  8
0
 10
109.6304029516793
 20
140.04368873141959
 30
0.0
 40
0.2999999999998408
 50
179.99999999997721
 51
270.00000000001961
  0
LINE
  5
45018
  8
0
 10
109.6304029516796
 20
139.74368873141981
 30
0.0
 11
115.6304029516795
 21
139.74368873141981
 31
0.0
  0
ARC
  5
45019
  8
0
 10
115.6304029516795
 20
140.04368873141959
 30
0.0
 40
0.2999999999999545
 50
269.99999999998039
 51
0.0000000000195413
  0
LINE
  5
4501B
  8
0
 10
118.6304029516795
 20
139.74368873141981
 30
0.0
 11
122.3089195515395
 21
139.74368873141981
 31
0.0
  0
ARC
  5
4501C
  8
0
 10
118.6304029516795
 20
140.04368873141959
 30
0.0
 40
0.2999999999999545
 50
179.99999999997721
 51
270.00000000001961
  0
ARC
  5
4501E
  8
0
 10
122.3089195515395
 20
140.7436887314224
 30
0.0
 40
1.0000000000026139
 50
270.0
 51
341.00000000000131
  0
LINE
  5
4501F
  8
0
 10
106.9304029516795
 20
140.04368873141971
 30
0.0
 11
109.3304029516796
 21
140.04368873141971
 31
0.0
  0
LINE
  5
45020
  8
0
 10
115.9304029516795
 20
140.04368873141971
 30
0.0
 11
118.3304029516794
 21
140.04368873141971
 31
0.0
  0
LINE
  5
45021
  8
0
 10
101.7866315980268
 20
263.43109668695342
 30
0.0
 11
100.6312757243349
 21
260.07569959099089
 31
0.0
  0
LINE
  5
45022
  8
0
 10
100.6312757243349
 20
144.4116778718487
 30
0.0
 11
102.006367776218
 21
140.41812057696441
 31
0.0
  0
LINE
  5
45023
  8
0
 10
123.2544381271411
 20
140.41812057696441
 30
0.0
 11
124.6295301790242
 21
144.4116778718487
 31
0.0
  0
LINE
  5
45024
  8
0
 10
124.6295301790242
 20
260.07569959099089
 30
0.0
 11
123.4741743053324
 21
263.43109668695342
 31
0.0
  0
ARC
  5
45025
  8
0
 10
103.4678314511204
 20
259.0989951276236
 30
0.0
 40
2.9999999999868692
 50
160.9999999999977
 51
180.0
  0
ARC
  5
45026
  8
0
 10
103.4678314511204
 20
145.38838233521591
 30
0.0
 40
2.9999999999868692
 50
180.0
 51
199.0000000000023
  0
ARC
  5
45027
  8
0
 10
121.7929744522387
 20
259.0989951276236
 30
0.0
 40
2.9999999999868119
 50
0.0
 51
19.000000000002292
  0
ARC
  5
45028
  8
0
 10
121.7929744522387
 20
145.38838233521591
 30
0.0
 40
2.9999999999868119
 50
341.00000000000131
 51
0.0
  0
ARC
  5
45029
  8
0
 10
99.834498117799981
 20
257.76168939900327
 30
0.0
 40
0.6333333333334963
 50
0.0000000000260551
 51
179.99999999997391
  0
ARC
  5
4502A
  8
0
 10
99.834498117799981
 20
146.72568806383629
 30
0.0
 40
0.6333333333334963
 50
180.0000000000195
 51
359.9999999999805
  0
ARC
  5
4502B
  8
0
 10
125.4263077855589
 20
257.76168939900327
 30
0.0
 40
0.6333333333335532
 50
0.0000000000260551
 51
179.99999999997391
  0
ARC
  5
4502C
  8
0
 10
125.4263077855589
 20
146.72568806383629
 30
0.0
 40
0.6333333333335532
 50
180.0000000000195
 51
359.9999999999805
  0
ARC
  5
4502D
  8
0
 10
98.567831451133543
 20
254.08302228728169
 30
0.0
 40
0.6333333333330417
 50
0.0
 51
180.0
  0
ARC
  5
4502E
  8
0
 10
98.567831451133543
 20
150.40435517555781
 30
0.0
 40
0.6333333333330417
 50
180.0
 51
0.0
  0
ARC
  5
4502F
  8
0
 10
126.6929744522256
 20
254.08302228728169
 30
0.0
 40
0.6333333333329847
 50
0.0
 51
180.0
  0
ARC
  5
45030
  8
0
 10
126.6929744522256
 20
150.40435517555781
 30
0.0
 40
0.6333333333329847
 50
180.0
 51
0.0
  0
LINE
  5
45031
  8
0
 10
97.934498117800572
 20
252.24368873141981
 30
0.0
 11
94.04384722488021
 21
240.94441808696189
 31
0.0
  0
LINE
  5
45032
  8
0
 10
94.04384722488021
 20
163.54295937587759
 30
0.0
 11
97.934498117800572
 21
152.24368873141981
 31
0.0
  0
LINE
  5
45033
  8
0
 10
127.3263077855586
 20
152.24368873141981
 30
0.0
 11
131.2169586784789
 21
163.54295937587759
 31
0.0
  0
LINE
  5
45034
  8
0
 10
131.2169586784789
 20
240.94441808696189
 30
0.0
 11
127.3263077855586
 21
252.24368873141981
 31
0.0
  0
ARC
  5
45035
  8
0
 10
96.880402951654574
 20
239.96771362359851
 30
0.0
 40
2.999999999974996
 50
161.00000000000139
 51
180.0
  0
ARC
  5
45036
  8
0
 10
96.880402951654574
 20
164.51966383924099
 30
0.0
 40
2.999999999974996
 50
180.0
 51
199.0000000000023
  0
ARC
  5
45037
  8
0
 10
128.38040295170461
 20
239.9677136235986
 30
0.0
 40
2.9999999999749321
 50
0.0
 51
18.999999999998622
  0
ARC
  5
45038
  8
0
 10
128.38040295170461
 20
164.51966383924099
 30
0.0
 40
2.9999999999749418
 50
341.00000000000131
 51
0.0
  0
LINE
  5
45039
  8
0
 10
93.880402951679571
 20
215.256790676241
 30
0.0
 11
92.051899017317282
 21
215.16096284563071
 31
0.0
  0
LINE
  5
4503A
  8
0
 10
92.051899017317282
 20
189.32641461720871
 30
0.0
 11
93.880402951679571
 21
189.23058678659851
 31
0.0
  0
LINE
  5
4503B
  8
0
 10
131.38040295167951
 20
189.23058678659851
 30
0.0
 11
133.2089068860418
 21
189.32641461720871
 31
0.0
  0
LINE
  5
4503C
  8
0
 10
133.2089068860418
 20
215.16096284563071
 30
0.0
 11
131.38040295167951
 21
215.25679067624091
 31
0.0
  0
ARC
  5
4503D
  8
0
 10
92.130402951681845
 20
213.6630185434968
 30
0.0
 40
1.500000000002216
 50
92.999999999999076
 51
180.0
  0
ARC
  5
4503E
  8
0
 10
92.130402951681845
 20
190.82435891934281
 30
0.0
 40
1.5000000000022411
 50
180.0
 51
267.00000000000091
  0
ARC
  5
4503F
  8
0
 10
133.1304029516773
 20
213.6630185434968
 30
0.0
 40
1.500000000002216
 50
0.0
 51
87.000000000000924
  0
ARC
  5
45040
  8
0
 10
133.1304029516773
 20
190.82435891934281
 30
0.0
 40
1.5000000000022411
 50
272.99999999999909
 51
0.0
  0
LINE
  5
4504C
  8
0
 10
137.1304029516798
 20
268.9436887314198
 30
0.0
 11
131.6304029516796
 21
268.9436887314198
 31
0.0
  0
LINE
  5
4504D
  8
0
 10
93.630402951679571
 20
268.9436887314198
 30
0.0
 11
88.130402951679784
 21
268.9436887314198
 31
0.0
  0
LINE
  5
4504F
  8
0
 10
137.13040295167951
 20
281.9436887314198
 30
0.0
 11
88.130402951679557
 21
281.9436887314198
 31
0.0
  0
LINE
  5
45050
  8
0
 10
93.630402951679571
 20
267.01183707884172
 30
0.0
 11
90.130402951679798
 21
267.01183707884172
 31
0.0
  0
LINE
  5
45052
  8
0
 10
90.130402951679798
 20
255.9436887314198
 30
0.0
 11
88.130402951679784
 21
255.9436887314198
 31
0.0
  0
LINE
  5
45055
  8
0
 10
137.1304029516798
 20
255.9436887314198
 30
0.0
 11
135.1304029516798
 21
255.9436887314198
 31
0.0
  0
LINE
  5
45057
  8
0
 10
135.1304029516798
 20
267.01183707884172
 30
0.0
 11
131.63040295167971
 21
267.01183707884172
 31
0.0
  0
LINE
  5
45058
  8
0
 10
90.130402951679571
 20
203.87050855919671
 30
0.0
 11
88.130402951679557
 21
203.87050855919671
 31
0.0
  0
LINE
  5
45059
  8
0
 10
90.130402951679571
 20
192.24368873141981
 30
0.0
 11
88.130402951679557
 21
192.24368873141981
 31
0.0
  0
LINE
  5
4505C
  8
0
 10
137.13040295167951
 20
192.24368873141981
 30
0.0
 11
135.13040295167951
 21
192.24368873141981
 31
0.0
  0
LINE
  5
4505D
  8
0
 10
137.13040295167951
 20
203.87050855919671
 30
0.0
 11
135.13040295167951
 21
203.87050855919671
 31
0.0
  0
LINE
  5
45060
  8
0
 10
90.130402951679571
 20
192.24368873141981
 30
0.0
 11
90.130402951679571
 21
267.01183707884172
 31
0.0
  0
LINE
  5
45061
  8
0
 10
88.130402951679557
 20
281.9436887314198
 30
0.0
 11
88.130402951679557
 21
192.24368873141981
 31
0.0
  0
LINE
  5
45062
  8
0
 10
135.13040295167951
 20
267.01183707884172
 30
0.0
 11
135.13040295167951
 21
192.24368873141981
 31
0.0
  0
LINE
  5
45063
  8
0
 10
137.13040295167951
 20
281.9436887314198
 30
0.0
 11
137.13040295167951
 21
192.24368873141981
 31
0.0
  0
LINE
  5
45064
  8
0
 10
76.130402951679571
 20
283.94368873141991
 30
0.0
 11
149.13040295167929
 21
283.94368873141991
 31
0.0
  0
LINE
  5
45065
  8
0
 10
80.130402955606314
 20
288.94368873141991
 30
0.0
 11
145.13040295167929
 21
288.94368873141991
 31
0.0
  0
LINE
  5
45066
  8
0
 10
88.130402951679557
 20
195.72114699994481
 30
0.0
 11
88.080121540875098
 21
195.7977026182873
 31
0.0
  0
POLYLINE
  5
45067
  8
0
 10
79.630402951679287
 20
229.41361630044378
 30
0.0
 66
     1
 70
     8
  0
VERTEX
  8
0
  5
45604
 10
79.6304
 20
229.414
 30
0.000000
  70
    32
  0
VERTEX
  8
0
  5
45605
 10
79.6306
 20
229.244
 30
0.000000
  70
    32
  0
VERTEX
  8
0
  5
45606
 10
79.6311
 20
229.074
 30
0.000000
  70
    32
  0
VERTEX
  8
0
  5
45607
 10
79.6321
 20
228.905
 30
0.000000
  70
    32
  0
VERTEX
  8
0
  5
45608
 10
79.6334
 20
228.735
 30
0.000000
  70
    32
  0
VERTEX
  8
0
  5
45609
 10
79.6351
 20
228.566
 30
0.000000
  70
    32
  0
VERTEX
  8
0
  5
4560A
 10
79.6371
 20
228.396
 30
0.000000
  70
    32
  0
VERTEX
  8
0
  5
4560B
 10
79.6395
 20
228.226
 30
0.000000
  70
    32
  0
VERTEX
  8
0
  5
4560C
 10
79.6423
 20
228.057
 30
0.000000
  70
    32
  0
VERTEX
  8
0
  5
4560D
 10
79.6455
 20
227.887
 30
0.000000
  70
    32
  0
VERTEX
  8
0
  5
4560E
 10
79.6490
 20
227.718
 30
0.000000
  70
    32
  0
VERTEX
  8
0
  5
4560F
 10
79.6529
 20
227.548
 30
0.000000
  70
    32
  0
VERTEX
  8
0
  5
45610
 10
79.6572
 20
227.379
 30
0.000000
  70
    32
  0
VERTEX
  8
0
  5
45611
 10
79.6618
 20
227.209
 30
0.000000
  70
    32
  0
VERTEX
  8
0
  5
45612
 10
79.6668
 20
227.040
 30
0.000000
  70
    32
  0
VERTEX
  8
0
  5
45613
 10
79.6722
 20
226.870
 30
0.000000
  70
    32
  0
VERTEX
  8
0
  5
45614
 10
79.6780
 20
226.701
 30
0.000000
  70
    32
  0
VERTEX
  8
0
  5
45615
 10
79.6841
 20
226.531
 30
0.000000
  70
    32
  0
VERTEX
  8
0
  5
45616
 10
79.6906
 20
226.362
 30
0.000000
  70
    32
  0
VERTEX
  8
0
  5
45617
 10
79.6975
 20
226.193
 30
0.000000
  70
    32
  0
VERTEX
  8
0
  5
45618
 10
79.7048
 20
226.024
 30
0.000000
  70
    32
  0
VERTEX
  8
0
  5
45619
 10
79.7124
 20
225.854
 30
0.000000
  70
    32
  0
VERTEX
  8
0
  5
4561A
 10
79.7204
 20
225.685
 30
0.000000
  70
    32
  0
VERTEX
  8
0
  5
4561B
 10
79.7287
 20
225.516
 30
0.000000
  70
    32
  0
VERTEX
  8
0
  5
4561C
 10
79.7375
 20
225.347
 30
0.000000
  70
    32
  0
VERTEX
  8
0
  5
4561D
 10
79.7466
 20
225.178
 30
0.000000
  70
    32
  0
VERTEX
  8
0
  5
4561E
 10
79.7560
 20
225.009
 30
0.000000
  70
    32
  0
VERTEX
  8
0
  5
4561F
 10
79.7659
 20
224.840
 30
0.000000
  70
    32
  0
VERTEX
  8
0
  5
45620
 10
79.7761
 20
224.671
 30
0.000000
  70
    32
  0
VERTEX
  8
0
  5
45621
 10
79.7867
 20
224.502
 30
0.000000
  70
    32
  0
VERTEX
  8
0
  5
45622
 10
79.7976
 20
224.333
 30
0.000000
  70
    32
  0
VERTEX
  8
0
  5
45623
 10
79.8089
 20
224.165
 30
0.000000
  70
    32
  0
VERTEX
  8
0
  5
45624
 10
79.8206
 20
223.996
 30
0.000000
  70
    32
  0
VERTEX
  8
0
  5
45625
 10
79.8327
 20
223.827
 30
0.000000
  70
    32
  0
VERTEX
  8
0
  5
45626
 10
79.8451
 20
223.659
 30
0.000000
  70
    32
  0
VERTEX
  8
0
  5
45627
 10
79.8579
 20
223.490
 30
0.000000
  70
    32
  0
VERTEX
  8
0
  5
45628
 10
79.8711
 20
223.322
 30
0.000000
  70
    32
  0
VERTEX
  8
0
  5
45629
 10
79.8846
 20
223.153
 30
0.000000
  70
    32
  0
VERTEX
  8
0
  5
4562A
 10
79.8985
 20
222.985
 30
0.000000
  70
    32
  0
VERTEX
  8
0
  5
4562B
 10
79.9128
 20
222.817
 30
0.000000
  70
    32
  0
VERTEX
  8
0
  5
4562C
 10
79.9275
 20
222.649
 30
0.000000
  70
    32
  0
VERTEX
  8
0
  5
4562D
 10
79.9425
 20
222.481
 30
0.000000
  70
    32
  0
VERTEX
  8
0
  5
4562E
 10
79.9579
 20
222.313
 30
0.000000
  70
    32
  0
VERTEX
  8
0
  5
4562F
 10
79.9736
 20
222.145
 30
0.000000
  70
    32
  0
VERTEX
  8
0
  5
45630
 10
79.9897
 20
221.977
 30
0.000000
  70
    32
  0
VERTEX
  8
0
  5
45631
 10
80.0062
 20
221.809
 30
0.000000
  70
    32
  0
VERTEX
  8
0
  5
45632
 10
80.0231
 20
221.642
 30
0.000000
  70
    32
  0
VERTEX
  8
0
  5
45633
 10
80.0403
 20
221.474
 30
0.000000
  70
    32
  0
VERTEX
  8
0
  5
45634
 10
80.0579
 20
221.307
 30
0.000000
  70
    32
  0
VERTEX
  8
0
  5
45635
 10
80.0759
 20
221.139
 30
0.000000
  70
    32
  0
VERTEX
  8
0
  5
45636
 10
80.0942
 20
220.972
 30
0.000000
  70
    32
  0
VERTEX
  8
0
  5
45637
 10
80.1129
 20
220.805
 30
0.000000
  70
    32
  0
VERTEX
  8
0
  5
45638
 10
80.1319
 20
220.638
 30
0.000000
  70
    32
  0
VERTEX
  8
0
  5
45639
 10
80.1514
 20
220.471
 30
0.000000
  70
    32
  0
VERTEX
  8
0
  5
4563A
 10
80.1711
 20
220.304
 30
0.000000
  70
    32
  0
VERTEX
  8
0
  5
4563B
 10
80.1913
 20
220.137
 30
0.000000
  70
    32
  0
VERTEX
  8
0
  5
4563C
 10
80.2118
 20
219.970
 30
0.000000
  70
    32
  0
VERTEX
  8
0
  5
4563D
 10
80.2327
 20
219.804
 30
0.000000
  70
    32
  0
VERTEX
  8
0
  5
4563E
 10
80.2540
 20
219.637
 30
0.000000
  70
    32
  0
VERTEX
  8
0
  5
4563F
 10
80.2756
 20
219.471
 30
0.000000
  70
    32
  0
VERTEX
  8
0
  5
45640
 10
80.2976
 20
219.304
 30
0.000000
  70
    32
  0
VERTEX
  8
0
  5
45641
 10
80.3199
 20
219.138
 30
0.000000
  70
    32
  0
VERTEX
  8
0
  5
45642
 10
80.3426
 20
218.972
 30
0.000000
  70
    32
  0
VERTEX
  8
0
  5
45643
 10
80.3657
 20
218.806
 30
0.000000
  70
    32
  0
VERTEX
  8
0
  5
45644
 10
80.3891
 20
218.641
 30
0.000000
  70
    32
  0
VERTEX
  8
0
  5
45645
 10
80.4129
 20
218.475
 30
0.000000
  70
    32
  0
VERTEX
  8
0
  5
45646
 10
80.4371
 20
218.309
 30
0.000000
  70
    32
  0
VERTEX
  8
0
  5
45647
 10
80.4616
 20
218.144
 30
0.000000
  70
    32
  0
VERTEX
  8
0
  5
45648
 10
80.4865
 20
217.979
 30
0.000000
  70
    32
  0
VERTEX
  8
0
  5
45649
 10
80.5118
 20
217.813
 30
0.000000
  70
    32
  0
VERTEX
  8
0
  5
4564A
 10
80.5374
 20
217.648
 30
0.000000
  70
    32
  0
VERTEX
  8
0
  5
4564B
 10
80.5633
 20
217.484
 30
0.000000
  70
    32
  0
VERTEX
  8
0
  5
4564C
 10
80.5897
 20
217.319
 30
0.000000
  70
    32
  0
VERTEX
  8
0
  5
4564D
 10
80.6164
 20
217.154
 30
0.000000
  70
    32
  0
VERTEX
  8
0
  5
4564E
 10
80.6434
 20
216.990
 30
0.000000
  70
    32
  0
VERTEX
  8
0
  5
4564F
 10
80.6709
 20
216.825
 30
0.000000
  70
    32
  0
VERTEX
  8
0
  5
45650
 10
80.6986
 20
216.661
 30
0.000000
  70
    32
  0
VERTEX
  8
0
  5
45651
 10
80.7268
 20
216.497
 30
0.000000
  70
    32
  0
VERTEX
  8
0
  5
45652
 10
80.7553
 20
216.333
 30
0.000000
  70
    32
  0
VERTEX
  8
0
  5
45653
 10
80.7841
 20
216.169
 30
0.000000
  70
    32
  0
VERTEX
  8
0
  5
45654
 10
80.8133
 20
216.006
 30
0.000000
  70
    32
  0
VERTEX
  8
0
  5
45655
 10
80.8429
 20
215.842
 30
0.000000
  70
    32
  0
VERTEX
  8
0
  5
45656
 10
80.8728
 20
215.679
 30
0.000000
  70
    32
  0
VERTEX
  8
0
  5
45657
 10
80.9031
 20
215.516
 30
0.000000
  70
    32
  0
VERTEX
  8
0
  5
45658
 10
80.9338
 20
215.353
 30
0.000000
  70
    32
  0
VERTEX
  8
0
  5
45659
 10
80.9648
 20
215.190
 30
0.000000
  70
    32
  0
VERTEX
  8
0
  5
4565A
 10
80.9962
 20
215.027
 30
0.000000
  70
    32
  0
VERTEX
  8
0
  5
4565B
 10
81.0279
 20
214.865
 30
0.000000
  70
    32
  0
VERTEX
  8
0
  5
4565C
 10
81.0600
 20
214.702
 30
0.000000
  70
    32
  0
VERTEX
  8
0
  5
4565D
 10
81.0924
 20
214.540
 30
0.000000
  70
    32
  0
VERTEX
  8
0
  5
4565E
 10
81.1252
 20
214.378
 30
0.000000
  70
    32
  0
VERTEX
  8
0
  5
4565F
 10
81.1583
 20
214.216
 30
0.000000
  70
    32
  0
VERTEX
  8
0
  5
45660
 10
81.1918
 20
214.054
 30
0.000000
  70
    32
  0
VERTEX
  8
0
  5
45661
 10
81.2257
 20
213.893
 30
0.000000
  70
    32
  0
VERTEX
  8
0
  5
45662
 10
81.2599
 20
213.732
 30
0.000000
  70
    32
  0
VERTEX
  8
0
  5
45663
 10
81.2944
 20
213.570
 30
0.000000
  70
    32
  0
VERTEX
  8
0
  5
45664
 10
81.3293
 20
213.409
 30
0.000000
  70
    32
  0
VERTEX
  8
0
  5
45665
 10
81.3646
 20
213.249
 30
0.000000
  70
    32
  0
VERTEX
  8
0
  5
45666
 10
81.4002
 20
213.088
 30
0.000000
  70
    32
  0
VERTEX
  8
0
  5
45667
 10
81.4362
 20
212.928
 30
0.000000
  70
    32
  0
VERTEX
  8
0
  5
45668
 10
81.4725
 20
212.767
 30
0.000000
  70
    32
  0
VERTEX
  8
0
  5
45669
 10
81.5092
 20
212.607
 30
0.000000
  70
    32
  0
VERTEX
  8
0
  5
4566A
 10
81.5462
 20
212.447
 30
0.000000
  70
    32
  0
VERTEX
  8
0
  5
4566B
 10
81.5836
 20
212.288
 30
0.000000
  70
    32
  0
VERTEX
  8
0
  5
4566C
 10
81.6213
 20
212.128
 30
0.000000
  70
    32
  0
VERTEX
  8
0
  5
4566D
 10
81.6594
 20
211.969
 30
0.000000
  70
    32
  0
VERTEX
  8
0
  5
4566E
 10
81.6978
 20
211.810
 30
0.000000
  70
    32
  0
VERTEX
  8
0
  5
4566F
 10
81.7365
 20
211.651
 30
0.000000
  70
    32
  0
VERTEX
  8
0
  5
45670
 10
81.7757
 20
211.492
 30
0.000000
  70
    32
  0
VERTEX
  8
0
  5
45671
 10
81.8151
 20
211.334
 30
0.000000
  70
    32
  0
VERTEX
  8
0
  5
45672
 10
81.8549
 20
211.175
 30
0.000000
  70
    32
  0
VERTEX
  8
0
  5
45673
 10
81.8951
 20
211.017
 30
0.000000
  70
    32
  0
VERTEX
  8
0
  5
45674
 10
81.9356
 20
210.859
 30
0.000000
  70
    32
  0
VERTEX
  8
0
  5
45675
 10
81.9764
 20
210.702
 30
0.000000
  70
    32
  0
VERTEX
  8
0
  5
45676
 10
82.0176
 20
210.544
 30
0.000000
  70
    32
  0
VERTEX
  8
0
  5
45677
 10
82.0592
 20
210.387
 30
0.000000
  70
    32
  0
VERTEX
  8
0
  5
45678
 10
82.1011
 20
210.230
 30
0.000000
  70
    32
  0
VERTEX
  8
0
  5
45679
 10
82.1433
 20
210.073
 30
0.000000
  70
    32
  0
VERTEX
  8
0
  5
4567A
 10
82.1859
 20
209.917
 30
0.000000
  70
    32
  0
VERTEX
  8
0
  5
4567B
 10
82.2288
 20
209.760
 30
0.000000
  70
    32
  0
VERTEX
  8
0
  5
4567C
 10
82.2721
 20
209.604
 30
0.000000
  70
    32
  0
VERTEX
  8
0
  5
4567D
 10
82.3157
 20
209.448
 30
0.000000
  70
    32
  0
VERTEX
  8
0
  5
4567E
 10
82.3596
 20
209.292
 30
0.000000
  70
    32
  0
VERTEX
  8
0
  5
4567F
 10
82.4039
 20
209.137
 30
0.000000
  70
    32
  0
VERTEX
  8
0
  5
45680
 10
82.4485
 20
208.982
 30
0.000000
  70
    32
  0
VERTEX
  8
0
  5
45681
 10
82.4935
 20
208.827
 30
0.000000
  70
    32
  0
VERTEX
  8
0
  5
45682
 10
82.5388
 20
208.672
 30
0.000000
  70
    32
  0
VERTEX
  8
0
  5
45683
 10
82.5844
 20
208.517
 30
0.000000
  70
    32
  0
VERTEX
  8
0
  5
45684
 10
82.6304
 20
208.363
 30
0.000000
  70
    32
  0
SEQEND
  8
0
  5
45685
  0
POLYLINE
  5
45068
  8
0
 10
142.63040295167949
 20
208.36289977439409
 30
0.0
 66
     1
 70
     8
  0
VERTEX
  8
0
  5
45686
 10
142.630
 20
208.363
 30
0.000000
  70
    32
  0
VERTEX
  8
0
  5
45687
 10
142.676
 20
208.517
 30
0.000000
  70
    32
  0
VERTEX
  8
0
  5
45688
 10
142.722
 20
208.672
 30
0.000000
  70
    32
  0
VERTEX
  8
0
  5
45689
 10
142.767
 20
208.827
 30
0.000000
  70
    32
  0
VERTEX
  8
0
  5
4568A
 10
142.812
 20
208.982
 30
0.000000
  70
    32
  0
VERTEX
  8
0
  5
4568B
 10
142.857
 20
209.137
 30
0.000000
  70
    32
  0
VERTEX
  8
0
  5
4568C
 10
142.901
 20
209.292
 30
0.000000
  70
    32
  0
VERTEX
  8
0
  5
4568D
 10
142.945
 20
209.448
 30
0.000000
  70
    32
  0
VERTEX
  8
0
  5
4568E
 10
142.989
 20
209.604
 30
0.000000
  70
    32
  0
VERTEX
  8
0
  5
4568F
 10
143.032
 20
209.760
 30
0.000000
  70
    32
  0
VERTEX
  8
0
  5
45690
 10
143.075
 20
209.917
 30
0.000000
  70
    32
  0
VERTEX
  8
0
  5
45691
 10
143.118
 20
210.073
 30
0.000000
  70
    32
  0
VERTEX
  8
0
  5
45692
 10
143.160
 20
210.230
 30
0.000000
  70
    32
  0
VERTEX
  8
0
  5
45693
 10
143.202
 20
210.387
 30
0.000000
  70
    32
  0
VERTEX
  8
0
  5
45694
 10
143.243
 20
210.544
 30
0.000000
  70
    32
  0
VERTEX
  8
0
  5
45695
 10
143.284
 20
210.702
 30
0.000000
  70
    32
  0
VERTEX
  8
0
  5
45696
 10
143.325
 20
210.859
 30
0.000000
  70
    32
  0
VERTEX
  8
0
  5
45697
 10
143.366
 20
211.017
 30
0.000000
  70
    32
  0
VERTEX
  8
0
  5
45698
 10
143.406
 20
211.175
 30
0.000000
  70
    32
  0
VERTEX
  8
0
  5
45699
 10
143.446
 20
211.334
 30
0.000000
  70
    32
  0
VERTEX
  8
0
  5
4569A
 10
143.485
 20
211.492
 30
0.000000
  70
    32
  0
VERTEX
  8
0
  5
4569B
 10
143.524
 20
211.651
 30
0.000000
  70
    32
  0
VERTEX
  8
0
  5
4569C
 10
143.563
 20
211.810
 30
0.000000
  70
    32
  0
VERTEX
  8
0
  5
4569D
 10
143.601
 20
211.969
 30
0.000000
  70
    32
  0
VERTEX
  8
0
  5
4569E
 10
143.640
 20
212.128
 30
0.000000
  70
    32
  0
VERTEX
  8
0
  5
4569F
 10
143.677
 20
212.288
 30
0.000000
  70
    32
  0
VERTEX
  8
0
  5
456A0
 10
143.715
 20
212.447
 30
0.000000
  70
    32
  0
VERTEX
  8
0
  5
456A1
 10
143.752
 20
212.607
 30
0.000000
  70
    32
  0
VERTEX
  8
0
  5
456A2
 10
143.788
 20
212.767
 30
0.000000
  70
    32
  0
VERTEX
  8
0
  5
456A3
 10
143.825
 20
212.928
 30
0.000000
  70
    32
  0
VERTEX
  8
0
  5
456A4
 10
143.861
 20
213.088
 30
0.000000
  70
    32
  0
VERTEX
  8
0
  5
456A5
 10
143.896
 20
213.249
 30
0.000000
  70
    32
  0
VERTEX
  8
0
  5
456A6
 10
143.931
 20
213.409
 30
0.000000
  70
    32
  0
VERTEX
  8
0
  5
456A7
 10
143.966
 20
213.570
 30
0.000000
  70
    32
  0
VERTEX
  8
0
  5
456A8
 10
144.001
 20
213.732
 30
0.000000
  70
    32
  0
VERTEX
  8
0
  5
456A9
 10
144.035
 20
213.893
 30
0.000000
  70
    32
  0
VERTEX
  8
0
  5
456AA
 10
144.069
 20
214.054
 30
0.000000
  70
    32
  0
VERTEX
  8
0
  5
456AB
 10
144.102
 20
214.216
 30
0.000000
  70
    32
  0
VERTEX
  8
0
  5
456AC
 10
144.136
 20
214.378
 30
0.000000
  70
    32
  0
VERTEX
  8
0
  5
456AD
 10
144.168
 20
214.540
 30
0.000000
  70
    32
  0
VERTEX
  8
0
  5
456AE
 10
144.201
 20
214.702
 30
0.000000
  70
    32
  0
VERTEX
  8
0
  5
456AF
 10
144.233
 20
214.865
 30
0.000000
  70
    32
  0
VERTEX
  8
0
  5
456B0
 10
144.265
 20
215.027
 30
0.000000
  70
    32
  0
VERTEX
  8
0
  5
456B1
 10
144.296
 20
215.190
 30
0.000000
  70
    32
  0
VERTEX
  8
0
  5
456B2
 10
144.327
 20
215.353
 30
0.000000
  70
    32
  0
VERTEX
  8
0
  5
456B3
 10
144.358
 20
215.516
 30
0.000000
  70
    32
  0
VERTEX
  8
0
  5
456B4
 10
144.388
 20
215.679
 30
0.000000
  70
    32
  0
VERTEX
  8
0
  5
456B5
 10
144.418
 20
215.842
 30
0.000000
  70
    32
  0
VERTEX
  8
0
  5
456B6
 10
144.447
 20
216.006
 30
0.000000
  70
    32
  0
VERTEX
  8
0
  5
456B7
 10
144.477
 20
216.169
 30
0.000000
  70
    32
  0
VERTEX
  8
0
  5
456B8
 10
144.506
 20
216.333
 30
0.000000
  70
    32
  0
VERTEX
  8
0
  5
456B9
 10
144.534
 20
216.497
 30
0.000000
  70
    32
  0
VERTEX
  8
0
  5
456BA
 10
144.562
 20
216.661
 30
0.000000
  70
    32
  0
VERTEX
  8
0
  5
456BB
 10
144.590
 20
216.825
 30
0.000000
  70
    32
  0
VERTEX
  8
0
  5
456BC
 10
144.617
 20
216.990
 30
0.000000
  70
    32
  0
VERTEX
  8
0
  5
456BD
 10
144.644
 20
217.154
 30
0.000000
  70
    32
  0
VERTEX
  8
0
  5
456BE
 10
144.671
 20
217.319
 30
0.000000
  70
    32
  0
VERTEX
  8
0
  5
456BF
 10
144.697
 20
217.484
 30
0.000000
  70
    32
  0
VERTEX
  8
0
  5
456C0
 10
144.723
 20
217.648
 30
0.000000
  70
    32
  0
VERTEX
  8
0
  5
456C1
 10
144.749
 20
217.813
 30
0.000000
  70
    32
  0
VERTEX
  8
0
  5
456C2
 10
144.774
 20
217.979
 30
0.000000
  70
    32
  0
VERTEX
  8
0
  5
456C3
 10
144.799
 20
218.144
 30
0.000000
  70
    32
  0
VERTEX
  8
0
  5
456C4
 10
144.824
 20
218.309
 30
0.000000
  70
    32
  0
VERTEX
  8
0
  5
456C5
 10
144.848
 20
218.475
 30
0.000000
  70
    32
  0
VERTEX
  8
0
  5
456C6
 10
144.872
 20
218.641
 30
0.000000
  70
    32
  0
VERTEX
  8
0
  5
456C7
 10
144.895
 20
218.806
 30
0.000000
  70
    32
  0
VERTEX
  8
0
  5
456C8
 10
144.918
 20
218.972
 30
0.000000
  70
    32
  0
VERTEX
  8
0
  5
456C9
 10
144.941
 20
219.138
 30
0.000000
  70
    32
  0
VERTEX
  8
0
  5
456CA
 10
144.963
 20
219.304
 30
0.000000
  70
    32
  0
VERTEX
  8
0
  5
456CB
 10
144.985
 20
219.471
 30
0.000000
  70
    32
  0
VERTEX
  8
0
  5
456CC
 10
145.007
 20
219.637
 30
0.000000
  70
    32
  0
VERTEX
  8
0
  5
456CD
 10
145.028
 20
219.804
 30
0.000000
  70
    32
  0
VERTEX
  8
0
  5
456CE
 10
145.049
 20
219.970
 30
0.000000
  70
    32
  0
VERTEX
  8
0
  5
456CF
 10
145.070
 20
220.137
 30
0.000000
  70
    32
  0
VERTEX
  8
0
  5
456D0
 10
145.090
 20
220.304
 30
0.000000
  70
    32
  0
VERTEX
  8
0
  5
456D1
 10
145.109
 20
220.471
 30
0.000000
  70
    32
  0
VERTEX
  8
0
  5
456D2
 10
145.129
 20
220.638
 30
0.000000
  70
    32
  0
VERTEX
  8
0
  5
456D3
 10
145.148
 20
220.805
 30
0.000000
  70
    32
  0
VERTEX
  8
0
  5
456D4
 10
145.167
 20
220.972
 30
0.000000
  70
    32
  0
VERTEX
  8
0
  5
456D5
 10
145.185
 20
221.139
 30
0.000000
  70
    32
  0
VERTEX
  8
0
  5
456D6
 10
145.203
 20
221.307
 30
0.000000
  70
    32
  0
VERTEX
  8
0
  5
456D7
 10
145.220
 20
221.474
 30
0.000000
  70
    32
  0
VERTEX
  8
0
  5
456D8
 10
145.238
 20
221.642
 30
0.000000
  70
    32
  0
VERTEX
  8
0
  5
456D9
 10
145.255
 20
221.809
 30
0.000000
  70
    32
  0
VERTEX
  8
0
  5
456DA
 10
145.271
 20
221.977
 30
0.000000
  70
    32
  0
VERTEX
  8
0
  5
456DB
 10
145.287
 20
222.145
 30
0.000000
  70
    32
  0
VERTEX
  8
0
  5
456DC
 10
145.303
 20
222.313
 30
0.000000
  70
    32
  0
VERTEX
  8
0
  5
456DD
 10
145.318
 20
222.481
 30
0.000000
  70
    32
  0
VERTEX
  8
0
  5
456DE
 10
145.333
 20
222.649
 30
0.000000
  70
    32
  0
VERTEX
  8
0
  5
456DF
 10
145.348
 20
222.817
 30
0.000000
  70
    32
  0
VERTEX
  8
0
  5
456E0
 10
145.362
 20
222.985
 30
0.000000
  70
    32
  0
VERTEX
  8
0
  5
456E1
 10
145.376
 20
223.153
 30
0.000000
  70
    32
  0
VERTEX
  8
0
  5
456E2
 10
145.390
 20
223.322
 30
0.000000
  70
    32
  0
VERTEX
  8
0
  5
456E3
 10
145.403
 20
223.490
 30
0.000000
  70
    32
  0
VERTEX
  8
0
  5
456E4
 10
145.416
 20
223.659
 30
0.000000
  70
    32
  0
VERTEX
  8
0
  5
456E5
 10
145.428
 20
223.827
 30
0.000000
  70
    32
  0
VERTEX
  8
0
  5
456E6
 10
145.440
 20
223.996
 30
0.000000
  70
    32
  0
VERTEX
  8
0
  5
456E7
 10
145.452
 20
224.165
 30
0.000000
  70
    32
  0
VERTEX
  8
0
  5
456E8
 10
145.463
 20
224.333
 30
0.000000
  70
    32
  0
VERTEX
  8
0
  5
456E9
 10
145.474
 20
224.502
 30
0.000000
  70
    32
  0
VERTEX
  8
0
  5
456EA
 10
145.485
 20
224.671
 30
0.000000
  70
    32
  0
VERTEX
  8
0
  5
456EB
 10
145.495
 20
224.840
 30
0.000000
  70
    32
  0
VERTEX
  8
0
  5
456EC
 10
145.505
 20
225.009
 30
0.000000
  70
    32
  0
VERTEX
  8
0
  5
456ED
 10
145.514
 20
225.178
 30
0.000000
  70
    32
  0
VERTEX
  8
0
  5
456EE
 10
145.523
 20
225.347
 30
0.000000
  70
    32
  0
VERTEX
  8
0
  5
456EF
 10
145.532
 20
225.516
 30
0.000000
  70
    32
  0
VERTEX
  8
0
  5
456F0
 10
145.540
 20
225.685
 30
0.000000
  70
    32
  0
VERTEX
  8
0
  5
456F1
 10
145.548
 20
225.854
 30
0.000000
  70
    32
  0
VERTEX
  8
0
  5
456F2
 10
145.556
 20
226.024
 30
0.000000
  70
    32
  0
VERTEX
  8
0
  5
456F3
 10
145.563
 20
226.193
 30
0.000000
  70
    32
  0
VERTEX
  8
0
  5
456F4
 10
145.570
 20
226.362
 30
0.000000
  70
    32
  0
VERTEX
  8
0
  5
456F5
 10
145.577
 20
226.531
 30
0.000000
  70
    32
  0
VERTEX
  8
0
  5
456F6
 10
145.583
 20
226.701
 30
0.000000
  70
    32
  0
VERTEX
  8
0
  5
456F7
 10
145.589
 20
226.870
 30
0.000000
  70
    32
  0
VERTEX
  8
0
  5
456F8
 10
145.594
 20
227.040
 30
0.000000
  70
    32
  0
VERTEX
  8
0
  5
456F9
 10
145.599
 20
227.209
 30
0.000000
  70
    32
  0
VERTEX
  8
0
  5
456FA
 10
145.604
 20
227.379
 30
0.000000
  70
    32
  0
VERTEX
  8
0
  5
456FB
 10
145.608
 20
227.548
 30
0.000000
  70
    32
  0
VERTEX
  8
0
  5
456FC
 10
145.612
 20
227.718
 30
0.000000
  70
    32
  0
VERTEX
  8
0
  5
456FD
 10
145.615
 20
227.887
 30
0.000000
  70
    32
  0
VERTEX
  8
0
  5
456FE
 10
145.619
 20
228.057
 30
0.000000
  70
    32
  0
VERTEX
  8
0
  5
456FF
 10
145.621
 20
228.226
 30
0.000000
  70
    32
  0
VERTEX
  8
0
  5
45700
 10
145.624
 20
228.396
 30
0.000000
  70
    32
  0
VERTEX
  8
0
  5
45701
 10
145.626
 20
228.566
 30
0.000000
  70
    32
  0
VERTEX
  8
0
  5
45702
 10
145.627
 20
228.735
 30
0.000000
  70
    32
  0
VERTEX
  8
0
  5
45703
 10
145.629
 20
228.905
 30
0.000000
  70
    32
  0
VERTEX
  8
0
  5
45704
 10
145.630
 20
229.074
 30
0.000000
  70
    32
  0
VERTEX
  8
0
  5
45705
 10
145.630
 20
229.244
 30
0.000000
  70
    32
  0
VERTEX
  8
0
  5
45706
 10
145.630
 20
229.414
 30
0.000000
  70
    32
  0
SEQEND
  8
0
  5
45707
  0
LINE
  5
45069
  8
0
 10
140.65540295167941
 20
292.44368873141991
 30
0.0
 11
84.60540295167948
 21
292.44368873141991
 31
0.0
  0
POLYLINE
  5
4506A
  8
0
 10
135.13040295167934
 20
262.06655964248137
 30
0.0
 66
     1
 70
     8
  0
VERTEX
  8
0
  5
45708
 10
135.130
 20
262.067
 30
0.000000
  70
    32
  0
VERTEX
  8
0
  5
45709
 10
135.104
 20
262.108
 30
0.000000
  70
    32
  0
VERTEX
  8
0
  5
4570A
 10
135.078
 20
262.150
 30
0.000000
  70
    32
  0
VERTEX
  8
0
  5
4570B
 10
135.052
 20
262.192
 30
0.000000
  70
    32
  0
VERTEX
  8
0
  5
4570C
 10
135.026
 20
262.234
 30
0.000000
  70
    32
  0
VERTEX
  8
0
  5
4570D
 10
135.000
 20
262.275
 30
0.000000
  70
    32
  0
VERTEX
  8
0
  5
4570E
 10
134.974
 20
262.317
 30
0.000000
  70
    32
  0
VERTEX
  8
0
  5
4570F
 10
134.948
 20
262.359
 30
0.000000
  70
    32
  0
VERTEX
  8
0
  5
45710
 10
134.922
 20
262.400
 30
0.000000
  70
    32
  0
VERTEX
  8
0
  5
45711
 10
134.896
 20
262.442
 30
0.000000
  70
    32
  0
VERTEX
  8
0
  5
45712
 10
134.869
 20
262.483
 30
0.000000
  70
    32
  0
VERTEX
  8
0
  5
45713
 10
134.843
 20
262.524
 30
0.000000
  70
    32
  0
VERTEX
  8
0
  5
45714
 10
134.817
 20
262.566
 30
0.000000
  70
    32
  0
VERTEX
  8
0
  5
45715
 10
134.791
 20
262.607
 30
0.000000
  70
    32
  0
VERTEX
  8
0
  5
45716
 10
134.764
 20
262.648
 30
0.000000
  70
    32
  0
VERTEX
  8
0
  5
45717
 10
134.738
 20
262.689
 30
0.000000
  70
    32
  0
VERTEX
  8
0
  5
45718
 10
134.711
 20
262.731
 30
0.000000
  70
    32
  0
VERTEX
  8
0
  5
45719
 10
134.685
 20
262.772
 30
0.000000
  70
    32
  0
VERTEX
  8
0
  5
4571A
 10
134.658
 20
262.813
 30
0.000000
  70
    32
  0
VERTEX
  8
0
  5
4571B
 10
134.632
 20
262.854
 30
0.000000
  70
    32
  0
VERTEX
  8
0
  5
4571C
 10
134.605
 20
262.895
 30
0.000000
  70
    32
  0
VERTEX
  8
0
  5
4571D
 10
134.579
 20
262.935
 30
0.000000
  70
    32
  0
VERTEX
  8
0
  5
4571E
 10
134.552
 20
262.976
 30
0.000000
  70
    32
  0
VERTEX
  8
0
  5
4571F
 10
134.525
 20
263.017
 30
0.000000
  70
    32
  0
VERTEX
  8
0
  5
45720
 10
134.499
 20
263.058
 30
0.000000
  70
    32
  0
VERTEX
  8
0
  5
45721
 10
134.472
 20
263.098
 30
0.000000
  70
    32
  0
VERTEX
  8
0
  5
45722
 10
134.445
 20
263.139
 30
0.000000
  70
    32
  0
VERTEX
  8
0
  5
45723
 10
134.418
 20
263.180
 30
0.000000
  70
    32
  0
VERTEX
  8
0
  5
45724
 10
134.392
 20
263.220
 30
0.000000
  70
    32
  0
VERTEX
  8
0
  5
45725
 10
134.365
 20
263.261
 30
0.000000
  70
    32
  0
VERTEX
  8
0
  5
45726
 10
134.338
 20
263.301
 30
0.000000
  70
    32
  0
VERTEX
  8
0
  5
45727
 10
134.311
 20
263.342
 30
0.000000
  70
    32
  0
VERTEX
  8
0
  5
45728
 10
134.284
 20
263.382
 30
0.000000
  70
    32
  0
VERTEX
  8
0
  5
45729
 10
134.257
 20
263.422
 30
0.000000
  70
    32
  0
VERTEX
  8
0
  5
4572A
 10
134.230
 20
263.462
 30
0.000000
  70
    32
  0
VERTEX
  8
0
  5
4572B
 10
134.203
 20
263.503
 30
0.000000
  70
    32
  0
VERTEX
  8
0
  5
4572C
 10
134.176
 20
263.543
 30
0.000000
  70
    32
  0
VERTEX
  8
0
  5
4572D
 10
134.149
 20
263.583
 30
0.000000
  70
    32
  0
VERTEX
  8
0
  5
4572E
 10
134.122
 20
263.623
 30
0.000000
  70
    32
  0
VERTEX
  8
0
  5
4572F
 10
134.094
 20
263.663
 30
0.000000
  70
    32
  0
VERTEX
  8
0
  5
45730
 10
134.067
 20
263.703
 30
0.000000
  70
    32
  0
VERTEX
  8
0
  5
45731
 10
134.040
 20
263.743
 30
0.000000
  70
    32
  0
VERTEX
  8
0
  5
45732
 10
134.013
 20
263.782
 30
0.000000
  70
    32
  0
VERTEX
  8
0
  5
45733
 10
133.985
 20
263.822
 30
0.000000
  70
    32
  0
VERTEX
  8
0
  5
45734
 10
133.958
 20
263.862
 30
0.000000
  70
    32
  0
VERTEX
  8
0
  5
45735
 10
133.931
 20
263.902
 30
0.000000
  70
    32
  0
VERTEX
  8
0
  5
45736
 10
133.903
 20
263.941
 30
0.000000
  70
    32
  0
VERTEX
  8
0
  5
45737
 10
133.876
 20
263.981
 30
0.000000
  70
    32
  0
VERTEX
  8
0
  5
45738
 10
133.848
 20
264.020
 30
0.000000
  70
    32
  0
VERTEX
  8
0
  5
45739
 10
133.821
 20
264.060
 30
0.000000
  70
    32
  0
VERTEX
  8
0
  5
4573A
 10
133.793
 20
264.099
 30
0.000000
  70
    32
  0
VERTEX
  8
0
  5
4573B
 10
133.766
 20
264.139
 30
0.000000
  70
    32
  0
VERTEX
  8
0
  5
4573C
 10
133.738
 20
264.178
 30
0.000000
  70
    32
  0
VERTEX
  8
0
  5
4573D
 10
133.711
 20
264.217
 30
0.000000
  70
    32
  0
VERTEX
  8
0
  5
4573E
 10
133.683
 20
264.256
 30
0.000000
  70
    32
  0
VERTEX
  8
0
  5
4573F
 10
133.655
 20
264.296
 30
0.000000
  70
    32
  0
VERTEX
  8
0
  5
45740
 10
133.628
 20
264.335
 30
0.000000
  70
    32
  0
VERTEX
  8
0
  5
45741
 10
133.600
 20
264.374
 30
0.000000
  70
    32
  0
VERTEX
  8
0
  5
45742
 10
133.572
 20
264.413
 30
0.000000
  70
    32
  0
VERTEX
  8
0
  5
45743
 10
133.544
 20
264.452
 30
0.000000
  70
    32
  0
VERTEX
  8
0
  5
45744
 10
133.516
 20
264.491
 30
0.000000
  70
    32
  0
VERTEX
  8
0
  5
45745
 10
133.488
 20
264.530
 30
0.000000
  70
    32
  0
VERTEX
  8
0
  5
45746
 10
133.461
 20
264.568
 30
0.000000
  70
    32
  0
VERTEX
  8
0
  5
45747
 10
133.433
 20
264.607
 30
0.000000
  70
    32
  0
VERTEX
  8
0
  5
45748
 10
133.405
 20
264.646
 30
0.000000
  70
    32
  0
VERTEX
  8
0
  5
45749
 10
133.377
 20
264.684
 30
0.000000
  70
    32
  0
VERTEX
  8
0
  5
4574A
 10
133.349
 20
264.723
 30
0.000000
  70
    32
  0
VERTEX
  8
0
  5
4574B
 10
133.321
 20
264.762
 30
0.000000
  70
    32
  0
VERTEX
  8
0
  5
4574C
 10
133.293
 20
264.800
 30
0.000000
  70
    32
  0
VERTEX
  8
0
  5
4574D
 10
133.264
 20
264.839
 30
0.000000
  70
    32
  0
VERTEX
  8
0
  5
4574E
 10
133.236
 20
264.877
 30
0.000000
  70
    32
  0
VERTEX
  8
0
  5
4574F
 10
133.208
 20
264.915
 30
0.000000
  70
    32
  0
VERTEX
  8
0
  5
45750
 10
133.180
 20
264.954
 30
0.000000
  70
    32
  0
VERTEX
  8
0
  5
45751
 10
133.152
 20
264.992
 30
0.000000
  70
    32
  0
VERTEX
  8
0
  5
45752
 10
133.123
 20
265.030
 30
0.000000
  70
    32
  0
VERTEX
  8
0
  5
45753
 10
133.095
 20
265.068
 30
0.000000
  70
    32
  0
VERTEX
  8
0
  5
45754
 10
133.067
 20
265.106
 30
0.000000
  70
    32
  0
VERTEX
  8
0
  5
45755
 10
133.038
 20
265.144
 30
0.000000
  70
    32
  0
VERTEX
  8
0
  5
45756
 10
133.010
 20
265.182
 30
0.000000
  70
    32
  0
VERTEX
  8
0
  5
45757
 10
132.982
 20
265.220
 30
0.000000
  70
    32
  0
VERTEX
  8
0
  5
45758
 10
132.953
 20
265.258
 30
0.000000
  70
    32
  0
VERTEX
  8
0
  5
45759
 10
132.925
 20
265.296
 30
0.000000
  70
    32
  0
VERTEX
  8
0
  5
4575A
 10
132.896
 20
265.333
 30
0.000000
  70
    32
  0
VERTEX
  8
0
  5
4575B
 10
132.868
 20
265.371
 30
0.000000
  70
    32
  0
VERTEX
  8
0
  5
4575C
 10
132.839
 20
265.409
 30
0.000000
  70
    32
  0
VERTEX
  8
0
  5
4575D
 10
132.811
 20
265.446
 30
0.000000
  70
    32
  0
VERTEX
  8
0
  5
4575E
 10
132.782
 20
265.484
 30
0.000000
  70
    32
  0
VERTEX
  8
0
  5
4575F
 10
132.753
 20
265.521
 30
0.000000
  70
    32
  0
VERTEX
  8
0
  5
45760
 10
132.725
 20
265.559
 30
0.000000
  70
    32
  0
VERTEX
  8
0
  5
45761
 10
132.696
 20
265.596
 30
0.000000
  70
    32
  0
VERTEX
  8
0
  5
45762
 10
132.667
 20
265.634
 30
0.000000
  70
    32
  0
VERTEX
  8
0
  5
45763
 10
132.638
 20
265.671
 30
0.000000
  70
    32
  0
VERTEX
  8
0
  5
45764
 10
132.610
 20
265.708
 30
0.000000
  70
    32
  0
VERTEX
  8
0
  5
45765
 10
132.581
 20
265.745
 30
0.000000
  70
    32
  0
VERTEX
  8
0
  5
45766
 10
132.552
 20
265.782
 30
0.000000
  70
    32
  0
VERTEX
  8
0
  5
45767
 10
132.523
 20
265.819
 30
0.000000
  70
    32
  0
VERTEX
  8
0
  5
45768
 10
132.494
 20
265.856
 30
0.000000
  70
    32
  0
VERTEX
  8
0
  5
45769
 10
132.465
 20
265.893
 30
0.000000
  70
    32
  0
VERTEX
  8
0
  5
4576A
 10
132.436
 20
265.930
 30
0.000000
  70
    32
  0
VERTEX
  8
0
  5
4576B
 10
132.407
 20
265.967
 30
0.000000
  70
    32
  0
VERTEX
  8
0
  5
4576C
 10
132.378
 20
266.004
 30
0.000000
  70
    32
  0
VERTEX
  8
0
  5
4576D
 10
132.349
 20
266.041
 30
0.000000
  70
    32
  0
VERTEX
  8
0
  5
4576E
 10
132.320
 20
266.077
 30
0.000000
  70
    32
  0
VERTEX
  8
0
  5
4576F
 10
132.291
 20
266.114
 30
0.000000
  70
    32
  0
VERTEX
  8
0
  5
45770
 10
132.262
 20
266.150
 30
0.000000
  70
    32
  0
VERTEX
  8
0
  5
45771
 10
132.232
 20
266.187
 30
0.000000
  70
    32
  0
VERTEX
  8
0
  5
45772
 10
132.203
 20
266.223
 30
0.000000
  70
    32
  0
VERTEX
  8
0
  5
45773
 10
132.174
 20
266.260
 30
0.000000
  70
    32
  0
VERTEX
  8
0
  5
45774
 10
132.145
 20
266.296
 30
0.000000
  70
    32
  0
VERTEX
  8
0
  5
45775
 10
132.115
 20
266.333
 30
0.000000
  70
    32
  0
VERTEX
  8
0
  5
45776
 10
132.086
 20
266.369
 30
0.000000
  70
    32
  0
VERTEX
  8
0
  5
45777
 10
132.057
 20
266.405
 30
0.000000
  70
    32
  0
VERTEX
  8
0
  5
45778
 10
132.027
 20
266.441
 30
0.000000
  70
    32
  0
VERTEX
  8
0
  5
45779
 10
131.998
 20
266.477
 30
0.000000
  70
    32
  0
VERTEX
  8
0
  5
4577A
 10
131.968
 20
266.513
 30
0.000000
  70
    32
  0
VERTEX
  8
0
  5
4577B
 10
131.939
 20
266.549
 30
0.000000
  70
    32
  0
VERTEX
  8
0
  5
4577C
 10
131.910
 20
266.585
 30
0.000000
  70
    32
  0
VERTEX
  8
0
  5
4577D
 10
131.880
 20
266.621
 30
0.000000
  70
    32
  0
VERTEX
  8
0
  5
4577E
 10
131.850
 20
266.657
 30
0.000000
  70
    32
  0
VERTEX
  8
0
  5
4577F
 10
131.821
 20
266.693
 30
0.000000
  70
    32
  0
VERTEX
  8
0
  5
45780
 10
131.791
 20
266.728
 30
0.000000
  70
    32
  0
VERTEX
  8
0
  5
45781
 10
131.762
 20
266.764
 30
0.000000
  70
    32
  0
VERTEX
  8
0
  5
45782
 10
131.732
 20
266.799
 30
0.000000
  70
    32
  0
VERTEX
  8
0
  5
45783
 10
131.702
 20
266.835
 30
0.000000
  70
    32
  0
VERTEX
  8
0
  5
45784
 10
131.672
 20
266.870
 30
0.000000
  70
    32
  0
VERTEX
  8
0
  5
45785
 10
131.643
 20
266.906
 30
0.000000
  70
    32
  0
VERTEX
  8
0
  5
45786
 10
131.613
 20
266.941
 30
0.000000
  70
    32
  0
VERTEX
  8
0
  5
45787
 10
131.583
 20
266.977
 30
0.000000
  70
    32
  0
VERTEX
  8
0
  5
45788
 10
131.553
 20
267.012
 30
0.000000
  70
    32
  0
SEQEND
  8
0
  5
45789
  0
POLYLINE
  5
4506B
  8
0
 10
93.707508747385461
 20
267.01183707884161
 30
0.0
 66
     1
 70
     8
  0
VERTEX
  8
0
  5
4578A
 10
93.7075
 20
267.012
 30
0.000000
  70
    32
  0
VERTEX
  8
0
  5
4578B
 10
93.6777
 20
266.977
 30
0.000000
  70
    32
  0
VERTEX
  8
0
  5
4578C
 10
93.6479
 20
266.941
 30
0.000000
  70
    32
  0
VERTEX
  8
0
  5
4578D
 10
93.6181
 20
266.906
 30
0.000000
  70
    32
  0
VERTEX
  8
0
  5
4578E
 10
93.5883
 20
266.870
 30
0.000000
  70
    32
  0
VERTEX
  8
0
  5
4578F
 10
93.5586
 20
266.835
 30
0.000000
  70
    32
  0
VERTEX
  8
0
  5
45790
 10
93.5289
 20
266.799
 30
0.000000
  70
    32
  0
VERTEX
  8
0
  5
45791
 10
93.4992
 20
266.764
 30
0.000000
  70
    32
  0
VERTEX
  8
0
  5
45792
 10
93.4696
 20
266.728
 30
0.000000
  70
    32
  0
VERTEX
  8
0
  5
45793
 10
93.4400
 20
266.693
 30
0.000000
  70
    32
  0
VERTEX
  8
0
  5
45794
 10
93.4104
 20
266.657
 30
0.000000
  70
    32
  0
VERTEX
  8
0
  5
45795
 10
93.3808
 20
266.621
 30
0.000000
  70
    32
  0
VERTEX
  8
0
  5
45796
 10
93.3513
 20
266.585
 30
0.000000
  70
    32
  0
VERTEX
  8
0
  5
45797
 10
93.3218
 20
266.549
 30
0.000000
  70
    32
  0
VERTEX
  8
0
  5
45798
 10
93.2923
 20
266.513
 30
0.000000
  70
    32
  0
VERTEX
  8
0
  5
45799
 10
93.2629
 20
266.477
 30
0.000000
  70
    32
  0
VERTEX
  8
0
  5
4579A
 10
93.2335
 20
266.441
 30
0.000000
  70
    32
  0
VERTEX
  8
0
  5
4579B
 10
93.2041
 20
266.405
 30
0.000000
  70
    32
  0
VERTEX
  8
0
  5
4579C
 10
93.1747
 20
266.369
 30
0.000000
  70
    32
  0
VERTEX
  8
0
  5
4579D
 10
93.1454
 20
266.333
 30
0.000000
  70
    32
  0
VERTEX
  8
0
  5
4579E
 10
93.1161
 20
266.296
 30
0.000000
  70
    32
  0
VERTEX
  8
0
  5
4579F
 10
93.0868
 20
266.260
 30
0.000000
  70
    32
  0
VERTEX
  8
0
  5
457A0
 10
93.0576
 20
266.223
 30
0.000000
  70
    32
  0
VERTEX
  8
0
  5
457A1
 10
93.0284
 20
266.187
 30
0.000000
  70
    32
  0
VERTEX
  8
0
  5
457A2
 10
92.9992
 20
266.150
 30
0.000000
  70
    32
  0
VERTEX
  8
0
  5
457A3
 10
92.9700
 20
266.114
 30
0.000000
  70
    32
  0
VERTEX
  8
0
  5
457A4
 10
92.9409
 20
266.077
 30
0.000000
  70
    32
  0
VERTEX
  8
0
  5
457A5
 10
92.9118
 20
266.041
 30
0.000000
  70
    32
  0
VERTEX
  8
0
  5
457A6
 10
92.8827
 20
266.004
 30
0.000000
  70
    32
  0
VERTEX
  8
0
  5
457A7
 10
92.8537
 20
265.967
 30
0.000000
  70
    32
  0
VERTEX
  8
0
  5
457A8
 10
92.8247
 20
265.930
 30
0.000000
  70
    32
  0
VERTEX
  8
0
  5
457A9
 10
92.7957
 20
265.893
 30
0.000000
  70
    32
  0
VERTEX
  8
0
  5
457AA
 10
92.7668
 20
265.856
 30
0.000000
  70
    32
  0
VERTEX
  8
0
  5
457AB
 10
92.7379
 20
265.819
 30
0.000000
  70
    32
  0
VERTEX
  8
0
  5
457AC
 10
92.7090
 20
265.782
 30
0.000000
  70
    32
  0
VERTEX
  8
0
  5
457AD
 10
92.6801
 20
265.745
 30
0.000000
  70
    32
  0
VERTEX
  8
0
  5
457AE
 10
92.6513
 20
265.708
 30
0.000000
  70
    32
  0
VERTEX
  8
0
  5
457AF
 10
92.6225
 20
265.671
 30
0.000000
  70
    32
  0
VERTEX
  8
0
  5
457B0
 10
92.5937
 20
265.634
 30
0.000000
  70
    32
  0
VERTEX
  8
0
  5
457B1
 10
92.5649
 20
265.596
 30
0.000000
  70
    32
  0
VERTEX
  8
0
  5
457B2
 10
92.5362
 20
265.559
 30
0.000000
  70
    32
  0
VERTEX
  8
0
  5
457B3
 10
92.5075
 20
265.521
 30
0.000000
  70
    32
  0
VERTEX
  8
0
  5
457B4
 10
92.4789
 20
265.484
 30
0.000000
  70
    32
  0
VERTEX
  8
0
  5
457B5
 10
92.4503
 20
265.446
 30
0.000000
  70
    32
  0
VERTEX
  8
0
  5
457B6
 10
92.4217
 20
265.409
 30
0.000000
  70
    32
  0
VERTEX
  8
0
  5
457B7
 10
92.3931
 20
265.371
 30
0.000000
  70
    32
  0
VERTEX
  8
0
  5
457B8
 10
92.3646
 20
265.333
 30
0.000000
  70
    32
  0
VERTEX
  8
0
  5
457B9
 10
92.3361
 20
265.296
 30
0.000000
  70
    32
  0
VERTEX
  8
0
  5
457BA
 10
92.3076
 20
265.258
 30
0.000000
  70
    32
  0
VERTEX
  8
0
  5
457BB
 10
92.2791
 20
265.220
 30
0.000000
  70
    32
  0
VERTEX
  8
0
  5
457BC
 10
92.2507
 20
265.182
 30
0.000000
  70
    32
  0
VERTEX
  8
0
  5
457BD
 10
92.2223
 20
265.144
 30
0.000000
  70
    32
  0
VERTEX
  8
0
  5
457BE
 10
92.1940
 20
265.106
 30
0.000000
  70
    32
  0
VERTEX
  8
0
  5
457BF
 10
92.1657
 20
265.068
 30
0.000000
  70
    32
  0
VERTEX
  8
0
  5
457C0
 10
92.1374
 20
265.030
 30
0.000000
  70
    32
  0
VERTEX
  8
0
  5
457C1
 10
92.1091
 20
264.992
 30
0.000000
  70
    32
  0
VERTEX
  8
0
  5
457C2
 10
92.0809
 20
264.954
 30
0.000000
  70
    32
  0
VERTEX
  8
0
  5
457C3
 10
92.0527
 20
264.915
 30
0.000000
  70
    32
  0
VERTEX
  8
0
  5
457C4
 10
92.0245
 20
264.877
 30
0.000000
  70
    32
  0
VERTEX
  8
0
  5
457C5
 10
91.9964
 20
264.839
 30
0.000000
  70
    32
  0
VERTEX
  8
0
  5
457C6
 10
91.9682
 20
264.800
 30
0.000000
  70
    32
  0
VERTEX
  8
0
  5
457C7
 10
91.9402
 20
264.762
 30
0.000000
  70
    32
  0
VERTEX
  8
0
  5
457C8
 10
91.9121
 20
264.723
 30
0.000000
  70
    32
  0
VERTEX
  8
0
  5
457C9
 10
91.8841
 20
264.684
 30
0.000000
  70
    32
  0
VERTEX
  8
0
  5
457CA
 10
91.8561
 20
264.646
 30
0.000000
  70
    32
  0
VERTEX
  8
0
  5
457CB
 10
91.8281
 20
264.607
 30
0.000000
  70
    32
  0
VERTEX
  8
0
  5
457CC
 10
91.8002
 20
264.568
 30
0.000000
  70
    32
  0
VERTEX
  8
0
  5
457CD
 10
91.7723
 20
264.530
 30
0.000000
  70
    32
  0
VERTEX
  8
0
  5
457CE
 10
91.7444
 20
264.491
 30
0.000000
  70
    32
  0
VERTEX
  8
0
  5
457CF
 10
91.7166
 20
264.452
 30
0.000000
  70
    32
  0
VERTEX
  8
0
  5
457D0
 10
91.6888
 20
264.413
 30
0.000000
  70
    32
  0
VERTEX
  8
0
  5
457D1
 10
91.6610
 20
264.374
 30
0.000000
  70
    32
  0
VERTEX
  8
0
  5
457D2
 10
91.6333
 20
264.335
 30
0.000000
  70
    32
  0
VERTEX
  8
0
  5
457D3
 10
91.6056
 20
264.296
 30
0.000000
  70
    32
  0
VERTEX
  8
0
  5
457D4
 10
91.5779
 20
264.256
 30
0.000000
  70
    32
  0
VERTEX
  8
0
  5
457D5
 10
91.5502
 20
264.217
 30
0.000000
  70
    32
  0
VERTEX
  8
0
  5
457D6
 10
91.5226
 20
264.178
 30
0.000000
  70
    32
  0
VERTEX
  8
0
  5
457D7
 10
91.4950
 20
264.139
 30
0.000000
  70
    32
  0
VERTEX
  8
0
  5
457D8
 10
91.4675
 20
264.099
 30
0.000000
  70
    32
  0
VERTEX
  8
0
  5
457D9
 10
91.4400
 20
264.060
 30
0.000000
  70
    32
  0
VERTEX
  8
0
  5
457DA
 10
91.4125
 20
264.020
 30
0.000000
  70
    32
  0
VERTEX
  8
0
  5
457DB
 10
91.3850
 20
263.981
 30
0.000000
  70
    32
  0
VERTEX
  8
0
  5
457DC
 10
91.3576
 20
263.941
 30
0.000000
  70
    32
  0
VERTEX
  8
0
  5
457DD
 10
91.3302
 20
263.902
 30
0.000000
  70
    32
  0
VERTEX
  8
0
  5
457DE
 10
91.3028
 20
263.862
 30
0.000000
  70
    32
  0
VERTEX
  8
0
  5
457DF
 10
91.2755
 20
263.822
 30
0.000000
  70
    32
  0
VERTEX
  8
0
  5
457E0
 10
91.2482
 20
263.782
 30
0.000000
  70
    32
  0
VERTEX
  8
0
  5
457E1
 10
91.2209
 20
263.743
 30
0.000000
  70
    32
  0
VERTEX
  8
0
  5
457E2
 10
91.1937
 20
263.703
 30
0.000000
  70
    32
  0
VERTEX
  8
0
  5
457E3
 10
91.1664
 20
263.663
 30
0.000000
  70
    32
  0
VERTEX
  8
0
  5
457E4
 10
91.1393
 20
263.623
 30
0.000000
  70
    32
  0
VERTEX
  8
0
  5
457E5
 10
91.1121
 20
263.583
 30
0.000000
  70
    32
  0
VERTEX
  8
0
  5
457E6
 10
91.0850
 20
263.543
 30
0.000000
  70
    32
  0
VERTEX
  8
0
  5
457E7
 10
91.0579
 20
263.503
 30
0.000000
  70
    32
  0
VERTEX
  8
0
  5
457E8
 10
91.0309
 20
263.462
 30
0.000000
  70
    32
  0
VERTEX
  8
0
  5
457E9
 10
91.0039
 20
263.422
 30
0.000000
  70
    32
  0
VERTEX
  8
0
  5
457EA
 10
90.9769
 20
263.382
 30
0.000000
  70
    32
  0
VERTEX
  8
0
  5
457EB
 10
90.9499
 20
263.342
 30
0.000000
  70
    32
  0
VERTEX
  8
0
  5
457EC
 10
90.9230
 20
263.301
 30
0.000000
  70
    32
  0
VERTEX
  8
0
  5
457ED
 10
90.8961
 20
263.261
 30
0.000000
  70
    32
  0
VERTEX
  8
0
  5
457EE
 10
90.8692
 20
263.220
 30
0.000000
  70
    32
  0
VERTEX
  8
0
  5
457EF
 10
90.8424
 20
263.180
 30
0.000000
  70
    32
  0
VERTEX
  8
0
  5
457F0
 10
90.8156
 20
263.139
 30
0.000000
  70
    32
  0
VERTEX
  8
0
  5
457F1
 10
90.7889
 20
263.098
 30
0.000000
  70
    32
  0
VERTEX
  8
0
  5
457F2
 10
90.7621
 20
263.058
 30
0.000000
  70
    32
  0
VERTEX
  8
0
  5
457F3
 10
90.7354
 20
263.017
 30
0.000000
  70
    32
  0
VERTEX
  8
0
  5
457F4
 10
90.7088
 20
262.976
 30
0.000000
  70
    32
  0
VERTEX
  8
0
  5
457F5
 10
90.6821
 20
262.935
 30
0.000000
  70
    32
  0
VERTEX
  8
0
  5
457F6
 10
90.6555
 20
262.895
 30
0.000000
  70
    32
  0
VERTEX
  8
0
  5
457F7
 10
90.6290
 20
262.854
 30
0.000000
  70
    32
  0
VERTEX
  8
0
  5
457F8
 10
90.6024
 20
262.813
 30
0.000000
  70
    32
  0
VERTEX
  8
0
  5
457F9
 10
90.5759
 20
262.772
 30
0.000000
  70
    32
  0
VERTEX
  8
0
  5
457FA
 10
90.5495
 20
262.731
 30
0.000000
  70
    32
  0
VERTEX
  8
0
  5
457FB
 10
90.5230
 20
262.689
 30
0.000000
  70
    32
  0
VERTEX
  8
0
  5
457FC
 10
90.4966
 20
262.648
 30
0.000000
  70
    32
  0
VERTEX
  8
0
  5
457FD
 10
90.4702
 20
262.607
 30
0.000000
  70
    32
  0
VERTEX
  8
0
  5
457FE
 10
90.4439
 20
262.566
 30
0.000000
  70
    32
  0
VERTEX
  8
0
  5
457FF
 10
90.4176
 20
262.524
 30
0.000000
  70
    32
  0
VERTEX
  8
0
  5
45800
 10
90.3913
 20
262.483
 30
0.000000
  70
    32
  0
VERTEX
  8
0
  5
45801
 10
90.3651
 20
262.442
 30
0.000000
  70
    32
  0
VERTEX
  8
0
  5
45802
 10
90.3389
 20
262.400
 30
0.000000
  70
    32
  0
VERTEX
  8
0
  5
45803
 10
90.3127
 20
262.359
 30
0.000000
  70
    32
  0
VERTEX
  8
0
  5
45804
 10
90.2866
 20
262.317
 30
0.000000
  70
    32
  0
VERTEX
  8
0
  5
45805
 10
90.2605
 20
262.275
 30
0.000000
  70
    32
  0
VERTEX
  8
0
  5
45806
 10
90.2344
 20
262.234
 30
0.000000
  70
    32
  0
VERTEX
  8
0
  5
45807
 10
90.2083
 20
262.192
 30
0.000000
  70
    32
  0
VERTEX
  8
0
  5
45808
 10
90.1823
 20
262.150
 30
0.000000
  70
    32
  0
VERTEX
  8
0
  5
45809
 10
90.1563
 20
262.108
 30
0.000000
  70
    32
  0
VERTEX
  8
0
  5
4580A
 10
90.1304
 20
262.067
 30
0.000000
  70
    32
  0
SEQEND
  8
0
  5
4580B
  0
LINE
  5
4506D
  8
0
 10
82.630402951679571
 20
208.50202206475299
 30
0.0
 11
82.630402951679571
 21
195.9853553980866
 31
0.0
  0
ARC
  5
4506E
  8
0
 10
102.6281578950238
 20
205.49561412263051
 30
0.0
 40
19.929472806282391
 50
170.60896040911479
 51
189.39103959088521
  0
ARC
  5
4506F
  8
0
 10
102.84341381322059
 20
198.99176334020899
 30
0.0
 40
20.14187442291864
 50
170.7088736006213
 51
189.29112639937861
  0
LINE
  5
45071
  8
0
 10
82.965786024205514
 20
208.74753951384091
 30
0.0
 11
82.721208238564017
 21
208.74753951384091
 31
0.0
  0
ARC
  5
45072
  8
0
 10
68.134726693082484
 20
205.49561412263029
 30
0.0
 40
19.92742198359533
 50
350.60798518393432
 51
9.3920148160656822
  0
LINE
  5
45073
  8
0
 10
82.965786024205514
 20
202.24368873141981
 30
0.0
 11
87.795019879153656
 21
202.24368873141981
 31
0.0
  0
LINE
  5
45074
  8
0
 10
82.965786024205514
 20
208.74753951384091
 30
0.0
 11
87.795019879153656
 21
208.74753951384091
 31
0.0
  0
ARC
  5
45075
  8
0
 10
67.920519868507881
 20
198.99176334020919
 30
0.0
 40
20.138787685040992
 50
350.70743690102807
 51
9.2925630989718471
  0
LINE
  5
45076
  8
0
 10
82.696189153890359
 20
195.73983794899871
 30
0.0
 11
88.064616749468769
 21
195.73983794899871
 31
0.0
  0
LINE
  5
45078
  8
0
 10
88.036799838678689
 20
208.74753951384091
 30
0.0
 11
87.795019879153656
 21
208.74753951384091
 31
0.0
  0
ARC
  5
45079
  8
0
 10
122.43345050072161
 20
198.99368873141981
 30
0.0
 40
20.126891642286939
 50
350.70744979238179
 51
9.2925502076212894
  0
LINE
  5
4507A
  8
0
 10
137.13040295167951
 20
195.74368873141981
 30
0.0
 11
142.5656485635086
 21
195.74368873141981
 31
0.0
  0
LINE
  5
4507B
  8
0
 10
137.13040295167951
 20
202.24368873141981
 30
0.0
 11
142.29621131538079
 21
202.24368873141981
 31
0.0
  0
ARC
  5
4507C
  8
0
 10
122.6475591916505
 20
205.49368873141981
 30
0.0
 40
19.915622769056579
 50
350.60798487923961
 51
9.3920151207604263
  0
LINE
  5
4507D
  8
0
 10
137.13040295167951
 20
208.74368873141981
 30
0.0
 11
142.29621131538079
 21
208.74368873141981
 31
0.0
  0
LINE
  5
4507E
  8
0
 10
142.63040295167951
 20
208.50202206475299
 30
0.0
 11
142.63040295167951
 21
195.9853553980866
 31
0.0
  0
LINE
  5
45080
  8
0
 10
142.53785025493329
 20
208.74368873141981
 30
0.0
 11
142.29621131538079
 21
208.74368873141981
 31
0.0
  0
LINE
  5
45081
  8
0
 10
80.130402951679571
 20
208.05868873141989
 30
0.0
 11
80.130402951679571
 21
196.4286887314197
 31
0.0
  0
LINE
  5
45083
  8
0
 10
106.9304029516796
 20
263.43109668695342
 30
0.0
 11
106.9304029516795
 21
140.04368873141971
 31
0.0
  0
LINE
  5
45084
  8
0
 10
109.3304029516795
 20
263.43109668695342
 30
0.0
 11
109.3304029516796
 21
140.04368873141971
 31
0.0
  0
LINE
  5
45085
  8
0
 10
115.9304029516795
 20
263.43109668695342
 30
0.0
 11
115.9304029516795
 21
140.04368873141971
 31
0.0
  0
LINE
  5
45086
  8
0
 10
118.3304029516796
 20
263.43109668695342
 30
0.0
 11
118.3304029516794
 21
140.04368873141971
 31
0.0
  0
LINE
  5
45087
  8
0
 10
100.46783145113341
 20
259.0989951276236
 30
0.0
 11
100.46783145113341
 21
145.38838233521591
 31
0.0
  0
LINE
  5
45088
  8
0
 10
124.79297445222549
 20
259.0989951276236
 30
0.0
 11
124.79297445222549
 21
145.38838233521591
 31
0.0
  0
LINE
  5
45089
  8
0
 10
99.201164784466528
 20
257.7616893990039
 30
0.0
 11
99.201164784466528
 21
146.72568806383569
 31
0.0
  0
LINE
  5
4508A
  8
0
 10
126.0596411188926
 20
257.76168939900379
 30
0.0
 11
126.0596411188926
 21
146.72568806383569
 31
0.0
  0
LINE
  5
4508B
  8
0
 10
97.934498117800572
 20
254.08302228728169
 30
0.0
 11
97.934498117800572
 21
150.40435517555781
 31
0.0
  0
LINE
  5
4508C
  8
0
 10
127.3263077855586
 20
254.08302228728169
 30
0.0
 11
127.3263077855586
 21
150.40435517555781
 31
0.0
  0
LINE
  5
4508D
  8
0
 10
93.880402951679571
 20
239.96771362359851
 30
0.0
 11
93.880402951679571
 21
164.51966383924099
 31
0.0
  0
LINE
  5
4508E
  8
0
 10
131.38040295167951
 20
239.9677136235986
 30
0.0
 11
131.38040295167951
 21
164.51966383924099
 31
0.0
  0
LINE
  5
4508F
  8
0
 10
90.630402951679557
 20
213.6630185434968
 30
0.0
 11
90.630402951679557
 21
190.82435891934281
 31
0.0
  0
LINE
  5
45090
  8
0
 10
134.6304029516796
 20
213.6630185434968
 30
0.0
 11
134.6304029516796
 21
190.82435891934281
 31
0.0
  0
LINE
  5
4509F
  8
0
 10
92.051899017317282
 20
215.16096284563071
 30
0.0
 11
92.051899017317282
 21
189.32641461720871
 31
0.0
  0
LINE
  5
450A0
  8
0
 10
133.2089068860418
 20
215.16096284563071
 30
0.0
 11
133.2089068860418
 21
189.32641461720871
 31
0.0
  0
LINE
  5
450A1
  8
0
 10
333.74775161227598
 20
464.43713441193472
 30
0.0
 11
332.4960849456092
 21
464.77251748446059
 31
0.0
  0
LINE
  5
450A2
  8
0
 10
319.97941827894277
 20
464.77251748446059
 30
0.0
 11
318.72775161227599
 21
464.43713441193472
 31
0.0
  0
LINE
  5
450A3
  8
0
 10
318.72775161227599
 20
459.60790055698658
 30
0.0
 11
319.97941827894277
 21
459.27251748446059
 31
0.0
  0
LINE
  5
450A4
  8
0
 10
332.4960849456092
 20
459.27251748446059
 30
0.0
 11
333.74775161227598
 21
459.60790055698658
 31
0.0
  0
LINE
  5
450A5
  8
0
 10
318.73219811281092
 20
405.10670912075949
 30
0.0
 11
319.97941827894277
 21
404.77251748446059
 31
0.0
  0
LINE
  5
450A6
  8
0
 10
332.4960849456092
 20
404.77251748446059
 30
0.0
 11
333.74330511174111
 21
405.10670912075949
 31
0.0
  0
LINE
  5
450A7
  8
0
 10
332.0527516122761
 20
464.77251748446059
 30
0.0
 11
332.0527516122761
 21
467.27251748446071
 31
0.0
  0
LINE
  5
450A8
  8
0
 10
320.42275161227599
 20
467.27251748446071
 30
0.0
 11
320.42275161227599
 21
464.77251748446059
 31
0.0
  0
CIRCLE
  5
450B1
  8
0
 10
363.23775161227599
 20
434.77251748446031
 30
0.0
 40
6.0000000000000284
  0
CIRCLE
  5
450B2
  8
0
 10
363.23775161227599
 20
434.77251748446031
 30
0.0
 40
11.0
  0
CIRCLE
  5
450B3
  8
0
 10
363.23775161227599
 20
434.77251748446042
 30
0.0
 40
31.025000000000009
  0
CIRCLE
  5
450B4
  8
0
 10
363.23775161227599
 20
434.77251748446042
 30
0.0
 40
28.025000000000041
  0
CIRCLE
  5
450B5
  8
0
 10
363.23775161227599
 20
434.77251748446042
 30
0.0
 40
36.500000000000028
  0
CIRCLE
  5
450B6
  8
0
 10
363.23775161227599
 20
434.77251748446042
 30
0.0
 40
32.5
  0
LINE
  5
450B8
  8
0
 10
265.75441211067118
 20
410.27251748446042
 30
0.0
 11
265.75441211067118
 21
459.27251748446042
 31
0.0
  0
LINE
  5
450BB
  8
0
 10
314.27107260906701
 20
410.27251748446042
 30
0.0
 11
314.27107260906701
 21
459.27251748446042
 31
0.0
  0
LINE
  5
450BD
  8
0
 10
336.18225309533858
 20
410.27251748446042
 30
0.0
 11
265.75441211067118
 21
410.27251748446042
 31
0.0
  0
LINE
  5
450BE
  8
0
 10
336.18225309533858
 20
459.27251748446042
 30
0.0
 11
265.75441211067118
 21
459.27251748446042
 31
0.0
  0
LINE
  5
450CE
  8
0
 10
332.4960849456092
 20
464.77251748446059
 30
0.0
 11
319.97941827894277
 21
464.77251748446059
 31
0.0
  0
ARC
  5
450CF
  8
0
 10
320.60525161227611
 20
457.96212899501808
 30
0.0
 40
6.7417135358230142
 50
73.829894405594871
 51
106.1701055944051
  0
ARC
  5
450D0
  8
0
 10
331.87025161227621
 20
457.87903383516777
 30
0.0
 40
6.8215606297232059
 50
74.024262555290704
 51
105.975737444716
  0
ARC
  5
450D1
  8
0
 10
326.23775161227633
 20
437.8248966301478
 30
0.0
 40
26.875848354133119
 50
81.968557189653055
 51
98.031442810346945
  0
ARC
  5
450D2
  8
0
 10
326.23775161227599
 20
486.22377830860938
 30
0.0
 40
26.87945262629675
 50
261.96964123577209
 51
278.03035876423439
  0
LINE
  5
450D3
  8
0
 10
322.48275161227622
 20
464.43713441193449
 30
0.0
 11
322.48275161227622
 21
459.60790055698658
 31
0.0
  0
LINE
  5
450D4
  8
0
 10
329.99275161227621
 20
464.43713441193449
 30
0.0
 11
329.99275161227621
 21
459.60790055698658
 31
0.0
  0
ARC
  5
450D5
  8
0
 10
320.60525161227611
 20
466.08209200862558
 30
0.0
 40
6.7409317755392237
 50
253.82796768725871
 51
286.17203231274141
  0
LINE
  5
450D6
  8
0
 10
318.72775161227599
 20
464.43713441193472
 30
0.0
 11
318.72775161227599
 21
459.60790055698658
 31
0.0
  0
ARC
  5
450D7
  8
0
 10
331.87025161227598
 20
466.16722575304323
 30
0.0
 40
6.8227379604981486
 50
254.02709304277349
 51
285.97290695722648
  0
LINE
  5
450D8
  8
0
 10
333.74775161227598
 20
464.43713441193472
 30
0.0
 11
333.74775161227598
 21
459.60790055698658
 31
0.0
  0
ARC
  5
450D9
  8
0
 10
320.60858648767731
 20
411.57706709645879
 30
0.0
 40
6.7369403787646212
 50
253.8279670852753
 51
286.17203291472481
  0
LINE
  5
450DA
  8
0
 10
318.73219811281092
 20
410.27251748446059
 30
0.0
 11
318.73219811281092
 21
405.10670912075949
 31
0.0
  0
LINE
  5
450DB
  8
0
 10
322.4849748625436
 20
410.27251748446059
 30
0.0
 11
322.4849748625436
 21
405.10670912075938
 31
0.0
  0
ARC
  5
450DC
  8
0
 10
326.23775161227599
 20
431.70686949481382
 30
0.0
 40
26.863578787249221
 50
261.9696535351386
 51
278.03034646486151
  0
LINE
  5
450DD
  8
0
 10
329.99052836200872
 20
410.27251748446059
 30
0.0
 11
329.99052836200872
 21
405.10670912075938
 31
0.0
  0
ARC
  5
450DE
  8
0
 10
331.86691673687483
 20
411.6621605105579
 30
0.0
 40
6.8187078143400921
 50
254.02711575244959
 51
285.97288424755038
  0
LINE
  5
450DF
  8
0
 10
333.74330511174111
 20
410.27251748446059
 30
0.0
 11
333.74330511174111
 21
405.10670912075949
 31
0.0
  0
LINE
  5
450E0
  8
0
 10
332.4960849456092
 20
404.77251748446059
 30
0.0
 11
319.97941827894277
 21
404.77251748446059
 31
0.0
  0
LINE
  5
450E1
  8
0
 10
332.0527516122761
 20
467.27251748446071
 30
0.0
 11
320.42275161227599
 21
467.27251748446071
 31
0.0
  0
LINE
  5
450E3
  8
0
 10
365.11125101179579
 20
440.47251748446041
 30
0.0
 11
361.36425221275658
 21
440.47251748446041
 31
0.0
  0
LINE
  5
450E4
  8
0
 10
368.24873953882297
 20
438.07251748446049
 30
0.0
 11
358.22676368572911
 21
438.07251748446049
 31
0.0
  0
LINE
  5
450E5
  8
0
 10
368.24873953882297
 20
431.47251748446041
 30
0.0
 11
358.22676368572911
 21
431.47251748446041
 31
0.0
  0
LINE
  5
450E6
  8
0
 10
365.1112510117955
 20
429.07251748446038
 30
0.0
 11
361.36425221275658
 21
429.07251748446038
 31
0.0
  0
ARC
  5
450F5
  8
0
 10
326.23775161227599
 20
202.24368873141941
 30
0.0
 40
52.407596707900119
 50
97.315066635647284
 51
38.935717627368078
  0
ARC
  5
450F6
  8
0
 10
326.23775161227599
 20
202.24368873141941
 30
0.0
 40
55.989456790366951
 50
107.1498074333356
 51
40.116944692007891
  0
ARC
  5
450F7
  8
0
 10
326.23775161227599
 20
202.24368873141941
 30
0.0
 40
31.249999999999972
 50
109.28503885117939
 51
25.793776507367362
  0
ARC
  5
450F8
  8
0
 10
326.23775161227599
 20
202.24368873141941
 30
0.0
 40
49.999999999999979
 50
98.135677744705205
 51
38.041436899082001
  0
ARC
  5
450F9
  8
0
 10
326.23775161227599
 20
202.24368873141941
 30
0.0
 40
62.499999999999957
 50
121.1296133227945
 51
41.903499049353833
  0
ARC
  5
450FA
  8
0
 10
326.23775161227599
 20
202.24368873141941
 30
0.0
 40
37.486324404442712
 50
104.22418233689849
 51
31.379388439509491
  0
LINE
  5
45110
  8
0
 10
245.754412110673
 20
269.86604156755249
 30
0.0
 11
248.9683501591025
 21
266.03581935195632
 31
0.0
  0
LINE
  5
45111
  8
0
 10
247.66952321846841
 20
271.47301059176908
 30
0.0
 11
245.754412110673
 21
269.86604156755249
 31
0.0
  0
LINE
  5
45112
  8
0
 10
250.2985723747006
 20
268.33983181472411
 30
0.0
 11
247.66952321846841
 21
271.47301059176908
 31
0.0
  0
LINE
  5
45113
  8
0
 10
266.46397881030128
 20
266.09554975716071
 30
0.0
 11
250.2985723747006
 21
268.33983181472411
 31
0.0
  0
LINE
  5
45114
  8
0
 10
265.78054642372808
 20
268.64615414739762
 30
0.0
 11
265.47500478110311
 21
268.82552289953247
 31
0.0
  0
LINE
  5
45115
  8
0
 10
248.9683501591025
 20
266.03581935195632
 30
0.0
 11
267.17791685873448
 21
263.43109668695382
 31
0.0
  0
LINE
  5
45116
  8
0
 10
263.20879239112401
 20
272.60214967278569
 30
0.0
 11
265.75282608463749
 21
272.25182632734447
 31
0.0
  0
LINE
  5
45117
  8
0
 10
262.75787409902478
 20
269.4917089786735
 30
0.0
 11
263.20879239112401
 21
272.60214967278569
 31
0.0
  0
LINE
  5
45118
  8
0
 10
265.40925369880279
 20
269.204578169299
 30
0.0
 11
265.75282608463749
 21
272.25182632734447
 31
0.0
  0
LINE
  5
45119
  8
0
 10
262.75787409902478
 20
269.4917089786735
 30
0.0
 11
263.49582109157558
 21
266.50762619573959
 31
0.0
  0
LINE
  5
4511A
  8
0
 10
265.40925369880279
 20
269.204578169299
 30
0.0
 11
265.47500478110311
 21
268.82552289953247
 31
0.0
  0
LINE
  5
4511B
  8
0
 10
245.754412110673
 20
418.75099680114391
 30
0.0
 11
245.754412110673
 21
450.79403816777761
 31
0.0
  0
LINE
  5
4511C
  8
0
 10
250.2985723747006
 20
415.7725174844594
 30
0.0
 11
250.2985723747006
 21
453.77251748445929
 31
0.0
  0
LINE
  5
4511D
  8
0
 10
262.754412110673
 20
418.7725174844594
 30
0.0
 11
262.754412110673
 21
450.77251748445929
 31
0.0
  0
LINE
  5
4511E
  8
0
 10
265.754412110673
 20
415.7725174844594
 30
0.0
 11
247.34852180929011
 21
415.7725174844594
 31
0.0
  0
LINE
  5
4511F
  8
0
 10
262.754412110673
 20
418.7725174844594
 30
0.0
 11
265.754412110673
 21
418.7725174844594
 31
0.0
  0
LINE
  5
45120
  8
0
 10
265.754412110673
 20
453.77251748445929
 30
0.0
 11
247.34852180929011
 21
453.77251748445929
 31
0.0
  0
LINE
  5
45121
  8
0
 10
262.75441211067658
 20
450.77251748445929
 30
0.0
 11
265.75441211067658
 21
450.77251748445929
 31
0.0
  0
ARC
  5
45122
  8
0
 10
250.09085150431559
 20
419.15606851090462
 30
0.0
 40
4.3553174057440378
 50
185.33657785306889
 51
230.97562584389991
  0
ARC
  5
45123
  8
0
 10
250.09085150431559
 20
450.38896645801412
 30
0.0
 40
4.3553174057440378
 50
129.02437415610001
 51
174.66342214693111
  0
LINE
  5
45126
  8
2
 10
369.23775161227599
 20
282.74368873141992
 30
0.0
 11
369.23775161227599
 21
295.74368873141981
 31
0.0
  0
LINE
  5
45127
  8
2
 10
357.23775161227599
 20
295.74368873141981
 30
0.0
 11
357.23775161227599
 21
282.74368873141992
 31
0.0
  0
LINE
  5
4516D
  8
2
 10
545.84510027287229
 20
282.74368873141992
 30
0.0
 11
545.84510027287229
 21
295.74368873141981
 31
0.0
  0
LINE
  5
4516E
  8
2
 10
533.84510027287229
 20
295.74368873141981
 30
0.0
 11
533.84510027287229
 21
282.74368873141992
 31
0.0
  0
LINE
  5
4516F
  8
2
 10
508.84510027287229
 20
282.74368873141992
 30
0.0
 11
570.84510027287229
 21
282.74368873141992
 31
0.0
  0
LINE
  5
45171
  8
2
 10
570.84510027287229
 20
229.41361630044369
 30
0.0
 11
570.84510027287229
 21
282.74368873141992
 31
0.0
  0
LINE
  5
45172
  8
2
 10
508.84510027287229
 20
229.41361630044369
 30
0.0
 11
508.84510027287229
 21
282.74368873141992
 31
0.0
  0
LINE
  5
45173
  8
2
 10
332.23775161227599
 20
282.74368873141992
 30
0.0
 11
394.23775161227599
 21
282.74368873141992
 31
0.0
  0
LINE
  5
45174
  8
2
 10
394.23775161227599
 20
276.88126009923963
 30
0.0
 11
394.23775161227599
 21
282.74368873141992
 31
0.0
  0
LINE
  5
45175
  8
2
 10
332.23775161227587
 20
281.9436887314198
 30
0.0
 11
332.23775161227599
 21
282.74368873141992
 31
0.0
  0
LINE
  5
451B5
  8
1
 10
248.73775161227601
 20
202.24368873141981
 30
0.0
 11
403.73775161227599
 21
202.24368873141981
 31
0.0
  0
LINE
  5
451B6
  8
1
 10
326.23775161227599
 20
124.7436887314193
 30
0.0
 11
326.23775161227599
 21
279.74368873142032
 31
0.0
  0
LINE
  5
451B7
  8
1
 10
539.84510027287251
 20
310.7436887314193
 30
0.0
 11
539.84510027287251
 21
124.7436887314193
 31
0.0
  0
LINE
  5
451B8
  8
1
 10
499.69510027287282
 20
202.24368873141941
 30
0.0
 11
579.99510027287215
 21
202.24368873141941
 31
0.0
  0
LINE
  5
451B9
  8
1
 10
230.754412110673
 20
434.77251748446002
 30
0.0
 11
414.73775161227599
 21
434.77251748446002
 31
0.0
  0
LINE
  5
451BA
  8
1
 10
363.23775161227599
 20
383.27251748446002
 30
0.0
 11
363.23775161227599
 21
486.27251748446002
 31
0.0
  0
LINE
  5
451BB
  8
1
 10
326.23775161227599
 20
394.62251748445988
 30
0.0
 11
326.23775161227599
 21
474.92251748446012
 31
0.0
  0
LINE
  5
451BC
  8
1
 10
112.6304029516795
 20
310.7436887314193
 30
0.0
 11
112.6304029516795
 21
124.7436887314193
 31
0.0
  0
LINE
  5
451BD
  8
1
 10
152.7804029516787
 20
202.24368873141941
 30
0.0
 11
72.48040295167857
 21
202.24368873141941
 31
0.0
  0
LINE
  5
451CD
  8
0
 10
322.23775161227599
 20
469.50551748446043
 30
0.0
 11
322.23775161227422
 21
467.27251748446071
 31
0.0
  0
LINE
  5
451CE
  8
0
 10
330.23775161227422
 20
467.27251748446071
 30
0.0
 11
330.23775161227599
 21
469.50551748446043
 31
0.0
  0
LINE
  5
451CF
  8
0
 10
323.00475161227592
 20
470.27251748446082
 30
0.0
 11
322.23775161227599
 21
469.50551748446043
 31
0.0
  0
LINE
  5
451D0
  8
0
 10
330.23775161227599
 20
469.50551748446043
 30
0.0
 11
329.47075161227622
 21
470.27251748446082
 31
0.0
  0
LINE
  5
451D1
  8
0
 10
330.23775161227599
 20
469.50551748446043
 30
0.0
 11
322.23775161227599
 21
469.50551748446043
 31
0.0
  0
LINE
  5
451D2
  8
0
 10
329.47075161227622
 20
470.27251748446082
 30
0.0
 11
323.00475161227592
 21
470.27251748446082
 31
0.0
  0
LINE
  5
451D3
  8
3
 10
323.00475161227592
 20
470.27251748446082
 30
0.0
 11
323.00475161227399
 21
467.27251748446071
 31
0.0
  0
LINE
  5
451D4
  8
3
 10
329.47075161227622
 20
470.27251748446082
 30
0.0
 11
329.4707516122744
 21
467.27251748446071
 31
0.0
  0
LINE
  5
451D6
  8
0
 10
574.57810027287223
 20
206.24368873141941
 30
0.0
 11
572.34510027287251
 21
206.2436887314212
 31
0.0
  0
LINE
  5
451D7
  8
0
 10
572.34510027287251
 20
198.2436887314212
 30
0.0
 11
574.57810027287223
 21
198.2436887314193
 31
0.0
  0
LINE
  5
451D8
  8
0
 10
575.3451002728724
 20
205.4766887314195
 30
0.0
 11
574.57810027287223
 21
206.24368873141941
 31
0.0
  0
LINE
  5
451D9
  8
0
 10
574.57810027287223
 20
198.2436887314193
 30
0.0
 11
575.3451002728724
 21
199.01068873141921
 31
0.0
  0
LINE
  5
451DA
  8
0
 10
574.57810027287223
 20
198.2436887314193
 30
0.0
 11
574.57810027287223
 21
206.24368873141941
 31
0.0
  0
LINE
  5
451DB
  8
0
 10
575.3451002728724
 20
199.01068873141921
 30
0.0
 11
575.3451002728724
 21
205.4766887314195
 31
0.0
  0
LINE
  5
451DC
  8
3
 10
575.3451002728724
 20
205.4766887314195
 30
0.0
 11
572.34510027287251
 21
205.47668873142129
 31
0.0
  0
LINE
  5
451DD
  8
3
 10
575.3451002728724
 20
199.01068873141921
 30
0.0
 11
572.34510027287251
 21
199.010688731421
 31
0.0
  0
LINE
  5
451DE
  8
0
 10
77.897402951679851
 20
206.24368873141941
 30
0.0
 11
80.130402951679571
 21
206.2436887314212
 31
0.0
  0
LINE
  5
451DF
  8
0
 10
80.130402951679571
 20
198.2436887314212
 30
0.0
 11
77.897402951679851
 21
198.2436887314193
 31
0.0
  0
LINE
  5
451E0
  8
0
 10
77.130402951679571
 20
205.4766887314195
 30
0.0
 11
77.897402951679851
 21
206.24368873141941
 31
0.0
  0
LINE
  5
451E1
  8
0
 10
77.897402951679851
 20
198.2436887314193
 30
0.0
 11
77.130402951679571
 21
199.01068873141921
 31
0.0
  0
LINE
  5
451E2
  8
0
 10
77.897402951679851
 20
198.2436887314193
 30
0.0
 11
77.897402951679851
 21
206.24368873141941
 31
0.0
  0
LINE
  5
451E3
  8
0
 10
77.130402951679571
 20
199.01068873141921
 30
0.0
 11
77.130402951679571
 21
205.4766887314195
 31
0.0
  0
LINE
  5
451E4
  8
3
 10
77.130402951679571
 20
205.4766887314195
 30
0.0
 11
80.130402951679571
 21
205.47668873142129
 31
0.0
  0
LINE
  5
451E5
  8
3
 10
77.130402951679571
 20
199.01068873141921
 30
0.0
 11
80.130402951679571
 21
199.010688731421
 31
0.0
  0
LINE
  5
45225
  8
0
 10
131.6304029516796
 20
263.43109668695342
 30
0.0
 11
93.630402951679571
 21
263.43109668695342
 31
0.0
  0
LINE
  5
45226
  8
0
 10
131.6304029516796
 20
263.43109668695342
 30
0.0
 11
131.6304029516796
 21
271.4730105917688
 31
0.0
  0
LINE
  5
45227
  8
0
 10
128.6304029516796
 20
271.4730105917688
 30
0.0
 11
128.6304029516796
 21
272.60214967278529
 31
0.0
  0
LINE
  5
45228
  8
0
 10
131.6304029516796
 20
271.4730105917688
 30
0.0
 11
93.630402951679571
 21
271.4730105917688
 31
0.0
  0
LINE
  5
45229
  8
0
 10
93.630402951679571
 20
263.43109668695342
 30
0.0
 11
93.630402951679571
 21
271.4730105917688
 31
0.0
  0
LINE
  5
4522A
  8
0
 10
128.6304029516796
 20
272.60214967278529
 30
0.0
 11
96.630402951679585
 21
272.60214967278529
 31
0.0
  0
LINE
  5
4522B
  8
0
 10
96.630402951679585
 20
271.4730105917688
 30
0.0
 11
96.630402951679585
 21
272.60214967278529
 31
0.0
  0
LINE
  5
4522C
  8
0
 10
93.630402951679571
 20
266.03581935195689
 30
0.0
 11
131.6304029516796
 21
266.03581935195689
 31
0.0
  0
LINE
  5
4522D
  8
0
 10
558.8451002728724
 20
263.43109668695342
 30
0.0
 11
558.8451002728724
 21
266.92055391309998
 31
0.0
  0
LINE
  5
4522E
  8
0
 10
520.8451002728724
 20
263.43109668695342
 30
0.0
 11
520.8451002728724
 21
266.92055391310072
 31
0.0
  0
LINE
  5
4522F
  8
0
 10
558.8451002728724
 20
263.43109668695342
 30
0.0
 11
550.68887162652516
 21
263.43109668695342
 31
0.0
  0
LINE
  5
45230
  8
0
 10
529.00132891921953
 20
263.43109668695342
 30
0.0
 11
520.8451002728724
 21
263.43109668695342
 31
0.0
  0
LINE
  5
45232
  8
1
 10
363.23775161227599
 20
310.74368873141981
 30
0.0
 11
363.23775161227599
 21
265.1156529411943
 31
0.0
  0
ARC
  5
45348
  8
0
 10
326.23775161227599
 20
202.24368873141981
 30
0.0
 40
13.597448683826951
 50
215.71286172690401
 51
314.08917355966821
  0
ARC
  5
45349
  8
0
 10
326.23775161227599
 20
202.24368873141981
 30
0.0
 40
11.41932981207697
 50
240.94540083159211
 51
298.87110586689153
  0
ARC
  5
4534A
  8
0
 10
326.23775161227599
 20
202.24368873141981
 30
0.0
 40
12.91727411421102
 50
224.4335553563227
 51
309.56456130397743
  0
TEXT
  5
453A6
  8
0
 62
     3
 10
0.0
 20
0.0
 30
0.0
 40
10.0
  1
CAE3-125FBF
  7
STANDARD1
  0
LINE
  5
453C8
  8
0
 10
528.84510027287251
 20
295.74368873141941
 30
0.0
 11
528.84510027287251
 21
292.44368873141951
 31
0.0
  0
LINE
  5
453C9
  8
0
 10
550.84510027287251
 20
292.44368873141951
 30
0.0
 11
550.84510027287251
 21
295.74368873141941
 31
0.0
  0
LINE
  5
453CA
  8
0
 10
528.84510027287251
 20
295.74368873141941
 30
0.0
 11
550.84510027287251
 21
295.74368873141941
 31
0.0
  0
LINE
  5
453CB
  8
0
 10
101.6304029516795
 20
295.74368873141941
 30
0.0
 11
101.6304029516795
 21
292.44368873141951
 31
0.0
  0
LINE
  5
453CC
  8
0
 10
123.6304029516795
 20
292.44368873141951
 30
0.0
 11
123.6304029516795
 21
295.74368873141941
 31
0.0
  0
LINE
  5
453CD
  8
0
 10
101.6304029516795
 20
295.74368873141941
 30
0.0
 11
123.6304029516795
 21
295.74368873141941
 31
0.0
  0
ENDSEC
  0
EOF
