  0
SECTION
  2
HEADER
  9
$ACADVER
  1
AC1009
  9
$INSBASE
 10
0.0
 20
0.0
 30
0.0
  9
$EXTMIN
 10
0.0
 20
-2.960436562073669
 30
0.0
  9
$EXTMAX
 10
710.37079910627278
 20
561.84709526616768
 30
0.0
  9
$LIMMIN
 10
0.0
 20
0.0
  9
$LIMMAX
 10
375.0
 20
270.0
  9
$ORTHOMODE
 70
     1
  9
$REGENMODE
 70
     1
  9
$FILLMODE
 70
     1
  9
$QTEXTMODE
 70
     0
  9
$MIRRTEXT
 70
     1
  9
$DRAGMODE
 70
     2
  9
$LTSCALE
 40
10.0
  9
$OSMODE
 70
    37
  9
$ATTMODE
 70
     1
  9
$TEXTSIZE
 40
5.0
  9
$TRACEWID
 40
0.05
  9
$TEXTSTYLE
  7
STANDARD
  9
$CLAYER
  8
0
  9
$CELTYPE
  6
BYLAYER
  9
$CECOLOR
 62
     6
  9
$DIMSCALE
 40
2.0
  9
$DIMASZ
 40
3.0
  9
$DIMEXO
 40
2.0
  9
$DIMDLI
 40
0.38
  9
$DIMRND
 40
0.0
  9
$DIMDLE
 40
0.0
  9
$DIMEXE
 40
2.0
  9
$DIMTP
 40
0.0
  9
$DIMTM
 40
0.0
  9
$DIMTXT
 40
3.2000000000000002
  9
$DIMCEN
 40
0.0
  9
$DIMTSZ
 40
0.0
  9
$DIMTOL
 70
     0
  9
$DIMLIM
 70
     0
  9
$DIMTIH
 70
     0
  9
$DIMTOH
 70
     0
  9
$DIMSE1
 70
     0
  9
$DIMSE2
 70
     0
  9
$DIMTAD
 70
     1
  9
$DIMZIN
 70
     8
  9
$DIMBLK
  1

  9
$DIMASO
 70
     0
  9
$DIMSHO
 70
     0
  9
$DIMPOST
  1

  9
$DIMAPOST
  1

  9
$DIMALT
 70
     0
  9
$DIMALTD
 70
     2
  9
$DIMALTF
 40
25.399999999999999
  9
$DIMLFAC
 40
1.0
  9
$DIMTOFL
 70
     0
  9
$DIMTVP
 40
1.6000000000000001
  9
$DIMTIX
 70
     1
  9
$DIMSOXD
 70
     0
  9
$DIMSAH
 70
     0
  9
$DIMBLK1
  1

  9
$DIMBLK2
  1

  9
$DIMSTYLE
  2
STANDARD
  9
$DIMCLRD
 70
     0
  9
$DIMCLRE
 70
     0
  9
$DIMCLRT
 70
     0
  9
$DIMTFAC
 40
1.0
  9
$DIMGAP
 40
1.1999999999999991
  9
$LUNITS
 70
     2
  9
$LUPREC
 70
     4
  9
$SKETCHINC
 40
0.1
  9
$FILLETRAD
 40
0.0
  9
$AUNITS
 70
     0
  9
$AUPREC
 70
     4
  9
$MENU
  1
ACAD
  9
$ELEVATION
 40
0.0
  9
$PELEVATION
 40
0.0
  9
$THICKNESS
 40
0.0
  9
$LIMCHECK
 70
     0
  9
$BLIPMODE
 70
     0
  9
$CHAMFERA
 40
0.0
  9
$CHAMFERB
 40
0.0
  9
$SKPOLY
 70
     0
  9
$TDCREATE
 40
2448055.7149187499
  9
$TDUPDATE
 40
2459565.48488147
  9
$TDINDWG
 40
3.5601051041999998
  9
$TDUSRTIMER
 40
3.5601051041999998
  9
$USRTIMER
 70
     1
  9
$ANGBASE
 50
0.0
  9
$ANGDIR
 70
     0
  9
$PDMODE
 70
     0
  9
$PDSIZE
 40
0.0
  9
$PLINEWID
 40
0.0
  9
$COORDS
 70
     1
  9
$SPLFRAME
 70
     0
  9
$SPLINETYPE
 70
     6
  9
$SPLINESEGS
 70
     8
  9
$ATTDIA
 70
     0
  9
$ATTREQ
 70
     1
  9
$HANDLING
 70
     1
  9
$HANDSEED
  5
3870B
  9
$SURFTAB1
 70
     6
  9
$SURFTAB2
 70
     6
  9
$SURFTYPE
 70
     6
  9
$SURFU
 70
     6
  9
$SURFV
 70
     6
  9
$UCSNAME
  2

  9
$UCSORG
 10
0.0
 20
0.0
 30
0.0
  9
$UCSXDIR
 10
1.0
 20
0.0
 30
0.0
  9
$UCSYDIR
 10
0.0
 20
1.0
 30
0.0
  9
$PUCSNAME
  2

  9
$PUCSORG
 10
0.0
 20
0.0
 30
0.0
  9
$PUCSXDIR
 10
1.0
 20
0.0
 30
0.0
  9
$PUCSYDIR
 10
0.0
 20
1.0
 30
0.0
  9
$USERI1
 70
     0
  9
$USERI2
 70
     0
  9
$USERI3
 70
     0
  9
$USERI4
 70
     0
  9
$USERI5
 70
     0
  9
$USERR1
 40
0.0
  9
$USERR2
 40
0.0
  9
$USERR3
 40
0.0
  9
$USERR4
 40
0.0
  9
$USERR5
 40
0.0
  9
$WORLDVIEW
 70
     1
  9
$SHADEDGE
 70
     3
  9
$SHADEDIF
 70
    70
  9
$TILEMODE
 70
     1
  9
$MAXACTVP
 70
    16
  9
$PLIMCHECK
 70
     0
  9
$PEXTMIN
 10
1.0000000000000000E+020
 20
1.0000000000000000E+020
 30
1.0000000000000000E+020
  9
$PEXTMAX
 10
-1.0000000000000000E+020
 20
-1.0000000000000000E+020
 30
-1.0000000000000000E+020
  9
$PLIMMIN
 10
0.0
 20
0.0
  9
$PLIMMAX
 10
12.0
 20
9.0
  9
$UNITMODE
 70
     0
  9
$VISRETAIN
 70
     0
  9
$PLINEGEN
 70
     1
  9
$PSLTSCALE
 70
     0
  0
ENDSEC
  0
SECTION
  2
TABLES
  0
TABLE
  2
VPORT
 70
     1
  0
VPORT
  2
*ACTIVE
 70
     0
 10
0.0
 20
0.0
 11
1.0
 21
1.0
 12
618.24642059132748
 22
279.44469336124121
 13
0.0
 23
0.0
 14
5.0
 24
5.0
 15
10.0
 25
10.0
 16
0.0
 26
0.0
 36
1.0
 17
0.0
 27
0.0
 37
0.0
 40
569.94954253110222
 41
2.3805970149253728
 42
50.0
 43
0.0
 44
0.0
 50
0.0
 51
0.0
 71
     0
 72
   500
 73
     1
 74
     1
 75
     0
 76
     0
 77
     0
 78
     2
  0
ENDTAB
  0
TABLE
  2
LTYPE
 70
     4
  0
LTYPE
  2
CONTINUOUS
 70
     0
  3
実線
 72
    65
 73
     0
 40
0.0
  0
LTYPE
  2
CENTER
 70
     0
  3
____ _ ____ _ ____ _ ____ _ ____ _ ____ _ ____
 72
    65
 73
     4
 40
2.0
 49
1.25
 49
-0.25
 49
0.25
 49
-0.25
  0
LTYPE
  2
HIDDEN
 70
     0
  3
_ _ _ _ _ _ _ _ _ _ _ _ _ _ _ _ _ _ _ _ _ _ _
 72
    65
 73
     2
 40
0.375
 49
0.25
 49
-0.125
  0
LTYPE
  2
PHANTOM2
 70
     0
  3
___ _ _ ___ _ _ ___ _ _ ___ _ _
 72
    65
 73
     6
 40
1.25
 49
0.625
 49
-0.125
 49
0.125
 49
-0.125
 49
0.125
 49
-0.125
  0
ENDTAB
  0
TABLE
  2
LAYER
 70
     5
  0
LAYER
  2
0
 70
     0
 62
     7
  6
CONTINUOUS
  0
LAYER
  2
1
 70
     0
 62
     1
  6
CENTER
  0
LAYER
  2
2
 70
     0
 62
     2
  6
HIDDEN
  0
LAYER
  2
DEFPOINTS
 70
     0
 62
     7
  6
CONTINUOUS
  0
LAYER
  2
3
 70
     0
 62
     3
  6
CONTINUOUS
  0
ENDTAB
  0
TABLE
  2
STYLE
 70
     3
  0
STYLE
  2
STANDARD
 70
     0
 40
0.0
 41
1.0
 50
0.0
 71
     0
 42
5.0
  3
simplex.shx
  4
bigfont.shx
  0
STYLE
  2
07500
 70
     0
 40
0.0
 41
0.75
 50
0.0
 71
     0
 42
0.2
  3
simplex.shx
  4
bigfont.shx
  0
STYLE
  2
STANDARD1
 70
     0
 40
0.0
 41
1.0
 50
0.0
 71
     0
 42
3.0
  3
txt
  4

  0
ENDTAB
  0
TABLE
  2
VIEW
 70
     2
  0
VIEW
  2
ALL
 70
     0
 40
270.0
 10
220.99159663865549
 20
135.0
 41
0.0
 11
0.0
 21
0.0
 31
1.0
 12
0.0
 22
0.0
 32
0.0
 42
0.0
 43
0.0
 44
0.0
 50
0.0
 71
     0
  0
VIEW
  2
OLE1
 70
     0
 40
168.2487151179721
 10
2892.3009567448912
 20
702.51600084347126
 41
162.5749581879237
 11
0.0
 21
0.0
 31
1.0
 12
0.0
 22
0.0
 32
0.0
 42
50.0
 43
0.0
 44
0.0
 50
0.0
 71
     0
  0
ENDTAB
  0
TABLE
  2
UCS
 70
     0
  0
ENDTAB
  0
TABLE
  2
APPID
 70
    48
  0
APPID
  2
ACAD
 70
     0
  0
APPID
  2
DCO15
 70
     0
  0
APPID
  2
GENIUS_GENOREF_13
 70
     0
  0
APPID
  2
GENIUS_GENOENT_13
 70
     0
  0
APPID
  2
GENIUS_GENBH_13
 70
     0
  0
APPID
  2
GENIUS_GENOBJ_13
 70
     0
  0
APPID
  2
GENIUS_GENODEF_13
 70
     0
  0
APPID
  2
GENIUS_GENOLIS_13
 70
     0
  0
APPID
  2
GENIUS_GENOBJ-NBEHI-BHF_13
 70
     0
  0
APPID
  2
GENIUS_GENOBJ-NBEHI-BHB_13
 70
     0
  0
APPID
  2
GENIUS_GENOBJ-F-PART_13
 70
     0
  0
APPID
  2
GENIUS_GEFSTDP_13
 70
     0
  0
APPID
  2
GENIUS_GENOBJ-N-RSSYM_13
 70
     0
  0
APPID
  2
GENIUS_GENSYMENT_13
 70
     0
  0
APPID
  2
GENIUS_GENOBJ-N-TIT_13
 70
     0
  0
APPID
  2
GENIUS_GENTITLE_13
 70
     0
  0
APPID
  2
GENIUS_GENZVEED_13
 70
     0
  0
APPID
  2
GENIUS_GENOBJ-N-LEADER_13
 70
     0
  0
APPID
  2
GENIUS_GENOBJ-N-FIL_13
 70
     0
  0
APPID
  2
GENIUS_GENOBJ-N-SEC_13
 70
     0
  0
APPID
  2
GENIUS_GENOBJ-N-CRS_13
 70
     0
  0
APPID
  2
GENIUS_GENOBJ-N-ZOO_13
 70
     0
  0
APPID
  2
GENIUS_GENZOO_13
 70
     0
  0
APPID
  2
GENIUS_GENOBJ-F-TOL_13
 70
     0
  0
APPID
  2
GENIUS_GENFIL_13
 70
     0
  0
APPID
  2
GENIUS_GENOBJ-N-CHA_13
 70
     0
  0
APPID
  2
_CALL_MAC$
 70
     0
  0
APPID
  2
ASM_BASE
 70
     0
  0
APPID
  2
ASM_EXPLO_VER_2_00
 70
     0
  0
APPID
  2
ASM_CADM_VER_12_00
 70
     0
  0
APPID
  2
ASM_BASEFORO
 70
     0
  0
APPID
  2
ASM_BASETRAVI
 70
     0
  0
APPID
  2
ASM_BASETRAVI1
 70
     0
  0
APPID
  2
ASM_GRUPPI
 70
     0
  0
APPID
  2
ASM_CADM_ALBERO
 70
     0
  0
APPID
  2
ASM_GOLE
 70
     0
  0
APPID
  2
ACAD_MLEADERVER
 70
     0
  0
APPID
  2
ACAD_DSTYLE_DIMJAG
 70
     0
  0
APPID
  2
ACAD_DSTYLE_DIMTALN
 70
     0
  0
APPID
  2
ACAD_EXEMPT_FROM_CAD_STANDARDS
 70
     0
  0
APPID
  2
ACAD_DSTYLE_DIMRADIAL_EXTENSION
 70
     0
  0
APPID
  2
ACAD_PSEXT
 70
     0
  0
APPID
  2
ACAD_DSTYLE_DIMBREAK
 70
     0
  0
APPID
  2
ACAECLAYERSTANDARD
 70
     0
  0
APPID
  2
ACCMTRANSPARENCY
 70
     0
  0
APPID
  2
GRADIENTCOLOR1ACI
 70
     0
  0
APPID
  2
GRADIENTCOLOR2ACI
 70
     0
  0
APPID
  2
ACAD_NAV_VCDISPLAY
 70
     0
  0
ENDTAB
  0
TABLE
  2
DIMSTYLE
 70
     1
  0
DIMSTYLE
  2
STANDARD
 70
     0
  3

  4

  5

  6

  7

 40
1.0
 41
0.18
 42
0.0625
 43
0.38
 44
0.18
 45
0.0
 46
0.0
 47
0.0
 48
0.0
140
0.18
141
0.09
142
0.0
143
25.399999999999999
144
1.0
145
0.0
146
1.0
147
0.09
 71
     0
 72
     0
 73
     1
 74
     1
 75
     0
 76
     0
 77
     0
 78
     0
170
     0
171
     2
172
     0
173
     0
174
     0
175
     0
176
     0
177
     0
178
     0
  0
ENDTAB
  0
ENDSEC
  0
SECTION
  2
BLOCKS
  0
BLOCK
  8
0
  2
$MODEL_SPACE
 70
     0
 10
0.0
 20
0.0
 30
0.0
  3
$MODEL_SPACE
  1

  0
ENDBLK
  5
36
  8
0
  0
BLOCK
 67
     1
  8
0
  2
$PAPER_SPACE
 70
     0
 10
0.0
 20
0.0
 30
0.0
  3
$PAPER_SPACE
  1

  0
ENDBLK
  5
34
 67
     1
  8
0
  0
ENDSEC
  0
SECTION
  2
ENTITIES
  0
LINE
  5
317A4
  8
2
 10
474.73428809197361
 20
334.30126651401179
 30
0.0
 11
474.73428809197361
 21
336.52399309110751
 31
0.0
  0
LINE
  5
317A6
  8
2
 10
450.23428809197361
 20
336.52399309110751
 30
0.0
 11
450.23428809197361
 21
350.52399309110751
 31
0.0
  0
LINE
  5
317A7
  8
2
 10
438.23428809197361
 20
350.52399309110751
 30
0.0
 11
438.23428809197361
 21
336.52399309110751
 31
0.0
  0
LINE
  5
317A8
  8
2
 10
413.73428809197361
 20
336.52399309110751
 30
0.0
 11
474.73428809197361
 21
336.52399309110751
 31
0.0
  0
LINE
  5
317B2
  8
1
 10
444.23428809197412
 20
363.45394553370721
 30
0.0
 11
444.23428809197372
 21
297.59150302193171
 31
0.0
  0
LINE
  5
317B3
  8
0
 10
411.23428809197372
 20
338.72399309110727
 30
0.0
 11
411.23428809197372
 21
336.72399309110727
 31
0.0
  0
LINE
  5
317B4
  8
0
 10
455.23428809197401
 20
347.22399309110727
 30
0.0
 11
455.23428809197401
 21
350.52399309110751
 31
0.0
  0
LINE
  5
317B5
  8
0
 10
433.23428809197401
 20
350.52399309110751
 30
0.0
 11
433.23428809197401
 21
347.22399309110727
 31
0.0
  0
ARC
  5
317B6
  8
0
 10
416.20928809197352
 20
344.22399309110727
 30
0.0
 40
2.9999999999999858
 50
90.0
 51
180.0
  0
ARC
  5
317B7
  8
0
 10
472.2592880919737
 20
344.22399309110727
 30
0.0
 40
3.0
 50
0.0
 51
90.0
  0
LINE
  5
317B8
  8
0
 10
475.2592880919737
 20
343.72399309110727
 30
0.0
 11
475.2592880919737
 21
344.22399309110727
 31
0.0
  0
LINE
  5
317B9
  8
0
 10
413.20928809197352
 20
344.22399309110727
 30
0.0
 11
413.20928809197352
 21
343.72399309110727
 31
0.0
  0
ARC
  5
317BA
  8
0
 10
411.73428809197361
 20
339.72399309110727
 30
0.0
 40
4.0000000000000133
 50
90.0
 51
180.0
  0
ARC
  5
317BB
  8
0
 10
476.73428809197361
 20
339.72399309110727
 30
0.0
 40
4.0000000000000284
 50
0.0
 51
90.0
  0
LINE
  5
317BC
  8
0
 10
480.73428809197361
 20
338.72399309110727
 30
0.0
 11
480.73428809197361
 21
339.72399309110727
 31
0.0
  0
LINE
  5
317BD
  8
0
 10
407.73428809197361
 20
339.72399309110727
 30
0.0
 11
407.73428809197361
 21
338.72399309110727
 31
0.0
  0
LINE
  5
317BE
  8
0
 10
422.69362886343549
 20
336.72399309110727
 30
0.0
 11
404.73428809197361
 21
336.72399309110727
 31
0.0
  0
LINE
  5
317BF
  8
0
 10
404.73428809197361
 20
336.72399309110727
 30
0.0
 11
404.73428809197361
 21
333.02399309110751
 31
0.0
  0
ARC
  5
317C0
  8
0
 10
411.93428809197337
 20
243.52399309110751
 30
0.0
 40
9.9999999999999964
 50
270.0
 51
330.52216681385897
  0
LINE
  5
317C1
  8
0
 10
402.53428809197328
 20
233.52399309110751
 30
0.0
 11
411.93428809197337
 21
233.52399309110751
 31
0.0
  0
LINE
  5
317C2
  8
0
 10
404.73428809197361
 20
333.02399309110751
 30
0.0
 11
392.62731531390318
 21
244.88483488006571
 31
0.0
  0
LINE
  5
317C3
  8
0
 10
420.63974950736201
 20
238.60312512445941
 30
0.0
 11
477.23428809197361
 21
338.72399309110727
 31
0.0
  0
ARC
  5
317C4
  8
0
 10
402.53428809197328
 20
243.52399309110751
 30
0.0
 40
10.0
 50
172.17868263509629
 51
270.0
  0
LINE
  5
317C5
  8
0
 10
395.2676090887644
 20
336.52399309110751
 30
0.0
 11
346.75094859036932
 21
323.52399309110751
 31
0.0
  0
LINE
  5
317C6
  8
0
 10
404.73428809197361
 20
336.52399309110751
 30
0.0
 11
395.2676090887644
 21
336.52399309110751
 31
0.0
  0
LINE
  5
317C7
  8
0
 10
350.23428809197372
 20
310.52399309110751
 30
0.0
 11
401.6436426508821
 21
310.52399309110751
 31
0.0
  0
LINE
  5
317C8
  8
0
 10
346.75094859036881
 20
323.52399309110751
 30
0.0
 11
350.23428809197372
 21
310.52399309110751
 31
0.0
  0
LINE
  5
317D0
  8
0
 10
422.69362886343549
 20
336.72399309110727
 30
0.0
 11
422.69362886343549
 21
242.2366238501609
 31
0.0
  0
LINE
  5
317D1
  8
0
 10
433.23428809197401
 20
350.52399309110751
 30
0.0
 11
455.23428809197401
 21
350.52399309110751
 31
0.0
  0
LINE
  5
317D2
  8
0
 10
416.20928809197352
 20
347.22399309110727
 30
0.0
 11
472.2592880919737
 21
347.22399309110727
 31
0.0
  0
LINE
  5
317D4
  8
0
 10
411.73428809197361
 20
343.72399309110727
 30
0.0
 11
476.73428809197361
 21
343.72399309110727
 31
0.0
  0
LINE
  5
317D6
  8
0
 10
407.73428809197361
 20
338.72399309110727
 30
0.0
 11
480.73428809197361
 21
338.72399309110727
 31
0.0
  0
LINE
  5
3180A
  8
2
 10
696.78514249370073
 20
280.34400227344622
 30
0.0
 11
696.78514249370073
 21
336.52399309110712
 31
0.0
  0
LINE
  5
3180B
  8
2
 10
635.78514249370073
 20
336.52399309110712
 30
0.0
 11
635.78514249370073
 21
280.34400227344622
 31
0.0
  0
LINE
  5
31811
  8
2
 10
672.28514249370073
 20
336.52399309110712
 30
0.0
 11
672.28514249370073
 21
350.523993091107
 31
0.0
  0
LINE
  5
31812
  8
2
 10
660.28514249370073
 20
350.523993091107
 30
0.0
 11
660.28514249370073
 21
336.52399309110712
 31
0.0
  0
LINE
  5
31815
  8
2
 10
635.78514249370073
 20
336.52399309110712
 30
0.0
 11
696.78514249370073
 21
336.52399309110712
 31
0.0
  0
LINE
  5
3181E
  8
0
 10
641.00366429030555
 20
310.5239930911066
 30
0.0
 11
643.78514249370073
 21
310.523993091107
 31
0.0
  0
LINE
  5
3181F
  8
0
 10
688.78514249370164
 20
310.52399309110751
 30
0.0
 11
691.56662069709455
 21
310.5239930911066
 31
0.0
  0
LINE
  5
31832
  8
0
 10
699.28514249370073
 20
280.34400227344622
 30
0.0
 11
699.28514249370073
 21
338.72399309110688
 31
0.0
  0
LINE
  5
31833
  8
0
 10
633.28514249370073
 20
338.72399309110688
 30
0.0
 11
633.28514249370073
 21
280.34400227344622
 31
0.0
  0
ARC
  5
31836
  8
0
 10
638.26014249370064
 20
344.22399309110688
 30
0.0
 40
2.9999999999999858
 50
90.0
 51
180.0
  0
ARC
  5
31837
  8
0
 10
694.31014249370082
 20
344.22399309110688
 30
0.0
 40
2.9999999999999858
 50
0.0
 51
90.0
  0
LINE
  5
31838
  8
0
 10
697.31014249370082
 20
343.72399309110688
 30
0.0
 11
697.31014249370082
 21
344.22399309110688
 31
0.0
  0
LINE
  5
31839
  8
0
 10
635.26014249370064
 20
344.22399309110688
 30
0.0
 11
635.26014249370064
 21
343.72399309110688
 31
0.0
  0
ARC
  5
3183A
  8
0
 10
633.78514249370073
 20
339.72399309110688
 30
0.0
 40
4.0000000000000133
 50
90.0
 51
180.0
  0
ARC
  5
3183B
  8
0
 10
698.78514249370073
 20
339.72399309110688
 30
0.0
 40
4.0000000000000133
 50
0.0
 51
90.0
  0
LINE
  5
3183C
  8
0
 10
702.78514249370073
 20
338.72399309110688
 30
0.0
 11
702.78514249370073
 21
339.72399309110688
 31
0.0
  0
LINE
  5
3183D
  8
0
 10
629.78514249370073
 20
339.72399309110688
 30
0.0
 11
629.78514249370073
 21
338.72399309110688
 31
0.0
  0
LINE
  5
3183E
  8
0
 10
641.28514249370073
 20
233.523993091107
 30
0.0
 11
641.28514249370073
 21
242.2366238501609
 31
0.0
  0
LINE
  5
3183F
  8
0
 10
641.28514249370073
 20
233.523993091107
 30
0.0
 11
643.78514249370073
 21
233.523993091107
 31
0.0
  0
LINE
  5
31841
  8
0
 10
691.28514249370073
 20
242.2366238501609
 30
0.0
 11
691.28514249370073
 21
233.523993091107
 31
0.0
  0
LINE
  5
31843
  8
0
 10
688.78514249370073
 20
233.523993091107
 30
0.0
 11
691.28514249370073
 21
233.523993091107
 31
0.0
  0
POLYLINE
  5
31844
  8
0
 66
     1
 10
0.0
 20
0.0
 30
0.0
 70
     8
  0
VERTEX
  5
31845
  8
0
 10
643.78514249370073
 20
243.91619663145499
 30
0.0
 70
    32
  0
VERTEX
  5
31846
  8
0
 10
643.3660281242104
 20
244.74331381313499
 30
0.0
 70
    32
  0
VERTEX
  5
31847
  8
0
 10
642.55711290063027
 20
246.44245495987889
 30
0.0
 70
    32
  0
VERTEX
  5
31848
  8
0
 10
641.78841806181208
 20
248.1990611932888
 30
0.0
 70
    32
  0
VERTEX
  5
31849
  8
0
 10
641.41956319297151
 20
249.0979869013604
 30
0.0
 70
    32
  0
VERTEX
  5
3184A
  8
0
 10
641.06124659003945
 20
250.0101549640367
 30
0.0
 70
    32
  0
VERTEX
  5
3184B
  8
0
 10
640.37683108308329
 20
251.872666363261
 30
0.0
 70
    32
  0
VERTEX
  5
3184C
  8
0
 10
639.73633166487696
 20
253.78343832624211
 30
0.0
 70
    32
  0
VERTEX
  5
3184D
  8
0
 10
639.14083401904008
 20
255.73923198380911
 30
0.0
 70
    32
  0
VERTEX
  5
3184E
  8
0
 10
638.59134754857985
 20
257.73673215240927
 30
0.0
 70
    32
  0
VERTEX
  5
3184F
  8
0
 10
638.08880366489666
 20
259.77255295353962
 30
0.0
 70
    32
  0
VERTEX
  5
31850
  8
0
 10
637.85540454204192
 20
260.80375758371429
 30
0.0
 70
    32
  0
VERTEX
  5
31851
  8
0
 10
637.63405420898596
 20
261.84324355300311
 30
0.0
 70
    32
  0
VERTEX
  5
31852
  8
0
 10
637.22787000752078
 20
263.94529401027597
 30
0.0
 70
    32
  0
VERTEX
  5
31853
  8
0
 10
636.87093956625256
 20
266.07514122805742
 30
0.0
 70
    32
  0
VERTEX
  5
31854
  8
0
 10
636.56386790295699
 20
268.22917499192857
 30
0.0
 70
    32
  0
VERTEX
  5
31855
  8
0
 10
636.30717552189287
 20
270.40374408987282
 30
0.0
 70
    32
  0
VERTEX
  5
31856
  8
0
 10
636.10129753151659
 20
272.59516250129258
 30
0.0
 70
    32
  0
VERTEX
  5
31857
  8
0
 10
636.01752636932224
 20
273.69603033670683
 30
0.0
 70
    32
  0
VERTEX
  5
31858
  8
0
 10
635.94658290694861
 20
274.79971564502881
 30
0.0
 70
    32
  0
VERTEX
  5
31859
  8
0
 10
635.84329389844015
 20
277.01366667578941
 30
0.0
 70
    32
  0
VERTEX
  5
3185A
  8
0
 10
635.79160558684453
 20
279.23326281831942
 30
0.0
 70
    32
  0
VERTEX
  5
3185B
  8
0
 10
635.78514249370073
 20
280.34400227344622
 30
0.0
 70
    32
  0
SEQEND
  5
3185C
  8
0
  0
POLYLINE
  5
3185D
  8
0
 66
     1
 10
0.0
 20
0.0
 30
0.0
 70
     8
  0
VERTEX
  5
3185E
  8
0
 10
635.78514249370073
 20
280.34400227344622
 30
0.0
 70
    32
  0
VERTEX
  5
3185F
  8
0
 10
635.78836841992415
 20
281.12875120212038
 30
0.0
 70
    32
  0
VERTEX
  5
31860
  8
0
 10
635.81417173545424
 20
282.69758508352919
 30
0.0
 70
    32
  0
VERTEX
  5
31861
  8
0
 10
635.86575653433329
 20
284.26442759890909
 30
0.0
 70
    32
  0
VERTEX
  5
31862
  8
0
 10
635.9012042019026
 20
285.04668771496421
 30
0.0
 70
    32
  0
VERTEX
  5
31863
  8
0
 10
635.94307917067181
 20
285.82795304306592
 30
0.0
 70
    32
  0
VERTEX
  5
31864
  8
0
 10
636.0460742217997
 20
287.38683851737818
 30
0.0
 70
    32
  0
VERTEX
  5
31865
  8
0
 10
636.17465454362082
 20
288.93976504910228
 30
0.0
 70
    32
  0
VERTEX
  5
31866
  8
0
 10
636.32871134434663
 20
290.48541870735511
 30
0.0
 70
    32
  0
VERTEX
  5
31867
  8
0
 10
636.50811427654287
 20
292.02249171483032
 30
0.0
 70
    32
  0
VERTEX
  5
31868
  8
0
 10
636.71271154741817
 20
293.54968355430901
 30
0.0
 70
    32
  0
VERTEX
  5
31869
  8
0
 10
636.82440479188415
 20
294.30916988053377
 30
0.0
 70
    32
  0
VERTEX
  5
3186A
  8
0
 10
636.94233004725527
 20
295.0657020690274
 30
0.0
 70
    32
  0
VERTEX
  5
3186B
  8
0
 10
637.19677549588005
 20
296.5692645559684
 30
0.0
 70
    32
  0
VERTEX
  5
3186C
  8
0
 10
637.47583260703857
 20
298.0590988511604
 30
0.0
 70
    32
  0
VERTEX
  5
3186D
  8
0
 10
637.77926527055661
 20
299.53394440604961
 30
0.0
 70
    32
  0
VERTEX
  5
3186E
  8
0
 10
638.10681675210662
 20
300.99255335405587
 30
0.0
 70
    32
  0
VERTEX
  5
3186F
  8
0
 10
638.45820991043365
 20
302.4336915663871
 30
0.0
 70
    32
  0
VERTEX
  5
31870
  8
0
 10
638.64275498908273
 20
303.14732749507721
 30
0.0
 70
    32
  0
VERTEX
  5
31871
  8
0
 10
638.83314743184519
 20
303.8561396962391
 30
0.0
 70
    32
  0
VERTEX
  5
31872
  8
0
 10
639.23131208176483
 20
305.25869421048361
 30
0.0
 70
    32
  0
VERTEX
  5
31873
  8
0
 10
639.65236697314856
 20
306.64016840797558
 30
0.0
 70
    32
  0
VERTEX
  5
31874
  8
0
 10
639.87136767827542
 20
307.32263439372861
 30
0.0
 70
    32
  0
VERTEX
  5
31875
  8
0
 10
640.09595585152192
 20
307.9993934236245
 30
0.0
 70
    32
  0
VERTEX
  5
31876
  8
0
 10
640.56170339640767
 20
309.33521921736792
 30
0.0
 70
    32
  0
VERTEX
  5
31877
  8
0
 10
641.04921553888471
 20
310.6465155472211
 30
0.0
 70
    32
  0
VERTEX
  5
31878
  8
0
 10
641.30100514288642
 20
311.29261761180118
 30
0.0
 70
    32
  0
VERTEX
  5
31879
  8
0
 10
641.55807979500923
 20
311.93217292557529
 30
0.0
 70
    32
  0
VERTEX
  5
3187A
  8
0
 10
642.08786561481793
 20
313.19110355793367
 30
0.0
 70
    32
  0
VERTEX
  5
3187B
  8
0
 10
642.63812474661597
 20
314.42224226329557
 30
0.0
 70
    32
  0
VERTEX
  5
3187C
  8
0
 10
643.20839161624235
 20
315.62454737540429
 30
0.0
 70
    32
  0
VERTEX
  5
3187D
  8
0
 10
643.7981837209918
 20
316.7970016241029
 30
0.0
 70
    32
  0
VERTEX
  5
3187E
  8
0
 10
644.40700203786264
 20
317.9386129960435
 30
0.0
 70
    32
  0
VERTEX
  5
3187F
  8
0
 10
644.71838566751103
 20
318.4975497122241
 30
0.0
 70
    32
  0
VERTEX
  5
31880
  8
0
 10
645.03433144577593
 20
319.04841557403188
 30
0.0
 70
    32
  0
VERTEX
  5
31881
  8
0
 10
645.67964116142321
 20
320.12547035429043
 30
0.0
 70
    32
  0
VERTEX
  5
31882
  8
0
 10
646.3423851883598
 20
321.16886604094537
 30
0.0
 70
    32
  0
VERTEX
  5
31883
  8
0
 10
647.02200277897464
 20
322.17771981707853
 30
0.0
 70
    32
  0
VERTEX
  5
31884
  8
0
 10
647.71791890893473
 20
323.15117809167532
 30
0.0
 70
    32
  0
VERTEX
  5
31885
  8
0
 10
648.42954476371779
 20
324.08841722185019
 30
0.0
 70
    32
  0
VERTEX
  5
31886
  8
0
 10
648.79106118499385
 20
324.54320558034669
 30
0.0
 70
    32
  0
VERTEX
  5
31887
  8
0
 10
649.15627823680416
 20
324.98864420972859
 30
0.0
 70
    32
  0
VERTEX
  5
31888
  8
0
 10
649.89750443912271
 20
325.85109737340463
 30
0.0
 70
    32
  0
VERTEX
  5
31889
  8
0
 10
650.652596219305
 20
326.67504699139772
 30
0.0
 70
    32
  0
VERTEX
  5
3188A
  8
0
 10
651.42091469431989
 20
327.45979592007188
 30
0.0
 70
    32
  0
VERTEX
  5
3188B
  8
0
 10
652.20180979003214
 20
328.2046801834876
 30
0.0
 70
    32
  0
VERTEX
  5
3188C
  8
0
 10
652.99462079122975
 20
328.90906953519197
 30
0.0
 70
    32
  0
VERTEX
  5
3188D
  8
0
 10
653.39528551060937
 20
329.24589102186468
 30
0.0
 70
    32
  0
VERTEX
  5
3188E
  8
0
 10
653.79867690065475
 20
329.5723679914704
 30
0.0
 70
    32
  0
VERTEX
  5
3188F
  8
0
 10
654.61329780656558
 20
330.19401433560779
 30
0.0
 70
    32
  0
VERTEX
  5
31890
  8
0
 10
655.43779425834691
 20
330.77348259273458
 30
0.0
 70
    32
  0
VERTEX
  5
31891
  8
0
 10
656.27146864968688
 20
331.31028247485438
 30
0.0
 70
    32
  0
VERTEX
  5
31892
  8
0
 10
657.11361560882051
 20
331.80395979567447
 30
0.0
 70
    32
  0
VERTEX
  5
31893
  8
0
 10
657.96352259534342
 20
332.25409685489512
 30
0.0
 70
    32
  0
VERTEX
  5
31894
  8
0
 10
658.39116161807385
 20
332.46271731931211
 30
0.0
 70
    32
  0
VERTEX
  5
31895
  8
0
 10
658.82047050309393
 20
332.66031279162462
 30
0.0
 70
    32
  0
VERTEX
  5
31896
  8
0
 10
659.68373426858852
 20
333.02226390662508
 30
0.0
 70
    32
  0
VERTEX
  5
31897
  8
0
 10
660.55258348449752
 20
333.33964395311841
 30
0.0
 70
    32
  0
VERTEX
  5
31898
  8
0
 10
661.42628301764125
 20
333.61218439589948
 30
0.0
 70
    32
  0
VERTEX
  5
31899
  8
0
 10
662.30409363098886
 20
333.83965463854338
 30
0.0
 70
    32
  0
VERTEX
  5
3189A
  8
0
 10
663.18527260912515
 20
334.02186221851662
 30
0.0
 70
    32
  0
VERTEX
  5
3189B
  8
0
 10
663.62689233989704
 20
334.09594283343267
 30
0.0
 70
    32
  0
VERTEX
  5
3189C
  8
0
 10
664.06907438666121
 20
334.15865297001437
 30
0.0
 70
    32
  0
VERTEX
  5
3189D
  8
0
 10
664.95475117905778
 20
334.24991115440531
 30
0.0
 70
    32
  0
VERTEX
  5
3189E
  8
0
 10
665.84155361532748
 20
334.29555955815431
 30
0.0
 70
    32
  0
VERTEX
  5
3189F
  8
0
 10
666.28514249370073
 20
334.30126651401179
 30
0.0
 70
    32
  0
VERTEX
  5
318A0
  8
0
 10
666.72873137207398
 20
334.29555955815431
 30
0.0
 70
    32
  0
VERTEX
  5
318A1
  8
0
 10
667.61553380834346
 20
334.24991115440531
 30
0.0
 70
    32
  0
VERTEX
  5
318A2
  8
0
 10
668.50121060074025
 20
334.15865297001437
 30
0.0
 70
    32
  0
VERTEX
  5
318A3
  8
0
 10
668.94339264750442
 20
334.09594283343267
 30
0.0
 70
    32
  0
VERTEX
  5
318A4
  8
0
 10
669.38501237827631
 20
334.02186221851662
 30
0.0
 70
    32
  0
VERTEX
  5
318A5
  8
0
 10
670.26619135641238
 20
333.83965463854338
 30
0.0
 70
    32
  0
VERTEX
  5
318A6
  8
0
 10
671.14400196976021
 20
333.61218439589948
 30
0.0
 70
    32
  0
VERTEX
  5
318A7
  8
0
 10
672.01770150290395
 20
333.33964395311841
 30
0.0
 70
    32
  0
VERTEX
  5
318A8
  8
0
 10
672.88655071881294
 20
333.02226390662508
 30
0.0
 70
    32
  0
VERTEX
  5
318A9
  8
0
 10
673.74981448430754
 20
332.66031279162462
 30
0.0
 70
    32
  0
VERTEX
  5
318AA
  8
0
 10
674.1791233693275
 20
332.46271731931211
 30
0.0
 70
    32
  0
VERTEX
  5
318AB
  8
0
 10
674.6067623920585
 20
332.25409685489512
 30
0.0
 70
    32
  0
VERTEX
  5
318AC
  8
0
 10
675.45666937858095
 20
331.80395979567447
 30
0.0
 70
    32
  0
VERTEX
  5
318AD
  8
0
 10
676.29881633771436
 20
331.31028247485438
 30
0.0
 70
    32
  0
VERTEX
  5
318AE
  8
0
 10
677.13249072905455
 20
330.77348259273458
 30
0.0
 70
    32
  0
VERTEX
  5
318AF
  8
0
 10
677.95698718083622
 20
330.19401433560779
 30
0.0
 70
    32
  0
VERTEX
  5
318B0
  8
0
 10
678.77160808674671
 20
329.5723679914704
 30
0.0
 70
    32
  0
VERTEX
  5
318B1
  8
0
 10
679.17499947679187
 20
329.24589102186468
 30
0.0
 70
    32
  0
VERTEX
  5
318B2
  8
0
 10
679.5756641961716
 20
328.90906953519197
 30
0.0
 70
    32
  0
VERTEX
  5
318B3
  8
0
 10
680.36847519736909
 20
328.2046801834876
 30
0.0
 70
    32
  0
VERTEX
  5
318B4
  8
0
 10
681.14937029308157
 20
327.45979592007188
 30
0.0
 70
    32
  0
VERTEX
  5
318B5
  8
0
 10
681.91768876809635
 20
326.67504699139772
 30
0.0
 70
    32
  0
VERTEX
  5
318B6
  8
0
 10
682.67278054827875
 20
325.85109737340463
 30
0.0
 70
    32
  0
VERTEX
  5
318B7
  8
0
 10
683.4140067505972
 20
324.98864420972859
 30
0.0
 70
    32
  0
VERTEX
  5
318B8
  8
0
 10
683.77922380240761
 20
324.54320558034669
 30
0.0
 70
    32
  0
VERTEX
  5
318B9
  8
0
 10
684.14074022368413
 20
324.08841722185019
 30
0.0
 70
    32
  0
VERTEX
  5
318BA
  8
0
 10
684.85236607846673
 20
323.15117809167532
 30
0.0
 70
    32
  0
VERTEX
  5
318BB
  8
0
 10
685.54828220842683
 20
322.17771981707853
 30
0.0
 70
    32
  0
VERTEX
  5
318BC
  8
0
 10
686.22789979904155
 20
321.16886604094537
 30
0.0
 70
    32
  0
VERTEX
  5
318BD
  8
0
 10
686.89064382597826
 20
320.12547035429043
 30
0.0
 70
    32
  0
VERTEX
  5
318BE
  8
0
 10
687.53595354162553
 20
319.04841557403188
 30
0.0
 70
    32
  0
VERTEX
  5
318BF
  8
0
 10
687.85189931989044
 20
318.4975497122241
 30
0.0
 70
    32
  0
VERTEX
  5
318C0
  8
0
 10
688.16328294953928
 20
317.9386129960435
 30
0.0
 70
    32
  0
VERTEX
  5
318C1
  8
0
 10
688.77210126640955
 20
316.7970016241029
 30
0.0
 70
    32
  0
VERTEX
  5
318C2
  8
0
 10
689.36189337115911
 20
315.62454737540429
 30
0.0
 70
    32
  0
VERTEX
  5
318C3
  8
0
 10
689.93216024078527
 20
314.42224226329557
 30
0.0
 70
    32
  0
VERTEX
  5
318C4
  8
0
 10
690.48241937258354
 20
313.19110355793367
 30
0.0
 70
    32
  0
VERTEX
  5
318C5
  8
0
 10
691.01220519239223
 20
311.93217292557529
 30
0.0
 70
    32
  0
VERTEX
  5
318C6
  8
0
 10
691.26927984451504
 20
311.29261761180118
 30
0.0
 70
    32
  0
VERTEX
  5
318C7
  8
0
 10
691.52106944851676
 20
310.6465155472211
 30
0.0
 70
    32
  0
VERTEX
  5
318C8
  8
0
 10
692.0085815909938
 20
309.33521921736792
 30
0.0
 70
    32
  0
VERTEX
  5
318C9
  8
0
 10
692.47432913587954
 20
307.9993934236245
 30
0.0
 70
    32
  0
VERTEX
  5
318CA
  8
0
 10
692.69891730912605
 20
307.322634393729
 30
0.0
 70
    32
  0
VERTEX
  5
318CB
  8
0
 10
692.91791801425268
 20
306.64016840797558
 30
0.0
 70
    32
  0
VERTEX
  5
318CC
  8
0
 10
693.33897290563664
 20
305.25869421048361
 30
0.0
 70
    32
  0
VERTEX
  5
318CD
  8
0
 10
693.73713755555627
 20
303.8561396962391
 30
0.0
 70
    32
  0
VERTEX
  5
318CE
  8
0
 10
693.92752999831873
 20
303.14732749507772
 30
0.0
 70
    32
  0
VERTEX
  5
318CF
  8
0
 10
694.11207507696781
 20
302.4336915663871
 30
0.0
 70
    32
  0
VERTEX
  5
318D0
  8
0
 10
694.46346823529484
 20
300.99255335405587
 30
0.0
 70
    32
  0
VERTEX
  5
318D1
  8
0
 10
694.79101971684474
 20
299.53394440604961
 30
0.0
 70
    32
  0
VERTEX
  5
318D2
  8
0
 10
695.09445238036267
 20
298.0590988511604
 30
0.0
 70
    32
  0
VERTEX
  5
318D3
  8
0
 10
695.37350949152176
 20
296.5692645559684
 30
0.0
 70
    32
  0
VERTEX
  5
318D4
  8
0
 10
695.62795494014597
 20
295.0657020690274
 30
0.0
 70
    32
  0
VERTEX
  5
318D5
  8
0
 10
695.7458801955172
 20
294.30916988053377
 30
0.0
 70
    32
  0
VERTEX
  5
318D6
  8
0
 10
695.8575734399833
 20
293.54968355430901
 30
0.0
 70
    32
  0
VERTEX
  5
318D7
  8
0
 10
696.06217071085894
 20
292.02249171483032
 30
0.0
 70
    32
  0
VERTEX
  5
318D8
  8
0
 10
696.24157364305483
 20
290.48541870735511
 30
0.0
 70
    32
  0
VERTEX
  5
318D9
  8
0
 10
696.39563044378065
 20
288.93976504910228
 30
0.0
 70
    32
  0
VERTEX
  5
318DA
  8
0
 10
696.52421076560165
 20
287.38683851737818
 30
0.0
 70
    32
  0
VERTEX
  5
318DB
  8
0
 10
696.62720581672966
 20
285.82795304306592
 30
0.0
 70
    32
  0
VERTEX
  5
318DC
  8
0
 10
696.66908078549875
 20
285.04668771496421
 30
0.0
 70
    32
  0
VERTEX
  5
318DD
  8
0
 10
696.70452845306818
 20
284.26442759890909
 30
0.0
 70
    32
  0
VERTEX
  5
318DE
  8
0
 10
696.75611325194723
 20
282.69758508352919
 30
0.0
 70
    32
  0
VERTEX
  5
318DF
  8
0
 10
696.7819165674772
 20
281.12875120212038
 30
0.0
 70
    32
  0
VERTEX
  5
318E0
  8
0
 10
696.78514249370073
 20
280.34400227344622
 30
0.0
 70
    32
  0
SEQEND
  5
318E1
  8
0
  0
POLYLINE
  5
318E2
  8
0
 66
     1
 10
0.0
 20
0.0
 30
0.0
 70
     8
  0
VERTEX
  5
318E3
  8
0
 10
696.78514249370073
 20
280.34400227344622
 30
0.0
 70
    32
  0
VERTEX
  5
318E4
  8
0
 10
696.77867940055694
 20
279.23326281831942
 30
0.0
 70
    32
  0
VERTEX
  5
318E5
  8
0
 10
696.72699108896131
 20
277.01366667578941
 30
0.0
 70
    32
  0
VERTEX
  5
318E6
  8
0
 10
696.62370208045274
 20
274.79971564502881
 30
0.0
 70
    32
  0
VERTEX
  5
318E7
  8
0
 10
696.55275861807922
 20
273.69603033670683
 30
0.0
 70
    32
  0
VERTEX
  5
318E8
  8
0
 10
696.46898745588487
 20
272.59516250129258
 30
0.0
 70
    32
  0
VERTEX
  5
318E9
  8
0
 10
696.26310946550836
 20
270.40374408987242
 30
0.0
 70
    32
  0
VERTEX
  5
318EA
  8
0
 10
696.00641708444425
 20
268.22917499192857
 30
0.0
 70
    32
  0
VERTEX
  5
318EB
  8
0
 10
695.69934542114925
 20
266.07514122805742
 30
0.0
 70
    32
  0
VERTEX
  5
318EC
  8
0
 10
695.34241497988069
 20
263.94529401027597
 30
0.0
 70
    32
  0
VERTEX
  5
318ED
  8
0
 10
694.93623077841539
 20
261.84324355300311
 30
0.0
 70
    32
  0
VERTEX
  5
318EE
  8
0
 10
694.71488044536
 20
260.80375758371429
 30
0.0
 70
    32
  0
VERTEX
  5
318EF
  8
0
 10
694.48148132250481
 20
259.77255295353962
 30
0.0
 70
    32
  0
VERTEX
  5
318F0
  8
0
 10
693.97893743882139
 20
257.73673215240927
 30
0.0
 70
    32
  0
VERTEX
  5
318F1
  8
0
 10
693.42945096836127
 20
255.73923198380911
 30
0.0
 70
    32
  0
VERTEX
  5
318F2
  8
0
 10
692.83395332252428
 20
253.78343832624211
 30
0.0
 70
    32
  0
VERTEX
  5
318F3
  8
0
 10
692.19345390431806
 20
251.872666363261
 30
0.0
 70
    32
  0
VERTEX
  5
318F4
  8
0
 10
691.50903839736202
 20
250.0101549640367
 30
0.0
 70
    32
  0
VERTEX
  5
318F5
  8
0
 10
691.15072179442996
 20
249.0979869013604
 30
0.0
 70
    32
  0
VERTEX
  5
318F6
  8
0
 10
690.78186692558938
 20
248.1990611932888
 30
0.0
 70
    32
  0
VERTEX
  5
318F7
  8
0
 10
690.01317208677119
 20
246.44245495987889
 30
0.0
 70
    32
  0
VERTEX
  5
318F8
  8
0
 10
689.20425686319095
 20
244.74331381313499
 30
0.0
 70
    32
  0
VERTEX
  5
318F9
  8
0
 10
688.78514249370073
 20
243.91619663145499
 30
0.0
 70
    32
  0
SEQEND
  5
318FA
  8
0
  0
LINE
  5
318FB
  8
0
 10
643.78514249370073
 20
233.523993091107
 30
0.0
 11
643.78514249370073
 21
316.77158397113629
 31
0.0
  0
LINE
  5
318FC
  8
0
 10
688.78514249370073
 20
316.77158397113629
 30
0.0
 11
688.78514249370073
 21
233.523993091107
 31
0.0
  0
LINE
  5
318FD
  8
0
 10
659.68382061924194
 20
333.02399309110712
 30
0.0
 11
672.88646436815952
 21
333.02399309110712
 31
0.0
  0
LINE
  5
318FF
  8
0
 10
686.26581211258406
 20
321.10917852538432
 30
0.0
 11
646.30393614873446
 21
321.10917852538432
 31
0.0
  0
POLYLINE
  5
31904
  8
0
 66
     1
 10
0.0
 20
0.0
 30
0.0
 70
     8
  0
VERTEX
  5
31905
  8
0
 10
666.28514249370073
 20
338.72399309110688
 30
0.0
 70
    32
  0
VERTEX
  5
31906
  8
0
 10
666.52512315060847
 20
338.72244938591621
 30
0.0
 70
    32
  0
VERTEX
  5
31907
  8
0
 10
667.00503369984108
 20
338.71010023421741
 30
0.0
 70
    32
  0
VERTEX
  5
31908
  8
0
 10
667.48479196606274
 20
338.68540454311102
 30
0.0
 70
    32
  0
VERTEX
  5
31909
  8
0
 10
667.72458227675668
 20
338.66842827579558
 30
0.0
 70
    32
  0
VERTEX
  5
3190A
  8
0
 10
667.96429646305842
 20
338.64836753662888
 30
0.0
 70
    32
  0
VERTEX
  5
3190B
  8
0
 10
668.44344575829564
 20
338.598997049437
 30
0.0
 70
    32
  0
VERTEX
  5
3190C
  8
0
 10
668.92213849437849
 20
338.53730352517692
 30
0.0
 70
    32
  0
VERTEX
  5
3190D
  8
0
 10
669.40027341049108
 20
338.46330001425991
 30
0.0
 70
    32
  0
VERTEX
  5
3190E
  8
0
 10
669.87774936381538
 20
338.37700217110302
 30
0.0
 70
    32
  0
VERTEX
  5
3190F
  8
0
 10
670.35446535092979
 20
338.2784282508191
 30
0.0
 70
    32
  0
VERTEX
  5
31910
  8
0
 10
670.59250683696234
 20
338.22454417666631
 30
0.0
 70
    32
  0
VERTEX
  5
31911
  8
0
 10
670.83032052917042
 20
338.16759910535569
 30
0.0
 70
    32
  0
VERTEX
  5
31912
  8
0
 10
671.30521423796779
 20
338.0445381790837
 30
0.0
 70
    32
  0
VERTEX
  5
31913
  8
0
 10
671.77904602013723
 20
337.90927150383601
 30
0.0
 70
    32
  0
VERTEX
  5
31914
  8
0
 10
672.25171564312859
 20
337.76182769340397
 30
0.0
 70
    32
  0
VERTEX
  5
31915
  8
0
 10
672.72312312023314
 20
337.60223793748349
 30
0.0
 70
    32
  0
VERTEX
  5
31916
  8
0
 10
673.19316873172875
 20
337.4305359950763
 30
0.0
 70
    32
  0
VERTEX
  5
31917
  8
0
 10
673.42764975365799
 20
337.34015420442671
 30
0.0
 70
    32
  0
VERTEX
  5
31918
  8
0
 10
673.66175304597937
 20
337.24675818734983
 30
0.0
 70
    32
  0
VERTEX
  5
31919
  8
0
 10
674.12877694046426
 20
337.05094338995201
 30
0.0
 70
    32
  0
VERTEX
  5
3191A
  8
0
 10
674.5941416227497
 20
336.84313302479183
 30
0.0
 70
    32
  0
VERTEX
  5
3191B
  8
0
 10
674.82617098208402
 20
336.7347431427433
 30
0.0
 70
    32
  0
VERTEX
  5
3191C
  8
0
 10
675.05774865138437
 20
336.62337105127159
 30
0.0
 70
    32
  0
VERTEX
  5
3191D
  8
0
 10
675.51949995672328
 20
336.3917039569933
 30
0.0
 70
    32
  0
VERTEX
  5
3191E
  8
0
 10
675.97929786167595
 20
336.14818074792078
 30
0.0
 70
    32
  0
VERTEX
  5
3191F
  8
0
 10
676.20843387734158
 20
336.02198910077499
 30
0.0
 70
    32
  0
VERTEX
  5
31920
  8
0
 10
676.43704510236557
 20
335.89285293801498
 30
0.0
 70
    32
  0
VERTEX
  5
31921
  8
0
 10
676.892644848705
 20
335.62577453833683
 30
0.0
 70
    32
  0
VERTEX
  5
31922
  8
0
 10
677.34600072488001
 20
335.34700204562159
 30
0.0
 70
    32
  0
VERTEX
  5
31923
  8
0
 10
677.79701682973507
 20
335.056594430328
 30
0.0
 70
    32
  0
VERTEX
  5
31924
  8
0
 10
678.24559775706302
 20
334.75461312416382
 30
0.0
 70
    32
  0
VERTEX
  5
31925
  8
0
 10
678.69164861578236
 20
334.44112200709009
 30
0.0
 70
    32
  0
VERTEX
  5
31926
  8
0
 10
678.91369576174884
 20
334.28008089808009
 30
0.0
 70
    32
  0
VERTEX
  5
31927
  8
0
 10
679.13507505001405
 20
334.11618739380992
 30
0.0
 70
    32
  0
VERTEX
  5
31928
  8
0
 10
679.57578325903876
 20
333.77987801973899
 30
0.0
 70
    32
  0
VERTEX
  5
31929
  8
0
 10
680.01368001714172
 20
333.43226502646621
 30
0.0
 70
    32
  0
VERTEX
  5
3192A
  8
0
 10
680.44867269332917
 20
333.073421946704
 30
0.0
 70
    32
  0
VERTEX
  5
3192B
  8
0
 10
680.88066927092768
 20
332.70342468873469
 30
0.0
 70
    32
  0
VERTEX
  5
3192C
  8
0
 10
681.30957836704602
 20
332.32235152035219
 30
0.0
 70
    32
  0
VERTEX
  5
3192D
  8
0
 10
681.52284673045676
 20
332.12768656955632
 30
0.0
 70
    32
  0
VERTEX
  5
3192E
  8
0
 10
681.73530925190744
 20
331.93028305230609
 30
0.0
 70
    32
  0
VERTEX
  5
3192F
  8
0
 10
682.15777186804053
 20
331.52730222124819
 30
0.0
 70
    32
  0
VERTEX
  5
31930
  8
0
 10
682.57687684933251
 20
331.11349427219062
 30
0.0
 70
    32
  0
VERTEX
  5
31931
  8
0
 10
682.99253553993094
 20
330.6889467404726
 30
0.0
 70
    32
  0
VERTEX
  5
31932
  8
0
 10
683.40466001299774
 20
330.25374943324192
 30
0.0
 70
    32
  0
VERTEX
  5
31933
  8
0
 10
683.81316308931116
 20
329.8079944104602
 30
0.0
 70
    32
  0
VERTEX
  5
31934
  8
0
 10
684.01602956914576
 20
329.58118713569638
 30
0.0
 70
    32
  0
VERTEX
  5
31935
  8
0
 10
684.21795835570492
 20
329.3517759654269
 30
0.0
 70
    32
  0
VERTEX
  5
31936
  8
0
 10
684.61896018334755
 20
328.88519060483299
 30
0.0
 70
    32
  0
VERTEX
  5
31937
  8
0
 10
685.01608374585885
 20
328.40833702834738
 30
0.0
 70
    32
  0
VERTEX
  5
31938
  8
0
 10
685.40924503725091
 20
327.92131610773822
 30
0.0
 70
    32
  0
VERTEX
  5
31939
  8
0
 10
685.79836088969876
 20
327.4242308655339
 30
0.0
 70
    32
  0
VERTEX
  5
3193A
  8
0
 10
686.18334899113597
 20
326.91718645323039
 30
0.0
 70
    32
  0
VERTEX
  5
3193B
  8
0
 10
686.37426965098837
 20
326.65996299480912
 30
0.0
 70
    32
  0
VERTEX
  5
3193C
  8
0
 10
686.56412790266222
 20
326.4002901290487
 30
0.0
 70
    32
  0
VERTEX
  5
3193D
  8
0
 10
686.94061707577475
 20
325.87365123524478
 30
0.0
 70
    32
  0
VERTEX
  5
3193E
  8
0
 10
687.31273686940494
 20
325.33738117498069
 30
0.0
 70
    32
  0
VERTEX
  5
3193F
  8
0
 10
687.68040856676544
 20
324.79159338875752
 30
0.0
 70
    32
  0
VERTEX
  5
31940
  8
0
 10
688.04355439200299
 20
324.23640333042073
 30
0.0
 70
    32
  0
VERTEX
  5
31941
  8
0
 10
688.40209752664941
 20
323.67192844273501
 30
0.0
 70
    32
  0
VERTEX
  5
31942
  8
0
 10
688.57961934501736
 20
323.3862464264908
 30
0.0
 70
    32
  0
VERTEX
  5
31943
  8
0
 10
688.75596212587095
 20
323.09828813254262
 30
0.0
 70
    32
  0
VERTEX
  5
31944
  8
0
 10
689.10507333451551
 20
322.515603745504
 30
0.0
 70
    32
  0
VERTEX
  5
31945
  8
0
 10
689.44935730294299
 20
321.92399854042787
 30
0.0
 70
    32
  0
VERTEX
  5
31946
  8
0
 10
689.61966627285665
 20
321.62488966622232
 30
0.0
 70
    32
  0
VERTEX
  5
31947
  8
0
 10
690.61529460843485
 20
319.78495239055019
 30
0.0
 70
    32
  0
VERTEX
  5
31948
  8
0
 10
692.4658027233113
 20
315.8834889091213
 30
0.0
 70
    32
  0
VERTEX
  5
31949
  8
0
 10
694.11706020552583
 20
311.71154847506659
 30
0.0
 70
    32
  0
VERTEX
  5
3194A
  8
0
 10
695.55649998858189
 20
307.30088207417521
 30
0.0
 70
    32
  0
VERTEX
  5
3194B
  8
0
 10
696.77316706657302
 20
302.68505754099078
 30
0.0
 70
    32
  0
VERTEX
  5
3194C
  8
0
 10
697.75780186839211
 20
297.89920408732308
 30
0.0
 70
    32
  0
VERTEX
  5
3194D
  8
0
 10
698.16069476123994
 20
295.45385574996681
 30
0.0
 70
    32
  0
VERTEX
  5
3194E
  8
0
 10
698.50291072865855
 20
292.97974494773052
 30
0.0
 70
    32
  0
VERTEX
  5
3194F
  8
0
 10
699.00282291903648
 20
287.96412017671668
 30
0.0
 70
    32
  0
VERTEX
  5
31950
  8
0
 10
699.2537338059019
 20
282.8905017073061
 30
0.0
 70
    32
  0
VERTEX
  5
31951
  8
0
 10
699.28514249370073
 20
280.34400227344622
 30
0.0
 70
    32
  0
SEQEND
  5
31952
  8
0
  0
POLYLINE
  5
31953
  8
0
 66
     1
 10
0.0
 20
0.0
 30
0.0
 70
     8
  0
VERTEX
  5
31954
  8
0
 10
699.28514249370073
 20
280.34400227344622
 30
0.0
 70
    32
  0
VERTEX
  5
31955
  8
0
 10
699.2787029569995
 20
279.19073976481701
 30
0.0
 70
    32
  0
VERTEX
  5
31956
  8
0
 10
699.22720174154745
 20
276.88601492977841
 30
0.0
 70
    32
  0
VERTEX
  5
31957
  8
0
 10
699.1242797013374
 20
274.58668783141093
 30
0.0
 70
    32
  0
VERTEX
  5
31958
  8
0
 10
699.05358294755888
 20
273.44017051869417
 30
0.0
 70
    32
  0
VERTEX
  5
31959
  8
0
 10
698.97009749226845
 20
272.29634759858169
 30
0.0
 70
    32
  0
VERTEX
  5
3195A
  8
0
 10
698.76489578467454
 20
270.0185693321323
 30
0.0
 70
    32
  0
VERTEX
  5
3195B
  8
0
 10
698.50899488764514
 20
267.75690852433439
 30
0.0
 70
    32
  0
VERTEX
  5
3195C
  8
0
 10
698.20279424904493
 20
265.51489550895388
 30
0.0
 70
    32
  0
VERTEX
  5
3195D
  8
0
 10
697.84677183199165
 20
263.29602995058298
 30
0.0
 70
    32
  0
VERTEX
  5
3195E
  8
0
 10
697.4414833687847
 20
261.10377538185088
 30
0.0
 70
    32
  0
VERTEX
  5
3195F
  8
0
 10
697.22055909021674
 20
260.0186983609388
 30
0.0
 70
    32
  0
VERTEX
  5
31960
  8
0
 10
696.98756149343444
 20
258.94155379702721
 30
0.0
 70
    32
  0
VERTEX
  5
31961
  8
0
 10
696.48571475415292
 20
256.81274031047178
 30
0.0
 70
    32
  0
VERTEX
  5
31962
  8
0
 10
695.93672650734959
 20
254.72065788825739
 30
0.0
 70
    32
  0
VERTEX
  5
31963
  8
0
 10
695.34145369485168
 20
252.6685721611934
 30
0.0
 70
    32
  0
VERTEX
  5
31964
  8
0
 10
694.70082550626228
 20
250.659686327348
 30
0.0
 70
    32
  0
VERTEX
  5
31965
  8
0
 10
694.0158419285458
 20
248.69713615202591
 30
0.0
 70
    32
  0
VERTEX
  5
31966
  8
0
 10
693.65704834143799
 20
247.73419721746811
 30
0.0
 70
    32
  0
VERTEX
  5
31967
  8
0
 10
693.28757218510009
 20
246.7839850730002
 30
0.0
 70
    32
  0
VERTEX
  5
31968
  8
0
 10
692.51715306675385
 20
244.92321941864881
 30
0.0
 70
    32
  0
VERTEX
  5
31969
  8
0
 10
691.70578715729778
 20
243.1177437464539
 30
0.0
 70
    32
  0
VERTEX
  5
3196A
  8
0
 10
691.28514249370073
 20
242.2366238501609
 30
0.0
 70
    32
  0
SEQEND
  5
3196B
  8
0
  0
POLYLINE
  5
3196C
  8
0
 66
     1
 10
0.0
 20
0.0
 30
0.0
 70
     8
  0
VERTEX
  5
3196D
  8
0
 10
641.28514249370073
 20
242.2366238501609
 30
0.0
 70
    32
  0
VERTEX
  5
3196E
  8
0
 10
640.86449783010346
 20
243.1177437464539
 30
0.0
 70
    32
  0
VERTEX
  5
3196F
  8
0
 10
640.0531319206475
 20
244.92321941864881
 30
0.0
 70
    32
  0
VERTEX
  5
31970
  8
0
 10
639.28271280230138
 20
246.7839850730002
 30
0.0
 70
    32
  0
VERTEX
  5
31971
  8
0
 10
638.91323664596348
 20
247.73419721746811
 30
0.0
 70
    32
  0
VERTEX
  5
31972
  8
0
 10
638.55444305885567
 20
248.69713615202591
 30
0.0
 70
    32
  0
VERTEX
  5
31973
  8
0
 10
637.86945948113896
 20
250.659686327348
 30
0.0
 70
    32
  0
VERTEX
  5
31974
  8
0
 10
637.22883129254978
 20
252.6685721611934
 30
0.0
 70
    32
  0
VERTEX
  5
31975
  8
0
 10
636.63355848005165
 20
254.72065788825739
 30
0.0
 70
    32
  0
VERTEX
  5
31976
  8
0
 10
636.08457023324854
 20
256.81274031047178
 30
0.0
 70
    32
  0
VERTEX
  5
31977
  8
0
 10
635.58272349396736
 20
258.94155379702721
 30
0.0
 70
    32
  0
VERTEX
  5
31978
  8
0
 10
635.34972589718473
 20
260.0186983609388
 30
0.0
 70
    32
  0
VERTEX
  5
31979
  8
0
 10
635.12880161861665
 20
261.10377538185088
 30
0.0
 70
    32
  0
VERTEX
  5
3197A
  8
0
 10
634.72351315540982
 20
263.29602995058298
 30
0.0
 70
    32
  0
VERTEX
  5
3197B
  8
0
 10
634.36749073835654
 20
265.51489550895388
 30
0.0
 70
    32
  0
VERTEX
  5
3197C
  8
0
 10
634.06129009975621
 20
267.75690852433439
 30
0.0
 70
    32
  0
VERTEX
  5
3197D
  8
0
 10
633.80538920272693
 20
270.0185693321323
 30
0.0
 70
    32
  0
VERTEX
  5
3197E
  8
0
 10
633.60018749513301
 20
272.29634759858169
 30
0.0
 70
    32
  0
VERTEX
  5
3197F
  8
0
 10
633.51670203984258
 20
273.44017051869417
 30
0.0
 70
    32
  0
VERTEX
  5
31980
  8
0
 10
633.44600528606406
 20
274.58668783141093
 30
0.0
 70
    32
  0
VERTEX
  5
31981
  8
0
 10
633.3430832458539
 20
276.88601492977841
 30
0.0
 70
    32
  0
VERTEX
  5
31982
  8
0
 10
633.29158203040197
 20
279.19073976481701
 30
0.0
 70
    32
  0
VERTEX
  5
31983
  8
0
 10
633.28514249370073
 20
280.34400227344622
 30
0.0
 70
    32
  0
SEQEND
  5
31984
  8
0
  0
POLYLINE
  5
31985
  8
0
 66
     1
 10
0.0
 20
0.0
 30
0.0
 70
     8
  0
VERTEX
  5
31986
  8
0
 10
633.28514249370073
 20
280.34400227344622
 30
0.0
 70
    32
  0
VERTEX
  5
31987
  8
0
 10
633.31655118149945
 20
282.8905017073061
 30
0.0
 70
    32
  0
VERTEX
  5
31988
  8
0
 10
633.56746206836476
 20
287.96412017671668
 30
0.0
 70
    32
  0
VERTEX
  5
31989
  8
0
 10
634.06737425874269
 20
292.97974494773052
 30
0.0
 70
    32
  0
VERTEX
  5
3198A
  8
0
 10
634.40959022616153
 20
295.45385574996681
 30
0.0
 70
    32
  0
VERTEX
  5
3198B
  8
0
 10
634.81248311900924
 20
297.89920408732269
 30
0.0
 70
    32
  0
VERTEX
  5
3198C
  8
0
 10
635.79711792082844
 20
302.68505754099078
 30
0.0
 70
    32
  0
VERTEX
  5
3198D
  8
0
 10
637.01378499881946
 20
307.30088207417521
 30
0.0
 70
    32
  0
VERTEX
  5
3198E
  8
0
 10
638.45322478187563
 20
311.71154847506659
 30
0.0
 70
    32
  0
VERTEX
  5
3198F
  8
0
 10
640.10448226409005
 20
315.8834889091213
 30
0.0
 70
    32
  0
VERTEX
  5
31990
  8
0
 10
641.95499037896661
 20
319.78495239055019
 30
0.0
 70
    32
  0
VERTEX
  5
31991
  8
0
 10
642.95061871454482
 20
321.62488966622232
 30
0.0
 70
    32
  0
VERTEX
  5
31992
  8
0
 10
643.12092768445825
 20
321.92399854042787
 30
0.0
 70
    32
  0
VERTEX
  5
31993
  8
0
 10
643.46521165288596
 20
322.515603745504
 30
0.0
 70
    32
  0
VERTEX
  5
31994
  8
0
 10
643.81432286153029
 20
323.09828813254262
 30
0.0
 70
    32
  0
VERTEX
  5
31995
  8
0
 10
643.9906656423841
 20
323.3862464264908
 30
0.0
 70
    32
  0
VERTEX
  5
31996
  8
0
 10
644.16818746075251
 20
323.67192844273501
 30
0.0
 70
    32
  0
VERTEX
  5
31997
  8
0
 10
644.52673059539848
 20
324.23640333042073
 30
0.0
 70
    32
  0
VERTEX
  5
31998
  8
0
 10
644.88987642063603
 20
324.79159338875752
 30
0.0
 70
    32
  0
VERTEX
  5
31999
  8
0
 10
645.25754811799652
 20
325.33738117498069
 30
0.0
 70
    32
  0
VERTEX
  5
3199A
  8
0
 10
645.62966791162671
 20
325.87365123524478
 30
0.0
 70
    32
  0
VERTEX
  5
3199B
  8
0
 10
646.00615708473924
 20
326.4002901290487
 30
0.0
 70
    32
  0
VERTEX
  5
3199C
  8
0
 10
646.19601533641287
 20
326.65996299480912
 30
0.0
 70
    32
  0
VERTEX
  5
3199D
  8
0
 10
646.38693599626549
 20
326.91718645323039
 30
0.0
 70
    32
  0
VERTEX
  5
3199E
  8
0
 10
646.77192409770248
 20
327.4242308655339
 30
0.0
 70
    32
  0
VERTEX
  5
3199F
  8
0
 10
647.16103995015055
 20
327.92131610773822
 30
0.0
 70
    32
  0
VERTEX
  5
319A0
  8
0
 10
647.5542012415425
 20
328.40833702834738
 30
0.0
 70
    32
  0
VERTEX
  5
319A1
  8
0
 10
647.95132480405391
 20
328.88519060483299
 30
0.0
 70
    32
  0
VERTEX
  5
319A2
  8
0
 10
648.35232663169654
 20
329.3517759654269
 30
0.0
 70
    32
  0
VERTEX
  5
319A3
  8
0
 10
648.55425541825571
 20
329.58118713569593
 30
0.0
 70
    32
  0
VERTEX
  5
319A4
  8
0
 10
648.75712189809008
 20
329.8079944104602
 30
0.0
 70
    32
  0
VERTEX
  5
319A5
  8
0
 10
649.16562497440373
 20
330.25374943324192
 30
0.0
 70
    32
  0
VERTEX
  5
319A6
  8
0
 10
649.57774944747052
 20
330.6889467404726
 30
0.0
 70
    32
  0
VERTEX
  5
319A7
  8
0
 10
649.99340813806884
 20
331.11349427219062
 30
0.0
 70
    32
  0
VERTEX
  5
319A8
  8
0
 10
650.41251311936094
 20
331.52730222124819
 30
0.0
 70
    32
  0
VERTEX
  5
319A9
  8
0
 10
650.83497573549437
 20
331.93028305230609
 30
0.0
 70
    32
  0
VERTEX
  5
319AA
  8
0
 10
651.04743825694447
 20
332.12768656955632
 30
0.0
 70
    32
  0
VERTEX
  5
319AB
  8
0
 10
651.26070662035545
 20
332.32235152035219
 30
0.0
 70
    32
  0
VERTEX
  5
319AC
  8
0
 10
651.68961571647378
 20
332.70342468873469
 30
0.0
 70
    32
  0
VERTEX
  5
319AD
  8
0
 10
652.12161229407229
 20
333.073421946704
 30
0.0
 70
    32
  0
VERTEX
  5
319AE
  8
0
 10
652.55660497025974
 20
333.43226502646621
 30
0.0
 70
    32
  0
VERTEX
  5
319AF
  8
0
 10
652.99450172836248
 20
333.77987801973899
 30
0.0
 70
    32
  0
VERTEX
  5
319B0
  8
0
 10
653.43520993738775
 20
334.11618739380992
 30
0.0
 70
    32
  0
VERTEX
  5
319B1
  8
0
 10
653.65658922565251
 20
334.28008089808009
 30
0.0
 70
    32
  0
VERTEX
  5
319B2
  8
0
 10
653.878636371619
 20
334.44112200709009
 30
0.0
 70
    32
  0
VERTEX
  5
319B3
  8
0
 10
654.32468723033844
 20
334.75461312416382
 30
0.0
 70
    32
  0
VERTEX
  5
319B4
  8
0
 10
654.77326815766617
 20
335.056594430328
 30
0.0
 70
    32
  0
VERTEX
  5
319B5
  8
0
 10
655.22428426252191
 20
335.34700204562159
 30
0.0
 70
    32
  0
VERTEX
  5
319B6
  8
0
 10
655.67764013869635
 20
335.62577453833683
 30
0.0
 70
    32
  0
VERTEX
  5
319B7
  8
0
 10
656.13323988503589
 20
335.89285293801498
 30
0.0
 70
    32
  0
VERTEX
  5
319B8
  8
0
 10
656.36185111005989
 20
336.02198910077499
 30
0.0
 70
    32
  0
VERTEX
  5
319B9
  8
0
 10
656.59098712572541
 20
336.14818074792078
 30
0.0
 70
    32
  0
VERTEX
  5
319BA
  8
0
 10
657.05078503067796
 20
336.3917039569933
 30
0.0
 70
    32
  0
VERTEX
  5
319BB
  8
0
 10
657.51253633601709
 20
336.62337105127159
 30
0.0
 70
    32
  0
VERTEX
  5
319BC
  8
0
 10
657.74411400531744
 20
336.7347431427433
 30
0.0
 70
    32
  0
VERTEX
  5
319BD
  8
0
 10
657.97614336465165
 20
336.84313302479183
 30
0.0
 70
    32
  0
VERTEX
  5
319BE
  8
0
 10
658.44150804693697
 20
337.05094338995201
 30
0.0
 70
    32
  0
VERTEX
  5
319BF
  8
0
 10
658.9085319414221
 20
337.24675818734983
 30
0.0
 70
    32
  0
VERTEX
  5
319C0
  8
0
 10
659.14263523374348
 20
337.34015420442671
 30
0.0
 70
    32
  0
VERTEX
  5
319C1
  8
0
 10
659.37711625567272
 20
337.4305359950763
 30
0.0
 70
    32
  0
VERTEX
  5
319C2
  8
0
 10
659.84716186716832
 20
337.60223793748349
 30
0.0
 70
    32
  0
VERTEX
  5
319C3
  8
0
 10
660.31856934427276
 20
337.76182769340397
 30
0.0
 70
    32
  0
VERTEX
  5
319C4
  8
0
 10
660.79123896726458
 20
337.90927150383601
 30
0.0
 70
    32
  0
VERTEX
  5
319C5
  8
0
 10
661.26507074943345
 20
338.0445381790837
 30
0.0
 70
    32
  0
VERTEX
  5
319C6
  8
0
 10
661.73996445823104
 20
338.16759910535569
 30
0.0
 70
    32
  0
VERTEX
  5
319C7
  8
0
 10
661.97777815043901
 20
338.22454417666631
 30
0.0
 70
    32
  0
VERTEX
  5
319C8
  8
0
 10
662.21581963647168
 20
338.2784282508191
 30
0.0
 70
    32
  0
VERTEX
  5
319C9
  8
0
 10
662.69253562358608
 20
338.37700217110302
 30
0.0
 70
    32
  0
VERTEX
  5
319CA
  8
0
 10
663.17001157691084
 20
338.46330001425991
 30
0.0
 70
    32
  0
VERTEX
  5
319CB
  8
0
 10
663.64814649302298
 20
338.53730352517692
 30
0.0
 70
    32
  0
VERTEX
  5
319CC
  8
0
 10
664.12683922910583
 20
338.598997049437
 30
0.0
 70
    32
  0
VERTEX
  5
319CD
  8
0
 10
664.60598852434305
 20
338.64836753662888
 30
0.0
 70
    32
  0
VERTEX
  5
319CE
  8
0
 10
664.84570271064456
 20
338.66842827579558
 30
0.0
 70
    32
  0
VERTEX
  5
319CF
  8
0
 10
665.08549302133861
 20
338.68540454311102
 30
0.0
 70
    32
  0
VERTEX
  5
319D0
  8
0
 10
665.56525128756039
 20
338.71010023421741
 30
0.0
 70
    32
  0
VERTEX
  5
319D1
  8
0
 10
666.04516183679289
 20
338.72244938591621
 30
0.0
 70
    32
  0
VERTEX
  5
319D2
  8
0
 10
666.28514249370073
 20
338.72399309110688
 30
0.0
 70
    32
  0
SEQEND
  5
319D3
  8
0
  0
LINE
  5
319D5
  8
0
 10
638.26014249370064
 20
347.22399309110688
 30
0.0
 11
694.31014249370082
 21
347.22399309110688
 31
0.0
  0
LINE
  5
319D7
  8
0
 10
633.78514249370073
 20
343.72399309110688
 30
0.0
 11
698.78514249370073
 21
343.72399309110688
 31
0.0
  0
LINE
  5
319D9
  8
0
 10
629.78514249370073
 20
338.72399309110688
 30
0.0
 11
702.78514249370073
 21
338.72399309110688
 31
0.0
  0
POLYLINE
  5
319F0
  8
0
 66
     1
 10
0.0
 20
0.0
 30
0.0
 70
     8
  0
VERTEX
  5
319F1
  8
0
 10
640.42572278428543
 20
237.26565975777379
 30
0.0
 70
    32
  0
VERTEX
  5
319F2
  8
0
 10
640.50656743754325
 20
237.82783823588849
 30
0.0
 70
    32
  0
VERTEX
  5
319F3
  8
0
 10
640.62117777629646
 20
238.8836281286126
 30
0.0
 70
    32
  0
VERTEX
  5
319F4
  8
0
 10
640.67795236008078
 20
239.8923886725247
 30
0.0
 70
    32
  0
VERTEX
  5
319F5
  8
0
 10
640.68514249370082
 20
240.39482642444051
 30
0.0
 70
    32
  0
SEQEND
  5
319F6
  8
0
  0
POLYLINE
  5
31A1B
  8
0
 66
     1
 10
0.0
 20
0.0
 30
0.0
 70
     8
  0
VERTEX
  5
31A1C
  8
0
 10
691.28514249370073
 20
240.39482642444051
 30
0.0
 70
    32
  0
VERTEX
  5
31A1D
  8
0
 10
691.29233262732066
 20
239.8923886725247
 30
0.0
 70
    32
  0
VERTEX
  5
31A1E
  8
0
 10
691.34910721110498
 20
238.8836281286126
 30
0.0
 70
    32
  0
VERTEX
  5
31A1F
  8
0
 10
691.4637175498583
 20
237.82783823588849
 30
0.0
 70
    32
  0
VERTEX
  5
31A20
  8
0
 10
691.54456220311613
 20
237.26565975777379
 30
0.0
 70
    32
  0
SEQEND
  5
31A21
  8
0
  0
LINE
  5
31A2C
  8
0
 10
640.68514249370082
 20
237.708993091107
 30
0.0
 11
641.28514249370073
 21
237.708993091107
 31
0.0
  0
LINE
  5
31A2D
  8
0
 10
700.51814249370091
 20
247.52399309110709
 30
0.0
 11
699.28514249370073
 21
247.52399309110709
 31
0.0
  0
LINE
  5
31A2E
  8
0
 10
699.28514249370073
 20
239.52399309110709
 30
0.0
 11
700.51814249370091
 21
239.52399309110709
 31
0.0
  0
LINE
  5
31A2F
  8
0
 10
701.28514249370073
 20
246.7569930911072
 30
0.0
 11
700.51814249370091
 21
247.52399309110709
 31
0.0
  0
LINE
  5
31A30
  8
0
 10
700.51814249370091
 20
239.52399309110709
 30
0.0
 11
701.28514249370073
 21
240.29099309110691
 31
0.0
  0
LINE
  5
31A31
  8
0
 10
688.78514249370073
 20
247.52399309110709
 30
0.0
 11
686.28514249370073
 21
247.52399309110709
 31
0.0
  0
LINE
  5
31A32
  8
0
 10
686.28514249370073
 20
239.52399309110709
 30
0.0
 11
688.78514249370073
 21
239.52399309110709
 31
0.0
  0
LINE
  5
31A33
  8
0
 10
699.28514249370073
 20
249.33899309110711
 30
0.0
 11
696.78514249370073
 21
249.33899309110711
 31
0.0
  0
LINE
  5
31A34
  8
0
 10
696.78514249370073
 20
237.708993091107
 30
0.0
 11
699.28514249370073
 21
237.708993091107
 31
0.0
  0
LINE
  5
31A35
  8
0
 10
646.28514249370073
 20
247.52399309110709
 30
0.0
 11
643.78514249370073
 21
247.52399309110709
 31
0.0
  0
LINE
  5
31A36
  8
0
 10
643.78514249370073
 20
239.52399309110709
 30
0.0
 11
646.28514249370073
 21
239.52399309110709
 31
0.0
  0
LINE
  5
31A37
  8
0
 10
700.51814249370091
 20
239.52399309110709
 30
0.0
 11
700.51814249370091
 21
247.52399309110709
 31
0.0
  0
LINE
  5
31A38
  8
0
 10
701.28514249370073
 20
240.29099309110691
 30
0.0
 11
701.28514249370073
 21
246.7569930911072
 31
0.0
  0
LINE
  5
31A39
  8
0
 10
635.98514249370055
 20
237.26565975777379
 30
0.0
 11
635.98514249370055
 21
249.7823264244403
 31
0.0
  0
LINE
  5
31A3A
  8
0
 10
640.68514249370082
 20
237.26565975777379
 30
0.0
 11
640.68514249370082
 21
243.48422438560149
 31
0.0
  0
LINE
  5
31A3B
  8
0
 10
635.98514249370055
 20
237.26565975777379
 30
0.0
 11
640.68514249370082
 21
237.26565975777379
 31
0.0
  0
LINE
  5
31A3C
  8
0
 10
640.48456642353847
 20
243.92417378407029
 30
0.0
 11
640.42572278428543
 21
243.52399309110709
 31
0.0
  0
POLYLINE
  5
31A3D
  8
0
 66
     1
 10
0.0
 20
0.0
 30
0.0
 70
     8
  0
VERTEX
  5
31A3E
  8
0
 10
636.2445622031164
 20
243.52399309110709
 30
0.0
 70
    32
  0
VERTEX
  5
31A3F
  8
0
 10
636.16371754985801
 20
244.0861715692217
 30
0.0
 70
    32
  0
VERTEX
  5
31A40
  8
0
 10
636.04910721110491
 20
245.14196146194581
 30
0.0
 70
    32
  0
VERTEX
  5
31A41
  8
0
 10
635.99233262732059
 20
246.1507220058584
 30
0.0
 70
    32
  0
VERTEX
  5
31A42
  8
0
 10
635.98514249370055
 20
246.65315975777369
 30
0.0
 70
    32
  0
SEQEND
  5
31A43
  8
0
  0
POLYLINE
  5
31A44
  8
0
 66
     1
 10
0.0
 20
0.0
 30
0.0
 70
     8
  0
VERTEX
  5
31A45
  8
0
 10
635.98514249370055
 20
246.65315975777369
 30
0.0
 70
    32
  0
VERTEX
  5
31A46
  8
0
 10
635.99233262732059
 20
247.15559750968939
 30
0.0
 70
    32
  0
VERTEX
  5
31A47
  8
0
 10
636.04910721110491
 20
248.16435805360149
 30
0.0
 70
    32
  0
VERTEX
  5
31A48
  8
0
 10
636.16371754985801
 20
249.2201479463256
 30
0.0
 70
    32
  0
VERTEX
  5
31A49
  8
0
 10
636.2445622031164
 20
249.7823264244403
 30
0.0
 70
    32
  0
SEQEND
  5
31A4A
  8
0
  0
POLYLINE
  5
31A4B
  8
0
 66
     1
 10
0.0
 20
0.0
 30
0.0
 70
     8
  0
VERTEX
  5
31A4C
  8
0
 10
640.68514249370082
 20
240.39482642444051
 30
0.0
 70
    32
  0
VERTEX
  5
31A4D
  8
0
 10
640.67795236008078
 20
239.8923886725247
 30
0.0
 70
    32
  0
VERTEX
  5
31A4E
  8
0
 10
640.62117777629646
 20
238.8836281286126
 30
0.0
 70
    32
  0
VERTEX
  5
31A4F
  8
0
 10
640.50656743754325
 20
237.82783823588849
 30
0.0
 70
    32
  0
VERTEX
  5
31A50
  8
0
 10
640.42572278428543
 20
237.26565975777379
 30
0.0
 70
    32
  0
SEQEND
  5
31A51
  8
0
  0
POLYLINE
  5
31A52
  8
0
 66
     1
 10
0.0
 20
0.0
 30
0.0
 70
     8
  0
VERTEX
  5
31A53
  8
0
 10
636.2445622031164
 20
237.26565975777379
 30
0.0
 70
    32
  0
VERTEX
  5
31A54
  8
0
 10
636.16371754985801
 20
237.82783823588849
 30
0.0
 70
    32
  0
VERTEX
  5
31A55
  8
0
 10
636.04910721110491
 20
238.8836281286126
 30
0.0
 70
    32
  0
VERTEX
  5
31A56
  8
0
 10
635.99233262732059
 20
239.8923886725247
 30
0.0
 70
    32
  0
VERTEX
  5
31A57
  8
0
 10
635.98514249370055
 20
240.39482642444051
 30
0.0
 70
    32
  0
SEQEND
  5
31A58
  8
0
  0
POLYLINE
  5
31A59
  8
0
 66
     1
 10
0.0
 20
0.0
 30
0.0
 70
     8
  0
VERTEX
  5
31A5A
  8
0
 10
635.98514249370055
 20
240.39482642444051
 30
0.0
 70
    32
  0
VERTEX
  5
31A5B
  8
0
 10
635.99233262732059
 20
240.8972641763558
 30
0.0
 70
    32
  0
VERTEX
  5
31A5C
  8
0
 10
636.04910721110491
 20
241.90602472026831
 30
0.0
 70
    32
  0
VERTEX
  5
31A5D
  8
0
 10
636.16371754985801
 20
242.96181461299241
 30
0.0
 70
    32
  0
VERTEX
  5
31A5E
  8
0
 10
636.2445622031164
 20
243.52399309110709
 30
0.0
 70
    32
  0
SEQEND
  5
31A5F
  8
0
  0
LINE
  5
31A60
  8
0
 10
636.2445622031164
 20
243.52399309110709
 30
0.0
 11
640.42572278428543
 21
243.52399309110709
 31
0.0
  0
POLYLINE
  5
31A61
  8
0
 66
     1
 10
0.0
 20
0.0
 30
0.0
 70
     8
  0
VERTEX
  5
31A62
  8
0
 10
640.42572278428543
 20
243.52399309110709
 30
0.0
 70
    32
  0
VERTEX
  5
31A63
  8
0
 10
640.50656743754325
 20
242.96181461299241
 30
0.0
 70
    32
  0
VERTEX
  5
31A64
  8
0
 10
640.62117777629646
 20
241.90602472026831
 30
0.0
 70
    32
  0
VERTEX
  5
31A65
  8
0
 10
640.67795236008078
 20
240.8972641763558
 30
0.0
 70
    32
  0
VERTEX
  5
31A66
  8
0
 10
640.68514249370082
 20
240.39482642444051
 30
0.0
 70
    32
  0
SEQEND
  5
31A67
  8
0
  0
LINE
  5
31A68
  8
0
 10
635.98514249370055
 20
249.7823264244403
 30
0.0
 11
638.17639663150749
 21
249.7823264244403
 31
0.0
  0
LINE
  5
31A69
  8
0
 10
699.28514249370073
 20
237.708993091107
 30
0.0
 11
699.28514249370073
 21
249.33899309110711
 31
0.0
  0
LINE
  5
31A6A
  8
0
 10
696.78514249370073
 20
237.26565975777379
 30
0.0
 11
696.78514249370073
 21
249.7823264244403
 31
0.0
  0
LINE
  5
31A6B
  8
0
 10
691.28514249370073
 20
237.26565975777379
 30
0.0
 11
696.78514249370073
 21
237.26565975777379
 31
0.0
  0
POLYLINE
  5
31A6C
  8
0
 66
     1
 10
0.0
 20
0.0
 30
0.0
 70
     8
  0
VERTEX
  5
31A6D
  8
0
 10
696.78514249370073
 20
246.65315975777369
 30
0.0
 70
    32
  0
VERTEX
  5
31A6E
  8
0
 10
696.77795236008069
 20
246.1507220058584
 30
0.0
 70
    32
  0
VERTEX
  5
31A6F
  8
0
 10
696.72117777629637
 20
245.14196146194581
 30
0.0
 70
    32
  0
VERTEX
  5
31A70
  8
0
 10
696.60656743754305
 20
244.0861715692217
 30
0.0
 70
    32
  0
VERTEX
  5
31A71
  8
0
 10
696.52572278428534
 20
243.52399309110709
 30
0.0
 70
    32
  0
SEQEND
  5
31A72
  8
0
  0
POLYLINE
  5
31A73
  8
0
 66
     1
 10
0.0
 20
0.0
 30
0.0
 70
     8
  0
VERTEX
  5
31A74
  8
0
 10
696.52572278428534
 20
249.7823264244403
 30
0.0
 70
    32
  0
VERTEX
  5
31A75
  8
0
 10
696.60656743754305
 20
249.2201479463256
 30
0.0
 70
    32
  0
VERTEX
  5
31A76
  8
0
 10
696.72117777629637
 20
248.16435805360149
 30
0.0
 70
    32
  0
VERTEX
  5
31A77
  8
0
 10
696.77795236008069
 20
247.15559750968939
 30
0.0
 70
    32
  0
VERTEX
  5
31A78
  8
0
 10
696.78514249370073
 20
246.65315975777369
 30
0.0
 70
    32
  0
SEQEND
  5
31A79
  8
0
  0
POLYLINE
  5
31A7A
  8
0
 66
     1
 10
0.0
 20
0.0
 30
0.0
 70
     8
  0
VERTEX
  5
31A7B
  8
0
 10
696.78514249370073
 20
240.39482642444051
 30
0.0
 70
    32
  0
VERTEX
  5
31A7C
  8
0
 10
696.77795236008069
 20
239.8923886725247
 30
0.0
 70
    32
  0
VERTEX
  5
31A7D
  8
0
 10
696.72117777629637
 20
238.8836281286126
 30
0.0
 70
    32
  0
VERTEX
  5
31A7E
  8
0
 10
696.60656743754305
 20
237.82783823588849
 30
0.0
 70
    32
  0
VERTEX
  5
31A7F
  8
0
 10
696.52572278428534
 20
237.26565975777379
 30
0.0
 70
    32
  0
SEQEND
  5
31A80
  8
0
  0
POLYLINE
  5
31A81
  8
0
 66
     1
 10
0.0
 20
0.0
 30
0.0
 70
     8
  0
VERTEX
  5
31A82
  8
0
 10
691.54456220311613
 20
237.26565975777379
 30
0.0
 70
    32
  0
VERTEX
  5
31A83
  8
0
 10
691.46371754985955
 20
237.82783823587761
 30
0.0
 70
    32
  0
VERTEX
  5
31A84
  8
0
 10
691.34910721110782
 20
238.88362812858119
 30
0.0
 70
    32
  0
VERTEX
  5
31A85
  8
0
 10
691.29233262732214
 20
239.8923886724742
 30
0.0
 70
    32
  0
VERTEX
  5
31A86
  8
0
 10
691.28514249370073
 20
240.39482642437909
 30
0.0
 70
    32
  0
SEQEND
  5
31A87
  8
0
  0
POLYLINE
  5
31A88
  8
0
 66
     1
 10
0.0
 20
0.0
 30
0.0
 70
     8
  0
VERTEX
  5
31A89
  8
0
 10
691.28514249370073
 20
240.39482642444051
 30
0.0
 70
    32
  0
VERTEX
  5
31A8A
  8
0
 10
691.28852407540126
 20
240.73919818017791
 30
0.0
 70
    32
  0
VERTEX
  5
31A8B
  8
0
 10
691.31522643425706
 20
241.4260557184825
 30
0.0
 70
    32
  0
VERTEX
  5
31A8C
  8
0
 10
691.36839874192844
 20
242.12377413288189
 30
0.0
 70
    32
  0
VERTEX
  5
31A8D
  8
0
 10
691.40515770088223
 20
242.48172621492361
 30
0.0
 70
    32
  0
SEQEND
  5
31A8E
  8
0
  0
LINE
  5
31A8F
  8
0
 10
691.88433767069171
 20
243.52399309110709
 30
0.0
 11
696.52572278428534
 21
243.52399309110709
 31
0.0
  0
POLYLINE
  5
31A90
  8
0
 66
     1
 10
0.0
 20
0.0
 30
0.0
 70
     8
  0
VERTEX
  5
31A91
  8
0
 10
696.52572278428534
 20
243.52399309110709
 30
0.0
 70
    32
  0
VERTEX
  5
31A92
  8
0
 10
696.60656743754305
 20
242.96181461299241
 30
0.0
 70
    32
  0
VERTEX
  5
31A93
  8
0
 10
696.72117777629637
 20
241.90602472026831
 30
0.0
 70
    32
  0
VERTEX
  5
31A94
  8
0
 10
696.77795236008069
 20
240.8972641763558
 30
0.0
 70
    32
  0
VERTEX
  5
31A95
  8
0
 10
696.78514249370073
 20
240.39482642444051
 30
0.0
 70
    32
  0
SEQEND
  5
31A96
  8
0
  0
LINE
  5
31A97
  8
0
 10
696.78514249370073
 20
249.7823264244403
 30
0.0
 11
694.39388835589386
 21
249.7823264244403
 31
0.0
  0
LINE
  5
31AC4
  8
0
 10
669.28514249370073
 20
318.52399309110712
 30
0.0
 11
663.28514249370073
 21
318.52399309110712
 31
0.0
  0
LINE
  5
31AC5
  8
0
 10
663.28514249370073
 20
168.523993091107
 30
0.0
 11
669.28514249370073
 21
168.523993091107
 31
0.0
  0
ARC
  5
31AC6
  8
0
 10
669.28514249370073
 20
168.82399309110721
 30
0.0
 40
0.3000000000000114
 50
270.0
 51
0.0
  0
ARC
  5
31AC7
  8
0
 10
669.28514249370073
 20
318.22399309110688
 30
0.0
 40
0.3000000000000074
 50
0.0
 51
90.0
  0
LINE
  5
31AC9
  8
0
 10
669.58514249370091
 20
168.82399309110721
 30
0.0
 11
671.98514249370055
 21
168.82399309110721
 31
0.0
  0
ARC
  5
31ACA
  8
0
 10
672.28514249370073
 20
168.82399309110721
 30
0.0
 40
0.3000000000000034
 50
180.0
 51
270.0
  0
ARC
  5
31ACB
  8
0
 10
672.28514249370073
 20
318.22399309110688
 30
0.0
 40
0.3000000000000114
 50
90.0
 51
180.0
  0
LINE
  5
31ACC
  8
0
 10
675.24202102711388
 20
318.52399309110712
 30
0.0
 11
672.28514249370073
 21
318.52399309110712
 31
0.0
  0
LINE
  5
31ACD
  8
0
 10
672.28514249370073
 20
168.523993091107
 30
0.0
 11
675.24202102711388
 21
168.523993091107
 31
0.0
  0
ARC
  5
31ACE
  8
0
 10
675.24202102711388
 20
169.523993091107
 30
0.0
 40
1.0000000000000131
 50
270.0
 51
341.00000000000807
  0
ARC
  5
31ACF
  8
0
 10
675.24202102711388
 20
317.52399309110712
 30
0.0
 40
1.0000000000000151
 50
18.999999999991871
 51
90.0
  0
LINE
  5
31AD0
  8
0
 10
678.29011735448694
 20
311.7432320677031
 30
0.0
 11
676.18753960271295
 21
317.84956124556402
 31
0.0
  0
LINE
  5
31AD1
  8
0
 10
676.18753960271295
 20
169.1984249366501
 30
0.0
 11
678.29011735448694
 21
175.30475411451101
 31
0.0
  0
ARC
  5
31AD2
  8
0
 10
675.45356162768894
 20
176.2814585778824
 30
0.0
 40
3.0000000000000391
 50
341.00000000000807
 51
0.0000008537736463
  0
ARC
  5
31AD3
  8
0
 10
675.45356162768894
 20
310.76652760433171
 30
0.0
 40
3.0000000000000431
 50
0.0
 51
18.999999999991871
  0
ARC
  5
31AD4
  8
0
 10
679.12022829435591
 20
177.71557133575561
 30
0.0
 40
0.6666666666666661
 50
180.0
 51
0.0
  0
ARC
  5
31AD5
  8
0
 10
679.12022829435591
 20
309.33241484645851
 30
0.0
 40
0.6666666666666661
 50
0.0
 51
180.0
  0
ARC
  5
31AD6
  8
0
 10
680.45356162768894
 20
181.5878525059897
 30
0.0
 40
0.6666666666666661
 50
180.0
 51
0.0
  0
ARC
  5
31AD7
  8
0
 10
680.45356162768894
 20
305.46013367622442
 30
0.0
 40
0.6666666666666661
 50
0.0
 51
180.0
  0
LINE
  5
31AD8
  8
0
 10
686.12169822049873
 20
288.9986697272343
 30
0.0
 11
681.12022829435591
 21
303.52399309110712
 31
0.0
  0
LINE
  5
31AD9
  8
0
 10
681.12022829435591
 20
183.523993091107
 30
0.0
 11
686.12169822049873
 21
198.04931645497979
 31
0.0
  0
ARC
  5
31ADB
  8
0
 10
683.28514249370073
 20
288.02196526386302
 30
0.0
 40
2.9999999999999138
 50
0.0
 51
18.999999999991871
  0
ARC
  5
31ADD
  8
0
 10
649.28514249370073
 20
288.02196526386302
 30
0.0
 40
2.9999999999999609
 50
161.0000000000081
 51
180.0
  0
LINE
  5
31ADE
  8
0
 10
651.45005669304555
 20
303.52399309110712
 30
0.0
 11
646.44858676690274
 21
288.9986697272343
 31
0.0
  0
LINE
  5
31ADF
  8
0
 10
646.44858676690274
 20
198.04931645497979
 30
0.0
 11
651.45005669304555
 21
183.523993091107
 31
0.0
  0
ARC
  5
31AE0
  8
0
 10
652.11672335971252
 20
181.5878525059897
 30
0.0
 40
0.6666666666666661
 50
180.0
 51
0.0
  0
ARC
  5
31AE1
  8
0
 10
652.11672335971252
 20
305.46013367622442
 30
0.0
 40
0.6666666666666661
 50
0.0
 51
180.0
  0
ARC
  5
31AE2
  8
0
 10
653.45005669304555
 20
177.71557133575561
 30
0.0
 40
0.6666666666666679
 50
180.0
 51
0.0
  0
ARC
  5
31AE3
  8
0
 10
653.45005669304555
 20
309.33241484645851
 30
0.0
 40
0.6666666666666679
 50
0.0
 51
180.0
  0
ARC
  5
31AE4
  8
0
 10
657.11672335971207
 20
176.2814585778824
 30
0.0
 40
2.9999999999998281
 50
180.0
 51
198.99999999999179
  0
ARC
  5
31AE5
  8
0
 10
657.11672335971207
 20
310.76652760433171
 30
0.0
 40
2.999999999999829
 50
161.0000000000081
 51
180.0
  0
LINE
  5
31AE6
  8
0
 10
656.38274538468841
 20
317.84956124556402
 30
0.0
 11
654.28016763291453
 21
311.7432320677031
 31
0.0
  0
LINE
  5
31AE7
  8
0
 10
654.28016763291453
 20
175.30475411451101
 30
0.0
 11
656.38274538468841
 21
169.1984249366501
 31
0.0
  0
ARC
  5
31AE8
  8
0
 10
657.32826396028759
 20
169.523993091107
 30
0.0
 40
1.0000000000000131
 50
198.99999999999179
 51
270.0
  0
ARC
  5
31AE9
  8
0
 10
657.32826396028759
 20
317.52399309110712
 30
0.0
 40
1.0000000000000131
 50
90.0
 51
161.0000000000081
  0
LINE
  5
31AEA
  8
0
 10
660.28514249370073
 20
318.52399309110712
 30
0.0
 11
657.32826396028759
 21
318.52399309110712
 31
0.0
  0
LINE
  5
31AEB
  8
0
 10
657.32826396028759
 20
168.523993091107
 30
0.0
 11
660.28514249370073
 21
168.523993091107
 31
0.0
  0
ARC
  5
31AEC
  8
0
 10
660.28514249370073
 20
168.82399309110721
 30
0.0
 40
0.3000000000000114
 50
270.0
 51
0.0
  0
ARC
  5
31AED
  8
0
 10
660.28514249370073
 20
318.22399309110688
 30
0.0
 40
0.3000000000000087
 50
0.0
 51
90.0
  0
LINE
  5
31AEE
  8
0
 10
662.98514249370055
 20
318.22399309110688
 30
0.0
 11
660.58514249370091
 21
318.22399309110688
 31
0.0
  0
LINE
  5
31AEF
  8
0
 10
660.58514249370091
 20
168.82399309110721
 30
0.0
 11
662.98514249370055
 21
168.82399309110721
 31
0.0
  0
ARC
  5
31AF0
  8
0
 10
663.28514249370073
 20
168.82399309110721
 30
0.0
 40
0.3000000000000038
 50
180.0
 51
270.0
  0
ARC
  5
31AF1
  8
0
 10
663.28514249370073
 20
318.22399309110688
 30
0.0
 40
0.3000000000000114
 50
90.0
 51
180.0
  0
LINE
  5
31AF3
  8
0
 10
669.58514249370091
 20
168.82399309110721
 30
0.0
 11
669.58514249370091
 21
318.22399309110688
 31
0.0
  0
LINE
  5
31AF4
  8
0
 10
671.98514249370055
 20
168.82399309110721
 30
0.0
 11
671.98514249370055
 21
318.22399309110688
 31
0.0
  0
LINE
  5
31AF9
  8
0
 10
678.45356162768894
 20
176.2814585778824
 30
0.0
 11
678.45356162768894
 21
310.76652760433171
 31
0.0
  0
LINE
  5
31AFA
  8
0
 10
679.78689496102243
 20
177.71557133575561
 30
0.0
 11
679.78689496102243
 21
309.33241484645851
 31
0.0
  0
LINE
  5
31AFB
  8
0
 10
681.12022829435591
 20
181.5878525059897
 30
0.0
 11
681.12022829435591
 21
305.46013367622442
 31
0.0
  0
LINE
  5
31AFD
  8
0
 10
686.28514249370073
 20
199.02602091835109
 30
0.0
 11
686.28514249370073
 21
288.02196526386302
 31
0.0
  0
LINE
  5
31AFE
  8
0
 10
646.28514249370073
 20
199.02602091835109
 30
0.0
 11
646.28514249370073
 21
288.02196526386302
 31
0.0
  0
LINE
  5
31B00
  8
0
 10
651.45005669304555
 20
181.5878525059897
 30
0.0
 11
651.45005669304555
 21
305.46013367622442
 31
0.0
  0
LINE
  5
31B01
  8
0
 10
652.78339002637904
 20
177.71557133575561
 30
0.0
 11
652.78339002637904
 21
309.33241484645851
 31
0.0
  0
LINE
  5
31B02
  8
0
 10
654.11672335971252
 20
176.2814585778824
 30
0.0
 11
654.11672335971252
 21
310.76652760433171
 31
0.0
  0
LINE
  5
31B07
  8
0
 10
660.58514249370091
 20
168.82399309110721
 30
0.0
 11
660.58514249370091
 21
318.22399309110688
 31
0.0
  0
LINE
  5
31B09
  8
0
 10
662.98514249370055
 20
168.82399309110721
 30
0.0
 11
662.98514249370055
 21
318.22399309110688
 31
0.0
  0
LINE
  5
31B2D
  8
1
 10
444.23428809197372
 20
462.98719038096851
 30
0.0
 11
444.23428809197372
 21
561.84709526616768
 31
0.0
  0
LINE
  5
31B2E
  8
0
 10
392.53428809197391
 20
487.51714282356801
 30
0.0
 11
392.53428809197391
 21
487.41714282356821
 31
0.0
  0
LINE
  5
31B2F
  8
0
 10
392.53428809197391
 20
537.41714282356816
 30
0.0
 11
392.53428809197391
 21
537.31714282356825
 31
0.0
  0
LINE
  5
31B30
  8
0
 10
404.73428809197361
 20
537.41714282356816
 30
0.0
 11
404.73428809197361
 21
487.41714282356821
 31
0.0
  0
LINE
  5
31B32
  8
0
 10
417.6401157980294
 20
487.41714282356821
 30
0.0
 11
392.53428809197391
 21
487.41714282356821
 31
0.0
  0
LINE
  5
31B33
  8
0
 10
392.53428809197391
 20
537.41714282356816
 30
0.0
 11
417.6401157980294
 21
537.41714282356816
 31
0.0
  0
LINE
  5
31B35
  8
0
 10
404.73428809197361
 20
487.51714282356801
 30
0.0
 11
346.75094859036932
 21
487.51714282356801
 31
0.0
  0
LINE
  5
31B36
  8
0
 10
404.73428809197361
 20
537.31714282356825
 30
0.0
 11
346.75094859036932
 21
537.31714282356825
 31
0.0
  0
LINE
  5
31B37
  8
0
 10
395.26760908876491
 20
487.51714282356801
 30
0.0
 11
395.26760908876491
 21
537.31714282356825
 31
0.0
  0
LINE
  5
31B38
  8
0
 10
346.75094859036932
 20
487.51714282356801
 30
0.0
 11
346.75094859036932
 21
537.31714282356825
 31
0.0
  0
CIRCLE
  5
31B40
  8
0
 10
444.23428809197372
 20
512.41714282356816
 30
0.0
 40
11.0
  0
CIRCLE
  5
31B41
  8
0
 10
444.23428809197372
 20
512.41714282356816
 30
0.0
 40
28.025000000000009
  0
CIRCLE
  5
31B42
  8
0
 10
444.23428809197372
 20
512.41714282356816
 30
0.0
 40
31.025000000000009
  0
CIRCLE
  5
31B43
  8
0
 10
444.23428809197372
 20
512.41714282356816
 30
0.0
 40
32.5
  0
CIRCLE
  5
31B44
  8
0
 10
444.23428809197372
 20
512.41714282356816
 30
0.0
 40
36.5
  0
CIRCLE
  5
31B45
  8
0
 10
444.23428809197372
 20
512.41714282356816
 30
0.0
 40
6.0
  0
POLYLINE
  5
31B4C
  8
0
 66
     1
 10
0.0
 20
0.0
 30
0.0
 70
     8
  0
VERTEX
  5
31B4D
  8
0
 10
403.62103765729529
 20
486.55772311415228
 30
0.0
 70
    32
  0
VERTEX
  5
31B4E
  8
0
 10
403.29646376162322
 20
486.63856776741068
 30
0.0
 70
    32
  0
VERTEX
  5
31B4F
  8
0
 10
402.68690318285138
 20
486.75317810616377
 30
0.0
 70
    32
  0
VERTEX
  5
31B50
  8
0
 10
402.1044950112755
 20
486.8099526899482
 30
0.0
 70
    32
  0
VERTEX
  5
31B51
  8
0
 10
401.8144124399563
 20
486.81714282356819
 30
0.0
 70
    32
  0
SEQEND
  5
31B52
  8
0
  0
POLYLINE
  5
31B53
  8
0
 66
     1
 10
0.0
 20
0.0
 30
0.0
 70
     8
  0
VERTEX
  5
31B54
  8
0
 10
401.8144124399563
 20
486.81714282356819
 30
0.0
 70
    32
  0
VERTEX
  5
31B55
  8
0
 10
401.52432986863681
 20
486.8099526899482
 30
0.0
 70
    32
  0
VERTEX
  5
31B56
  8
0
 10
400.94192169706088
 20
486.75317810616377
 30
0.0
 70
    32
  0
VERTEX
  5
31B57
  8
0
 10
400.33236111828899
 20
486.63856776741068
 30
0.0
 70
    32
  0
VERTEX
  5
31B58
  8
0
 10
400.00778722261703
 20
486.55772311415228
 30
0.0
 70
    32
  0
SEQEND
  5
31B59
  8
0
  0
POLYLINE
  5
31B5A
  8
0
 66
     1
 10
0.0
 20
0.0
 30
0.0
 70
     8
  0
VERTEX
  5
31B5B
  8
0
 10
407.23428809197372
 20
486.81714282356819
 30
0.0
 70
    32
  0
VERTEX
  5
31B5C
  8
0
 10
406.65412294933498
 20
486.8099526899482
 30
0.0
 70
    32
  0
VERTEX
  5
31B5D
  8
0
 10
405.4893066061835
 20
486.75317810616377
 30
0.0
 70
    32
  0
VERTEX
  5
31B5E
  8
0
 10
404.27018544863989
 20
486.63856776741068
 30
0.0
 70
    32
  0
VERTEX
  5
31B5F
  8
0
 10
403.62103765729529
 20
486.55772311415228
 30
0.0
 70
    32
  0
SEQEND
  5
31B60
  8
0
  0
POLYLINE
  5
31B61
  8
0
 66
     1
 10
0.0
 20
0.0
 30
0.0
 70
     8
  0
VERTEX
  5
31B62
  8
0
 10
412.65416374399132
 20
486.81714282356819
 30
0.0
 70
    32
  0
VERTEX
  5
31B63
  8
0
 10
412.36408117267177
 20
486.8099526899482
 30
0.0
 70
    32
  0
VERTEX
  5
31B64
  8
0
 10
411.78167300109629
 20
486.75317810616377
 30
0.0
 70
    32
  0
VERTEX
  5
31B65
  8
0
 10
411.17211242232452
 20
486.63856776741068
 30
0.0
 70
    32
  0
VERTEX
  5
31B66
  8
0
 10
410.84753852665239
 20
486.55772311415228
 30
0.0
 70
    32
  0
SEQEND
  5
31B67
  8
0
  0
POLYLINE
  5
31B68
  8
0
 66
     1
 10
0.0
 20
0.0
 30
0.0
 70
     8
  0
VERTEX
  5
31B69
  8
0
 10
410.84753852665239
 20
482.37656253298383
 30
0.0
 70
    32
  0
VERTEX
  5
31B6A
  8
0
 10
411.17211242232452
 20
482.29571787972549
 30
0.0
 70
    32
  0
VERTEX
  5
31B6B
  8
0
 10
411.78167300109629
 20
482.18110754097228
 30
0.0
 70
    32
  0
VERTEX
  5
31B6C
  8
0
 10
412.36408117267177
 20
482.1243329571879
 30
0.0
 70
    32
  0
VERTEX
  5
31B6D
  8
0
 10
412.65416374399132
 20
482.11714282356792
 30
0.0
 70
    32
  0
SEQEND
  5
31B6E
  8
0
  0
POLYLINE
  5
31B6F
  8
0
 66
     1
 10
0.0
 20
0.0
 30
0.0
 70
     8
  0
VERTEX
  5
31B70
  8
0
 10
414.46078896133082
 20
486.55772311415228
 30
0.0
 70
    32
  0
VERTEX
  5
31B71
  8
0
 10
414.13621506565858
 20
486.63856776741068
 30
0.0
 70
    32
  0
VERTEX
  5
31B72
  8
0
 10
413.5266544868864
 20
486.75317810616377
 30
0.0
 70
    32
  0
VERTEX
  5
31B73
  8
0
 10
412.94424631531092
 20
486.8099526899482
 30
0.0
 70
    32
  0
VERTEX
  5
31B74
  8
0
 10
412.65416374399132
 20
486.81714282356819
 30
0.0
 70
    32
  0
SEQEND
  5
31B75
  8
0
  0
POLYLINE
  5
31B76
  8
0
 66
     1
 10
0.0
 20
0.0
 30
0.0
 70
     8
  0
VERTEX
  5
31B77
  8
0
 10
403.62103765729529
 20
542.65772311415276
 30
0.0
 70
    32
  0
VERTEX
  5
31B78
  8
0
 10
403.29646376162322
 20
542.73856776741104
 30
0.0
 70
    32
  0
VERTEX
  5
31B79
  8
0
 10
402.68690318285138
 20
542.8531781061638
 30
0.0
 70
    32
  0
VERTEX
  5
31B7A
  8
0
 10
402.1044950112755
 20
542.90995268994811
 30
0.0
 70
    32
  0
VERTEX
  5
31B7B
  8
0
 10
401.8144124399563
 20
542.91714282356816
 30
0.0
 70
    32
  0
SEQEND
  5
31B7C
  8
0
  0
POLYLINE
  5
31B7D
  8
0
 66
     1
 10
0.0
 20
0.0
 30
0.0
 70
     8
  0
VERTEX
  5
31B7E
  8
0
 10
401.8144124399563
 20
542.91714282356816
 30
0.0
 70
    32
  0
VERTEX
  5
31B7F
  8
0
 10
401.52432986863681
 20
542.90995268994811
 30
0.0
 70
    32
  0
VERTEX
  5
31B80
  8
0
 10
400.94192169706088
 20
542.8531781061638
 30
0.0
 70
    32
  0
VERTEX
  5
31B81
  8
0
 10
400.33236111828899
 20
542.73856776741059
 30
0.0
 70
    32
  0
VERTEX
  5
31B82
  8
0
 10
400.00778722261703
 20
542.65772311415276
 30
0.0
 70
    32
  0
SEQEND
  5
31B83
  8
0
  0
POLYLINE
  5
31B84
  8
0
 66
     1
 10
0.0
 20
0.0
 30
0.0
 70
     8
  0
VERTEX
  5
31B85
  8
0
 10
403.62103765729529
 20
537.67656253298355
 30
0.0
 70
    32
  0
VERTEX
  5
31B86
  8
0
 10
404.27018544863989
 20
537.59571787972527
 30
0.0
 70
    32
  0
VERTEX
  5
31B87
  8
0
 10
405.4893066061835
 20
537.4811075409724
 30
0.0
 70
    32
  0
VERTEX
  5
31B88
  8
0
 10
406.65412294933498
 20
537.42433295718808
 30
0.0
 70
    32
  0
VERTEX
  5
31B89
  8
0
 10
407.23428809197372
 20
537.41714282356816
 30
0.0
 70
    32
  0
SEQEND
  5
31B8A
  8
0
  0
POLYLINE
  5
31B8B
  8
0
 66
     1
 10
0.0
 20
0.0
 30
0.0
 70
     8
  0
VERTEX
  5
31B8C
  8
0
 10
412.65416374399132
 20
542.91714282356816
 30
0.0
 70
    32
  0
VERTEX
  5
31B8D
  8
0
 10
412.36408117267177
 20
542.90995268994811
 30
0.0
 70
    32
  0
VERTEX
  5
31B8E
  8
0
 10
411.78167300109629
 20
542.8531781061638
 30
0.0
 70
    32
  0
VERTEX
  5
31B8F
  8
0
 10
411.17211242232452
 20
542.73856776741059
 30
0.0
 70
    32
  0
VERTEX
  5
31B90
  8
0
 10
410.84753852665239
 20
542.65772311415276
 30
0.0
 70
    32
  0
SEQEND
  5
31B91
  8
0
  0
POLYLINE
  5
31B92
  8
0
 66
     1
 10
0.0
 20
0.0
 30
0.0
 70
     8
  0
VERTEX
  5
31B93
  8
0
 10
414.46078896133082
 20
542.65772311415276
 30
0.0
 70
    32
  0
VERTEX
  5
31B94
  8
0
 10
414.13621506565858
 20
542.73856776741059
 30
0.0
 70
    32
  0
VERTEX
  5
31B95
  8
0
 10
413.5266544868864
 20
542.8531781061638
 30
0.0
 70
    32
  0
VERTEX
  5
31B96
  8
0
 10
412.94424631531092
 20
542.90995268994811
 30
0.0
 70
    32
  0
VERTEX
  5
31B97
  8
0
 10
412.65416374399132
 20
542.91714282356816
 30
0.0
 70
    32
  0
SEQEND
  5
31B98
  8
0
  0
LINE
  5
31B99
  8
1
 10
407.23428809197372
 20
474.15214282356828
 30
0.0
 11
407.23428809197372
 21
550.68214282356803
 31
0.0
  0
LINE
  5
31B9A
  8
0
 10
401.4192880919735
 20
487.41714282356821
 30
0.0
 11
401.4192880919735
 21
486.81714282356819
 31
0.0
  0
LINE
  5
31B9B
  8
0
 10
413.04928809197372
 20
486.81714282356819
 30
0.0
 11
413.04928809197372
 21
487.41714282356821
 31
0.0
  0
LINE
  5
31B9C
  8
0
 10
403.23428809197372
 20
546.65014282356833
 30
0.0
 11
403.23428809197372
 21
545.41714282356816
 31
0.0
  0
LINE
  5
31B9D
  8
0
 10
411.23428809197372
 20
545.41714282356816
 30
0.0
 11
411.23428809197372
 21
546.65014282356833
 31
0.0
  0
LINE
  5
31B9E
  8
0
 10
404.00128809197389
 20
547.41714282356816
 30
0.0
 11
403.23428809197372
 21
546.65014282356833
 31
0.0
  0
LINE
  5
31B9F
  8
0
 10
411.23428809197372
 20
546.65014282356833
 30
0.0
 11
410.46728809197378
 21
547.41714282356816
 31
0.0
  0
LINE
  5
31BA0
  8
0
 10
413.49262142530728
 20
482.11714282356792
 30
0.0
 11
414.46078896133082
 21
482.37656253298383
 31
0.0
  0
LINE
  5
31BA1
  8
0
 10
400.00778722261703
 20
482.37656253298383
 30
0.0
 11
400.9759547586404
 21
482.11714282356792
 31
0.0
  0
LINE
  5
31BA2
  8
0
 10
414.46078896133082
 20
486.55772311415228
 30
0.0
 11
413.49262142530728
 21
486.81714282356819
 31
0.0
  0
LINE
  5
31BA3
  8
0
 10
400.9759547586404
 20
486.81714282356819
 30
0.0
 11
400.00778722261703
 21
486.55772311415228
 31
0.0
  0
LINE
  5
31BA4
  8
0
 10
401.4192880919735
 20
545.41714282356816
 30
0.0
 11
401.4192880919735
 21
542.91714282356816
 31
0.0
  0
LINE
  5
31BA5
  8
0
 10
413.04928809197372
 20
542.91714282356816
 30
0.0
 11
413.04928809197372
 21
545.41714282356816
 31
0.0
  0
LINE
  5
31BA6
  8
0
 10
413.49262142530728
 20
537.41714282356816
 30
0.0
 11
414.46078896133082
 21
537.67656253298355
 31
0.0
  0
LINE
  5
31BA7
  8
0
 10
400.00778722261703
 20
537.67656253298355
 30
0.0
 11
400.9759547586404
 21
537.41714282356816
 31
0.0
  0
LINE
  5
31BA8
  8
0
 10
414.46078896133082
 20
542.65772311415276
 30
0.0
 11
413.49262142530728
 21
542.91714282356816
 31
0.0
  0
LINE
  5
31BA9
  8
0
 10
400.9759547586404
 20
542.91714282356816
 30
0.0
 11
400.00778722261703
 21
542.65772311415276
 31
0.0
  0
LINE
  5
31BAA
  8
0
 10
411.23428809197372
 20
546.65014282356833
 30
0.0
 11
403.23428809197372
 21
546.65014282356833
 31
0.0
  0
LINE
  5
31BAB
  8
0
 10
410.46728809197378
 20
547.41714282356816
 30
0.0
 11
404.00128809197389
 21
547.41714282356816
 31
0.0
  0
LINE
  5
31BAC
  8
0
 10
413.49262142530728
 20
482.11714282356792
 30
0.0
 11
400.9759547586404
 21
482.11714282356792
 31
0.0
  0
LINE
  5
31BAD
  8
0
 10
413.49262142530728
 20
486.81714282356819
 30
0.0
 11
400.9759547586404
 21
486.81714282356819
 31
0.0
  0
POLYLINE
  5
31BAE
  8
0
 66
     1
 10
0.0
 20
0.0
 30
0.0
 70
     8
  0
VERTEX
  5
31BAF
  8
0
 10
403.62103765729529
 20
482.37656253298383
 30
0.0
 70
    32
  0
VERTEX
  5
31BB0
  8
0
 10
403.29646376162322
 20
482.29571787972549
 30
0.0
 70
    32
  0
VERTEX
  5
31BB1
  8
0
 10
402.68690318285138
 20
482.18110754097228
 30
0.0
 70
    32
  0
VERTEX
  5
31BB2
  8
0
 10
402.1044950112755
 20
482.1243329571879
 30
0.0
 70
    32
  0
VERTEX
  5
31BB3
  8
0
 10
401.8144124399563
 20
482.11714282356792
 30
0.0
 70
    32
  0
SEQEND
  5
31BB4
  8
0
  0
POLYLINE
  5
31BB5
  8
0
 66
     1
 10
0.0
 20
0.0
 30
0.0
 70
     8
  0
VERTEX
  5
31BB6
  8
0
 10
401.8144124399563
 20
482.11714282356792
 30
0.0
 70
    32
  0
VERTEX
  5
31BB7
  8
0
 10
401.52432986863681
 20
482.1243329571879
 30
0.0
 70
    32
  0
VERTEX
  5
31BB8
  8
0
 10
400.94192169706088
 20
482.18110754097228
 30
0.0
 70
    32
  0
VERTEX
  5
31BB9
  8
0
 10
400.33236111828899
 20
482.29571787972549
 30
0.0
 70
    32
  0
VERTEX
  5
31BBA
  8
0
 10
400.00778722261703
 20
482.37656253298383
 30
0.0
 70
    32
  0
SEQEND
  5
31BBB
  8
0
  0
POLYLINE
  5
31BBC
  8
0
 66
     1
 10
0.0
 20
0.0
 30
0.0
 70
     8
  0
VERTEX
  5
31BBD
  8
0
 10
400.00778722261703
 20
486.55772311415228
 30
0.0
 70
    32
  0
VERTEX
  5
31BBE
  8
0
 10
400.33236111828899
 20
486.63856776741068
 30
0.0
 70
    32
  0
VERTEX
  5
31BBF
  8
0
 10
400.94192169706088
 20
486.75317810616377
 30
0.0
 70
    32
  0
VERTEX
  5
31BC0
  8
0
 10
401.52432986863681
 20
486.8099526899482
 30
0.0
 70
    32
  0
VERTEX
  5
31BC1
  8
0
 10
401.8144124399563
 20
486.81714282356819
 30
0.0
 70
    32
  0
SEQEND
  5
31BC2
  8
0
  0
POLYLINE
  5
31BC3
  8
0
 66
     1
 10
0.0
 20
0.0
 30
0.0
 70
     8
  0
VERTEX
  5
31BC4
  8
0
 10
401.8144124399563
 20
486.81714282356819
 30
0.0
 70
    32
  0
VERTEX
  5
31BC5
  8
0
 10
402.1044950112755
 20
486.8099526899482
 30
0.0
 70
    32
  0
VERTEX
  5
31BC6
  8
0
 10
402.68690318285138
 20
486.75317810616377
 30
0.0
 70
    32
  0
VERTEX
  5
31BC7
  8
0
 10
403.29646376162322
 20
486.63856776741068
 30
0.0
 70
    32
  0
VERTEX
  5
31BC8
  8
0
 10
403.62103765729529
 20
486.55772311415228
 30
0.0
 70
    32
  0
SEQEND
  5
31BC9
  8
0
  0
LINE
  5
31BCA
  8
0
 10
400.00778722261703
 20
482.37656253298383
 30
0.0
 11
400.00778722261703
 21
486.55772311415228
 31
0.0
  0
POLYLINE
  5
31BCB
  8
0
 66
     1
 10
0.0
 20
0.0
 30
0.0
 70
     8
  0
VERTEX
  5
31BCC
  8
0
 10
412.65416374399132
 20
486.81714282356819
 30
0.0
 70
    32
  0
VERTEX
  5
31BCD
  8
0
 10
412.94424631531092
 20
486.8099526899482
 30
0.0
 70
    32
  0
VERTEX
  5
31BCE
  8
0
 10
413.5266544868864
 20
486.75317810616377
 30
0.0
 70
    32
  0
VERTEX
  5
31BCF
  8
0
 10
414.13621506565858
 20
486.63856776741068
 30
0.0
 70
    32
  0
VERTEX
  5
31BD0
  8
0
 10
414.46078896133082
 20
486.55772311415228
 30
0.0
 70
    32
  0
SEQEND
  5
31BD1
  8
0
  0
POLYLINE
  5
31BD2
  8
0
 66
     1
 10
0.0
 20
0.0
 30
0.0
 70
     8
  0
VERTEX
  5
31BD3
  8
0
 10
414.46078896133082
 20
482.37656253298383
 30
0.0
 70
    32
  0
VERTEX
  5
31BD4
  8
0
 10
414.13621506565858
 20
482.29571787972549
 30
0.0
 70
    32
  0
VERTEX
  5
31BD5
  8
0
 10
413.5266544868864
 20
482.18110754097228
 30
0.0
 70
    32
  0
VERTEX
  5
31BD6
  8
0
 10
412.94424631531092
 20
482.1243329571879
 30
0.0
 70
    32
  0
VERTEX
  5
31BD7
  8
0
 10
412.65416374399132
 20
482.11714282356792
 30
0.0
 70
    32
  0
SEQEND
  5
31BD8
  8
0
  0
POLYLINE
  5
31BD9
  8
0
 66
     1
 10
0.0
 20
0.0
 30
0.0
 70
     8
  0
VERTEX
  5
31BDA
  8
0
 10
412.65416374399132
 20
482.11714282356792
 30
0.0
 70
    32
  0
VERTEX
  5
31BDB
  8
0
 10
412.36408117267177
 20
482.1243329571879
 30
0.0
 70
    32
  0
VERTEX
  5
31BDC
  8
0
 10
411.78167300109629
 20
482.18110754097228
 30
0.0
 70
    32
  0
VERTEX
  5
31BDD
  8
0
 10
411.17211242232452
 20
482.29571787972549
 30
0.0
 70
    32
  0
VERTEX
  5
31BDE
  8
0
 10
410.84753852665239
 20
482.37656253298383
 30
0.0
 70
    32
  0
SEQEND
  5
31BDF
  8
0
  0
POLYLINE
  5
31BE0
  8
0
 66
     1
 10
0.0
 20
0.0
 30
0.0
 70
     8
  0
VERTEX
  5
31BE1
  8
0
 10
410.84753852665239
 20
486.55772311415228
 30
0.0
 70
    32
  0
VERTEX
  5
31BE2
  8
0
 10
411.17211242232452
 20
486.63856776741068
 30
0.0
 70
    32
  0
VERTEX
  5
31BE3
  8
0
 10
411.78167300109629
 20
486.75317810616377
 30
0.0
 70
    32
  0
VERTEX
  5
31BE4
  8
0
 10
412.36408117267177
 20
486.8099526899482
 30
0.0
 70
    32
  0
VERTEX
  5
31BE5
  8
0
 10
412.65416374399132
 20
486.81714282356819
 30
0.0
 70
    32
  0
SEQEND
  5
31BE6
  8
0
  0
LINE
  5
31BE7
  8
0
 10
414.46078896133082
 20
482.37656253298383
 30
0.0
 11
414.46078896133082
 21
486.55772311415228
 31
0.0
  0
POLYLINE
  5
31BE8
  8
0
 66
     1
 10
0.0
 20
0.0
 30
0.0
 70
     8
  0
VERTEX
  5
31BE9
  8
0
 10
407.23428809197372
 20
486.81714282356819
 30
0.0
 70
    32
  0
VERTEX
  5
31BEA
  8
0
 10
407.81445323461281
 20
486.8099526899482
 30
0.0
 70
    32
  0
VERTEX
  5
31BEB
  8
0
 10
408.97926957776411
 20
486.75317810616377
 30
0.0
 70
    32
  0
VERTEX
  5
31BEC
  8
0
 10
410.19839073530778
 20
486.63856776741068
 30
0.0
 70
    32
  0
VERTEX
  5
31BED
  8
0
 10
410.84753852665239
 20
486.55772311415228
 30
0.0
 70
    32
  0
SEQEND
  5
31BEE
  8
0
  0
LINE
  5
31BEF
  8
0
 10
410.84753852665239
 20
482.37656253298383
 30
0.0
 11
410.84753852665239
 21
486.55772311415228
 31
0.0
  0
POLYLINE
  5
31BF0
  8
0
 66
     1
 10
0.0
 20
0.0
 30
0.0
 70
     8
  0
VERTEX
  5
31BF1
  8
0
 10
410.84753852665239
 20
482.37656253298383
 30
0.0
 70
    32
  0
VERTEX
  5
31BF2
  8
0
 10
410.19839073530778
 20
482.29571787972549
 30
0.0
 70
    32
  0
VERTEX
  5
31BF3
  8
0
 10
408.97926957776411
 20
482.18110754097228
 30
0.0
 70
    32
  0
VERTEX
  5
31BF4
  8
0
 10
407.81445323461281
 20
482.1243329571879
 30
0.0
 70
    32
  0
VERTEX
  5
31BF5
  8
0
 10
407.23428809197372
 20
482.11714282356792
 30
0.0
 70
    32
  0
SEQEND
  5
31BF6
  8
0
  0
POLYLINE
  5
31BF7
  8
0
 66
     1
 10
0.0
 20
0.0
 30
0.0
 70
     8
  0
VERTEX
  5
31BF8
  8
0
 10
407.23428809197372
 20
482.11714282356792
 30
0.0
 70
    32
  0
VERTEX
  5
31BF9
  8
0
 10
406.65412294933498
 20
482.1243329571879
 30
0.0
 70
    32
  0
VERTEX
  5
31BFA
  8
0
 10
405.4893066061835
 20
482.18110754097228
 30
0.0
 70
    32
  0
VERTEX
  5
31BFB
  8
0
 10
404.27018544863989
 20
482.29571787972549
 30
0.0
 70
    32
  0
VERTEX
  5
31BFC
  8
0
 10
403.62103765729529
 20
482.37656253298383
 30
0.0
 70
    32
  0
SEQEND
  5
31BFD
  8
0
  0
LINE
  5
31BFE
  8
0
 10
403.62103765729529
 20
482.37656253298383
 30
0.0
 11
403.62103765729529
 21
486.55772311415228
 31
0.0
  0
POLYLINE
  5
31BFF
  8
0
 66
     1
 10
0.0
 20
0.0
 30
0.0
 70
     8
  0
VERTEX
  5
31C00
  8
0
 10
403.62103765729529
 20
486.55772311415228
 30
0.0
 70
    32
  0
VERTEX
  5
31C01
  8
0
 10
404.27018544863989
 20
486.63856776741068
 30
0.0
 70
    32
  0
VERTEX
  5
31C02
  8
0
 10
405.4893066061835
 20
486.75317810616377
 30
0.0
 70
    32
  0
VERTEX
  5
31C03
  8
0
 10
406.65412294933498
 20
486.8099526899482
 30
0.0
 70
    32
  0
VERTEX
  5
31C04
  8
0
 10
407.23428809197372
 20
486.81714282356819
 30
0.0
 70
    32
  0
SEQEND
  5
31C05
  8
0
  0
LINE
  5
31C06
  8
0
 10
413.04928809197372
 20
545.41714282356816
 30
0.0
 11
401.4192880919735
 21
545.41714282356816
 31
0.0
  0
LINE
  5
31C07
  8
0
 10
413.49262142530728
 20
542.91714282356816
 30
0.0
 11
400.9759547586404
 21
542.91714282356816
 31
0.0
  0
POLYLINE
  5
31C08
  8
0
 66
     1
 10
0.0
 20
0.0
 30
0.0
 70
     8
  0
VERTEX
  5
31C09
  8
0
 10
403.62103765729529
 20
537.67656253298355
 30
0.0
 70
    32
  0
VERTEX
  5
31C0A
  8
0
 10
403.29646376162322
 20
537.59571787972527
 30
0.0
 70
    32
  0
VERTEX
  5
31C0B
  8
0
 10
402.68690318285138
 20
537.4811075409724
 30
0.0
 70
    32
  0
VERTEX
  5
31C0C
  8
0
 10
402.1044950112755
 20
537.42433295718808
 30
0.0
 70
    32
  0
VERTEX
  5
31C0D
  8
0
 10
401.8144124399563
 20
537.41714282356816
 30
0.0
 70
    32
  0
SEQEND
  5
31C0E
  8
0
  0
POLYLINE
  5
31C0F
  8
0
 66
     1
 10
0.0
 20
0.0
 30
0.0
 70
     8
  0
VERTEX
  5
31C10
  8
0
 10
401.8144124399563
 20
537.41714282356816
 30
0.0
 70
    32
  0
VERTEX
  5
31C11
  8
0
 10
401.52432986863681
 20
537.42433295718808
 30
0.0
 70
    32
  0
VERTEX
  5
31C12
  8
0
 10
400.94192169706088
 20
537.4811075409724
 30
0.0
 70
    32
  0
VERTEX
  5
31C13
  8
0
 10
400.33236111828899
 20
537.59571787972527
 30
0.0
 70
    32
  0
VERTEX
  5
31C14
  8
0
 10
400.00778722261703
 20
537.67656253298355
 30
0.0
 70
    32
  0
SEQEND
  5
31C15
  8
0
  0
POLYLINE
  5
31C16
  8
0
 66
     1
 10
0.0
 20
0.0
 30
0.0
 70
     8
  0
VERTEX
  5
31C17
  8
0
 10
400.00778722261703
 20
542.65772311415276
 30
0.0
 70
    32
  0
VERTEX
  5
31C18
  8
0
 10
400.33236111828899
 20
542.73856776741059
 30
0.0
 70
    32
  0
VERTEX
  5
31C19
  8
0
 10
400.94192169706088
 20
542.8531781061638
 30
0.0
 70
    32
  0
VERTEX
  5
31C1A
  8
0
 10
401.52432986863681
 20
542.90995268994811
 30
0.0
 70
    32
  0
VERTEX
  5
31C1B
  8
0
 10
401.8144124399563
 20
542.91714282356816
 30
0.0
 70
    32
  0
SEQEND
  5
31C1C
  8
0
  0
POLYLINE
  5
31C1D
  8
0
 66
     1
 10
0.0
 20
0.0
 30
0.0
 70
     8
  0
VERTEX
  5
31C1E
  8
0
 10
401.8144124399563
 20
542.91714282356816
 30
0.0
 70
    32
  0
VERTEX
  5
31C1F
  8
0
 10
402.1044950112755
 20
542.90995268994811
 30
0.0
 70
    32
  0
VERTEX
  5
31C20
  8
0
 10
402.68690318285138
 20
542.8531781061638
 30
0.0
 70
    32
  0
VERTEX
  5
31C21
  8
0
 10
403.29646376162322
 20
542.73856776741059
 30
0.0
 70
    32
  0
VERTEX
  5
31C22
  8
0
 10
403.62103765729529
 20
542.65772311415276
 30
0.0
 70
    32
  0
SEQEND
  5
31C23
  8
0
  0
LINE
  5
31C24
  8
0
 10
400.00778722261703
 20
537.67656253298355
 30
0.0
 11
400.00778722261703
 21
542.65772311415276
 31
0.0
  0
POLYLINE
  5
31C25
  8
0
 66
     1
 10
0.0
 20
0.0
 30
0.0
 70
     8
  0
VERTEX
  5
31C26
  8
0
 10
412.65416374399132
 20
542.91714282356816
 30
0.0
 70
    32
  0
VERTEX
  5
31C27
  8
0
 10
412.94424631531092
 20
542.90995268994811
 30
0.0
 70
    32
  0
VERTEX
  5
31C28
  8
0
 10
413.5266544868864
 20
542.8531781061638
 30
0.0
 70
    32
  0
VERTEX
  5
31C29
  8
0
 10
414.13621506565858
 20
542.73856776741059
 30
0.0
 70
    32
  0
VERTEX
  5
31C2A
  8
0
 10
414.46078896133082
 20
542.65772311415276
 30
0.0
 70
    32
  0
SEQEND
  5
31C2B
  8
0
  0
POLYLINE
  5
31C2C
  8
0
 66
     1
 10
0.0
 20
0.0
 30
0.0
 70
     8
  0
VERTEX
  5
31C2D
  8
0
 10
414.46078896133082
 20
537.67656253298355
 30
0.0
 70
    32
  0
VERTEX
  5
31C2E
  8
0
 10
414.13621506565858
 20
537.59571787972527
 30
0.0
 70
    32
  0
VERTEX
  5
31C2F
  8
0
 10
413.5266544868864
 20
537.4811075409724
 30
0.0
 70
    32
  0
VERTEX
  5
31C30
  8
0
 10
412.94424631531092
 20
537.42433295718808
 30
0.0
 70
    32
  0
VERTEX
  5
31C31
  8
0
 10
412.65416374399132
 20
537.41714282356816
 30
0.0
 70
    32
  0
SEQEND
  5
31C32
  8
0
  0
POLYLINE
  5
31C33
  8
0
 66
     1
 10
0.0
 20
0.0
 30
0.0
 70
     8
  0
VERTEX
  5
31C34
  8
0
 10
412.65416374399132
 20
537.41714282356816
 30
0.0
 70
    32
  0
VERTEX
  5
31C35
  8
0
 10
412.36408117267177
 20
537.42433295718808
 30
0.0
 70
    32
  0
VERTEX
  5
31C36
  8
0
 10
411.78167300109629
 20
537.4811075409724
 30
0.0
 70
    32
  0
VERTEX
  5
31C37
  8
0
 10
411.17211242232452
 20
537.59571787972527
 30
0.0
 70
    32
  0
VERTEX
  5
31C38
  8
0
 10
410.84753852665239
 20
537.67656253298355
 30
0.0
 70
    32
  0
SEQEND
  5
31C39
  8
0
  0
POLYLINE
  5
31C3A
  8
0
 66
     1
 10
0.0
 20
0.0
 30
0.0
 70
     8
  0
VERTEX
  5
31C3B
  8
0
 10
410.84753852665239
 20
542.65772311415276
 30
0.0
 70
    32
  0
VERTEX
  5
31C3C
  8
0
 10
411.17211242232452
 20
542.73856776741104
 30
0.0
 70
    32
  0
VERTEX
  5
31C3D
  8
0
 10
411.78167300109629
 20
542.8531781061638
 30
0.0
 70
    32
  0
VERTEX
  5
31C3E
  8
0
 10
412.36408117267177
 20
542.90995268994811
 30
0.0
 70
    32
  0
VERTEX
  5
31C3F
  8
0
 10
412.65416374399132
 20
542.91714282356816
 30
0.0
 70
    32
  0
SEQEND
  5
31C40
  8
0
  0
LINE
  5
31C41
  8
0
 10
414.46078896133082
 20
537.67656253298355
 30
0.0
 11
414.46078896133082
 21
542.65772311415276
 31
0.0
  0
POLYLINE
  5
31C42
  8
0
 66
     1
 10
0.0
 20
0.0
 30
0.0
 70
     8
  0
VERTEX
  5
31C43
  8
0
 10
407.23428809197372
 20
542.91714282356816
 30
0.0
 70
    32
  0
VERTEX
  5
31C44
  8
0
 10
407.81445323461281
 20
542.90995268994811
 30
0.0
 70
    32
  0
VERTEX
  5
31C45
  8
0
 10
408.97926957776411
 20
542.8531781061638
 30
0.0
 70
    32
  0
VERTEX
  5
31C46
  8
0
 10
410.19839073530778
 20
542.73856776741059
 30
0.0
 70
    32
  0
VERTEX
  5
31C47
  8
0
 10
410.84753852665239
 20
542.65772311415276
 30
0.0
 70
    32
  0
SEQEND
  5
31C48
  8
0
  0
LINE
  5
31C49
  8
0
 10
410.84753852665239
 20
537.67656253298355
 30
0.0
 11
410.84753852665239
 21
542.65772311415276
 31
0.0
  0
POLYLINE
  5
31C4A
  8
0
 66
     1
 10
0.0
 20
0.0
 30
0.0
 70
     8
  0
VERTEX
  5
31C4B
  8
0
 10
410.84753852665239
 20
537.67656253298355
 30
0.0
 70
    32
  0
VERTEX
  5
31C4C
  8
0
 10
410.19839073530778
 20
537.59571787972527
 30
0.0
 70
    32
  0
VERTEX
  5
31C4D
  8
0
 10
408.97926957776411
 20
537.4811075409724
 30
0.0
 70
    32
  0
VERTEX
  5
31C4E
  8
0
 10
407.81445323461281
 20
537.42433295718808
 30
0.0
 70
    32
  0
VERTEX
  5
31C4F
  8
0
 10
407.23428809197372
 20
537.41714282356816
 30
0.0
 70
    32
  0
SEQEND
  5
31C50
  8
0
  0
POLYLINE
  5
31C51
  8
0
 66
     1
 10
0.0
 20
0.0
 30
0.0
 70
     8
  0
VERTEX
  5
31C52
  8
0
 10
407.23428809197372
 20
537.41714282356816
 30
0.0
 70
    32
  0
VERTEX
  5
31C53
  8
0
 10
406.65412294933498
 20
537.42433295718808
 30
0.0
 70
    32
  0
VERTEX
  5
31C54
  8
0
 10
405.4893066061835
 20
537.4811075409724
 30
0.0
 70
    32
  0
VERTEX
  5
31C55
  8
0
 10
404.27018544863989
 20
537.59571787972527
 30
0.0
 70
    32
  0
VERTEX
  5
31C56
  8
0
 10
403.62103765729529
 20
537.67656253298355
 30
0.0
 70
    32
  0
SEQEND
  5
31C57
  8
0
  0
LINE
  5
31C58
  8
0
 10
403.62103765729529
 20
537.67656253298355
 30
0.0
 11
403.62103765729529
 21
542.65772311415276
 31
0.0
  0
POLYLINE
  5
31C59
  8
0
 66
     1
 10
0.0
 20
0.0
 30
0.0
 70
     8
  0
VERTEX
  5
31C5A
  8
0
 10
403.62103765729529
 20
542.65772311415276
 30
0.0
 70
    32
  0
VERTEX
  5
31C5B
  8
0
 10
404.27018544863989
 20
542.73856776741104
 30
0.0
 70
    32
  0
VERTEX
  5
31C5C
  8
0
 10
405.4893066061835
 20
542.8531781061638
 30
0.0
 70
    32
  0
VERTEX
  5
31C5D
  8
0
 10
406.65412294933498
 20
542.90995268994811
 30
0.0
 70
    32
  0
VERTEX
  5
31C5E
  8
0
 10
407.23428809197372
 20
542.91714282356816
 30
0.0
 70
    32
  0
SEQEND
  5
31C5F
  8
0
  0
LINE
  5
31CC3
  8
0
 10
482.23428809197372
 20
509.4171428235681
 30
0.0
 11
482.23428809197372
 21
515.41714282356816
 31
0.0
  0
ARC
  5
31CC4
  8
0
 10
481.93428809197388
 20
515.41714282356816
 30
0.0
 40
0.3000000000000114
 50
0.0
 51
90.0
  0
LINE
  5
31CC5
  8
0
 10
481.93428809197388
 20
515.71714282356834
 30
0.0
 11
481.93428809197388
 21
518.11714282356786
 31
0.0
  0
ARC
  5
31CC6
  8
0
 10
481.93428809197388
 20
518.41714282356816
 30
0.0
 40
0.3000000000000043
 50
270.0
 51
0.0
  0
LINE
  5
31CC8
  8
0
 10
482.23428809197372
 20
518.41714282356816
 30
0.0
 11
482.23428809197372
 21
521.37402135698119
 31
0.0
  0
ARC
  5
31CC9
  8
0
 10
481.23428809197361
 20
521.37402135698119
 30
0.0
 40
1.0
 50
0.0
 51
71.000000000008129
  0
LINE
  5
31CCC
  8
0
 10
481.55985624643108
 20
522.31953993258037
 30
0.0
 11
479.11736491684849
 21
523.16055714257607
 31
0.0
  0
LINE
  5
31CD4
  8
0
 10
479.11736491684911
 20
501.67372850456007
 30
0.0
 11
481.55985624643108
 21
502.51474571455577
 31
0.0
  0
ARC
  5
31CD5
  8
0
 10
481.23428809197361
 20
503.46026429015501
 30
0.0
 40
1.0000000000000151
 50
288.99999999999193
 51
0.0
  0
LINE
  5
31CD8
  8
0
 10
482.23428809197372
 20
503.46026429015501
 30
0.0
 11
482.23428809197372
 21
506.4171428235681
 31
0.0
  0
ARC
  5
31CD9
  8
0
 10
481.93428809197388
 20
506.4171428235681
 30
0.0
 40
0.3000000000000114
 50
0.0
 51
90.0
  0
LINE
  5
31CDA
  8
0
 10
481.93428809197388
 20
506.71714282356828
 30
0.0
 11
481.93428809197388
 21
509.11714282356792
 31
0.0
  0
ARC
  5
31CDB
  8
0
 10
481.93428809197388
 20
509.4171428235681
 30
0.0
 40
0.3000000000000038
 50
270.0
 51
0.0
  0
LINE
  5
31CDE
  8
0
 10
481.93428809197388
 20
515.71714282356834
 30
0.0
 11
480.61089566330878
 21
515.71714282356834
 31
0.0
  0
LINE
  5
31CDF
  8
0
 10
449.24527601852049
 20
515.71714282356834
 30
0.0
 11
439.22330016542668
 21
515.71714282356834
 31
0.0
  0
LINE
  5
31CE0
  8
0
 10
481.93428809197388
 20
518.11714282356786
 30
0.0
 11
480.32326159602729
 21
518.11714282356786
 31
0.0
  0
LINE
  5
31CE1
  8
0
 10
446.1077874914937
 20
518.11714282356786
 30
0.0
 11
442.36078869245358
 21
518.11714282356786
 31
0.0
  0
LINE
  5
31CF4
  8
0
 10
481.93428809197388
 20
506.71714282356828
 30
0.0
 11
480.32326159602729
 21
506.71714282356828
 31
0.0
  0
LINE
  5
31CF5
  8
0
 10
446.10778749149353
 20
506.71714282356822
 30
0.0
 11
442.36078869245358
 21
506.71714282356828
 31
0.0
  0
LINE
  5
31CF8
  8
0
 10
481.93428809197388
 20
509.11714282356792
 30
0.0
 11
480.61089566330878
 21
509.11714282356792
 31
0.0
  0
LINE
  5
31CF9
  8
0
 10
449.24527601852049
 20
509.11714282356792
 30
0.0
 11
439.22330016542668
 21
509.11714282356792
 31
0.0
  0
LINE
  5
34601
  8
3
 10
404.00128809197389
 20
547.41714282356816
 30
0.0
 11
404.00128809197389
 21
545.41714282356816
 31
0.0
  0
LINE
  5
34602
  8
3
 10
410.46728809197378
 20
547.41714282356816
 30
0.0
 11
410.46728809197378
 21
545.41714282356816
 31
0.0
  0
LINE
  5
34643
  8
0
 10
401.8144124399559
 20
240.39482642444091
 30
0.0
 11
403.62103765729529
 21
237.2656597577743
 31
0.0
  0
LINE
  5
34644
  8
0
 10
403.62103765729529
 20
249.7823264244407
 30
0.0
 11
400.00778722261663
 21
243.52399309110751
 31
0.0
  0
LINE
  5
34645
  8
0
 10
400.00778722261663
 20
243.52399309110751
 30
0.0
 11
403.62103765729529
 21
237.2656597577743
 31
0.0
  0
LINE
  5
34646
  8
0
 10
403.62103765729529
 20
237.2656597577743
 30
0.0
 11
410.84753852665199
 21
237.2656597577743
 31
0.0
  0
LINE
  5
34647
  8
0
 10
414.46078896133082
 20
243.52399309110751
 30
0.0
 11
410.84753852665199
 21
249.7823264244407
 31
0.0
  0
LINE
  5
34648
  8
0
 10
410.84753852665199
 20
237.2656597577743
 30
0.0
 11
414.46078896133082
 21
243.52399309110751
 31
0.0
  0
LINE
  5
34649
  8
0
 10
410.84753852665199
 20
249.7823264244407
 30
0.0
 11
403.62103765729529
 21
249.7823264244407
 31
0.0
  0
CIRCLE
  5
3464A
  8
0
 10
407.23428809197372
 20
243.52399309110751
 30
0.0
 40
6.2583333333333391
  0
LINE
  5
3464B
  8
1
 10
319.54538043738103
 20
243.52399309110751
 30
0.0
 11
494.92319574656722
 21
243.52399309110751
 31
0.0
  0
LINE
  5
3464C
  8
1
 10
407.23428809197412
 20
155.5940406485056
 30
0.0
 11
407.23428809197412
 21
331.45394553370937
 31
0.0
  0
ARC
  5
346A5
  8
0
 10
407.23428809197219
 20
243.52399309110521
 30
0.0
 40
62.602807251783879
 50
95.718163196365353
 51
47.51371355142161
  0
ARC
  5
346A6
  8
0
 10
407.23428809197219
 20
243.52399309110521
 30
0.0
 40
66.475088422018331
 50
94.915777089272609
 51
48.283599568989551
  0
ARC
  5
346A7
  8
0
 10
407.23428809197219
 20
243.52399309110521
 30
0.0
 40
37.5
 50
105.18508956864061
 51
38.449938951765553
  0
ARC
  5
346A8
  8
0
 10
407.23428809197219
 20
243.52399309110521
 30
0.0
 40
60.000000000000028
 50
96.317455776947114
 51
46.938828965968312
  0
ARC
  5
346A9
  8
0
 10
407.23428809197219
 20
243.52399309110521
 30
0.0
 40
75.000000000000014
 50
116.70485224757761
 51
49.692636704524418
  0
ARC
  5
346AA
  8
0
 10
407.2342880919727
 20
243.52399309110621
 30
0.0
 40
44.98860367036832
 50
101.19137207000681
 51
42.268459546043758
  0
LINE
  5
346AB
  8
1
 10
622.19948588112845
 20
243.52399309110839
 30
0.0
 11
710.37079910627278
 21
243.52399309110839
 31
0.0
  0
LINE
  5
346AC
  8
1
 10
666.28514249370073
 20
155.59404064850651
 30
0.0
 11
666.28514249370107
 21
363.45394553370721
 31
0.0
  0
LINE
  5
346AE
  8
3
 10
701.28514249370073
 20
246.7569930911072
 30
0.0
 11
699.28514249370016
 21
246.7569930911072
 31
0.0
  0
LINE
  5
346AF
  8
3
 10
701.28514249370073
 20
240.29099309110691
 30
0.0
 11
699.28514249370016
 21
240.29099309110691
 31
0.0
  0
LINE
  5
3497D
  8
0
 10
173.08343369024581
 20
310.523993091107
 30
0.0
 11
170.68343369024569
 21
310.523993091107
 31
0.0
  0
LINE
  5
3497E
  8
0
 10
125.68343369024571
 20
310.523993091107
 30
0.0
 11
123.2834336902456
 21
310.523993091107
 31
0.0
  0
LINE
  5
34981
  8
0
 10
173.08343369024581
 20
323.52399309110712
 30
0.0
 11
167.18343369024521
 21
323.52399309110712
 31
0.0
  0
LINE
  5
3498D
  8
0
 10
173.18343369024569
 20
336.72399309110688
 30
0.0
 11
173.18343369024569
 21
233.523993091107
 31
0.0
  0
LINE
  5
3498E
  8
0
 10
123.18343369024571
 20
336.72399309110688
 30
0.0
 11
173.18343369024569
 21
336.72399309110688
 31
0.0
  0
LINE
  5
3498F
  8
0
 10
123.18343369024571
 20
233.523993091107
 30
0.0
 11
123.18343369024571
 21
336.72399309110688
 31
0.0
  0
LINE
  5
34990
  8
0
 10
115.18343369024571
 20
280.34400227344622
 30
0.0
 11
115.18343369024571
 21
338.72399309110688
 31
0.0
  0
LINE
  5
34991
  8
0
 10
181.18343369024569
 20
338.72399309110688
 30
0.0
 11
181.18343369024569
 21
280.34400227344622
 31
0.0
  0
ARC
  5
34994
  8
0
 10
176.20843369024581
 20
344.22399309110688
 30
0.0
 40
2.9999999999999858
 50
0.0
 51
90.0
  0
ARC
  5
34995
  8
0
 10
120.1584336902456
 20
344.22399309110688
 30
0.0
 40
2.9999999999999858
 50
90.0
 51
180.0
  0
LINE
  5
34996
  8
0
 10
117.1584336902456
 20
343.72399309110688
 30
0.0
 11
117.1584336902456
 21
344.22399309110688
 31
0.0
  0
LINE
  5
34997
  8
0
 10
179.20843369024581
 20
344.22399309110688
 30
0.0
 11
179.20843369024581
 21
343.72399309110688
 31
0.0
  0
ARC
  5
34998
  8
0
 10
180.68343369024569
 20
339.72399309110688
 30
0.0
 40
4.0000000000000133
 50
0.0
 51
90.0
  0
ARC
  5
34999
  8
0
 10
115.68343369024571
 20
339.72399309110688
 30
0.0
 40
4.0000000000000133
 50
90.0
 51
180.0
  0
LINE
  5
3499A
  8
0
 10
111.68343369024571
 20
338.72399309110688
 30
0.0
 11
111.68343369024571
 21
339.72399309110688
 31
0.0
  0
LINE
  5
3499B
  8
0
 10
184.68343369024569
 20
339.72399309110688
 30
0.0
 11
184.68343369024569
 21
338.72399309110688
 31
0.0
  0
LINE
  5
3499D
  8
0
 10
173.18343369024569
 20
233.523993091107
 30
0.0
 11
170.68343369024569
 21
233.523993091107
 31
0.0
  0
LINE
  5
3499F
  8
0
 10
125.68343369024571
 20
233.523993091107
 30
0.0
 11
123.18343369024571
 21
233.523993091107
 31
0.0
  0
LINE
  5
34A57
  8
0
 10
170.68343369024569
 20
233.523993091107
 30
0.0
 11
170.68343369024609
 21
323.52399309110712
 31
0.0
  0
LINE
  5
34A58
  8
0
 10
125.68343369024571
 20
323.52399309110712
 30
0.0
 11
125.68343369024571
 21
233.523993091107
 31
0.0
  0
LINE
  5
34B31
  8
0
 10
176.20843369024581
 20
347.22399309110688
 30
0.0
 11
120.1584336902456
 21
347.22399309110688
 31
0.0
  0
LINE
  5
34B32
  8
0
 10
180.68343369024569
 20
343.72399309110688
 30
0.0
 11
115.68343369024571
 21
343.72399309110688
 31
0.0
  0
LINE
  5
34B33
  8
0
 10
184.68343369024569
 20
338.72399309110688
 30
0.0
 11
111.68343369024571
 21
338.72399309110688
 31
0.0
  0
LINE
  5
34B34
  8
0
 10
173.18343369024569
 20
249.33899309110711
 30
0.0
 11
173.7834336902456
 21
249.33899309110711
 31
0.0
  0
POLYLINE
  5
34B36
  8
0
 66
     1
 10
0.0
 20
0.0
 30
0.0
 70
     8
  0
VERTEX
  5
34B37
  8
0
 10
174.042853399661
 20
243.52399309110709
 30
0.0
 70
    32
  0
VERTEX
  5
34B38
  8
0
 10
173.96200874640309
 20
244.0861715692217
 30
0.0
 70
    32
  0
VERTEX
  5
34B39
  8
0
 10
173.84739840764991
 20
245.14196146194581
 30
0.0
 70
    32
  0
VERTEX
  5
34B3A
  8
0
 10
173.79062382386559
 20
246.1507220058584
 30
0.0
 70
    32
  0
VERTEX
  5
34B3B
  8
0
 10
173.7834336902456
 20
246.65315975777369
 30
0.0
 70
    32
  0
SEQEND
  5
34B3C
  8
0
  0
POLYLINE
  5
34B3D
  8
0
 66
     1
 10
0.0
 20
0.0
 30
0.0
 70
     8
  0
VERTEX
  5
34B3E
  8
0
 10
173.7834336902456
 20
246.65315975777369
 30
0.0
 70
    32
  0
VERTEX
  5
34B3F
  8
0
 10
173.79062382386559
 20
247.15559750968939
 30
0.0
 70
    32
  0
VERTEX
  5
34B40
  8
0
 10
173.84739840764991
 20
248.16435805360149
 30
0.0
 70
    32
  0
VERTEX
  5
34B41
  8
0
 10
173.96200874640309
 20
249.2201479463256
 30
0.0
 70
    32
  0
VERTEX
  5
34B42
  8
0
 10
174.042853399661
 20
249.7823264244403
 30
0.0
 70
    32
  0
SEQEND
  5
34B43
  8
0
  0
POLYLINE
  5
34B44
  8
0
 66
     1
 10
0.0
 20
0.0
 30
0.0
 70
     8
  0
VERTEX
  5
34B45
  8
0
 10
174.042853399661
 20
237.26565975777379
 30
0.0
 70
    32
  0
VERTEX
  5
34B46
  8
0
 10
173.96200874640309
 20
237.82783823588849
 30
0.0
 70
    32
  0
VERTEX
  5
34B47
  8
0
 10
173.84739840764991
 20
238.8836281286126
 30
0.0
 70
    32
  0
VERTEX
  5
34B48
  8
0
 10
173.79062382386559
 20
239.8923886725247
 30
0.0
 70
    32
  0
VERTEX
  5
34B49
  8
0
 10
173.7834336902456
 20
240.39482642444051
 30
0.0
 70
    32
  0
SEQEND
  5
34B4A
  8
0
  0
POLYLINE
  5
34B5A
  8
0
 66
     1
 10
0.0
 20
0.0
 30
0.0
 70
     8
  0
VERTEX
  5
34B5B
  8
0
 10
122.9240139808303
 20
249.7823264244403
 30
0.0
 70
    32
  0
VERTEX
  5
34B5C
  8
0
 10
123.00485863408809
 20
249.2201479463256
 30
0.0
 70
    32
  0
VERTEX
  5
34B5D
  8
0
 10
123.1194689728413
 20
248.16435805360149
 30
0.0
 70
    32
  0
VERTEX
  5
34B5E
  8
0
 10
123.17624355662559
 20
247.15559750968939
 30
0.0
 70
    32
  0
VERTEX
  5
34B5F
  8
0
 10
123.18343369024571
 20
246.65315975777369
 30
0.0
 70
    32
  0
SEQEND
  5
34B60
  8
0
  0
POLYLINE
  5
34B61
  8
0
 66
     1
 10
0.0
 20
0.0
 30
0.0
 70
     8
  0
VERTEX
  5
34B62
  8
0
 10
123.18343369024571
 20
246.65315975777369
 30
0.0
 70
    32
  0
VERTEX
  5
34B63
  8
0
 10
123.17624355662559
 20
246.1507220058584
 30
0.0
 70
    32
  0
VERTEX
  5
34B64
  8
0
 10
123.1194689728413
 20
245.14196146194581
 30
0.0
 70
    32
  0
VERTEX
  5
34B65
  8
0
 10
123.00485863408809
 20
244.0861715692217
 30
0.0
 70
    32
  0
VERTEX
  5
34B66
  8
0
 10
122.9240139808303
 20
243.52399309110709
 30
0.0
 70
    32
  0
SEQEND
  5
34B67
  8
0
  0
POLYLINE
  5
34B68
  8
0
 66
     1
 10
0.0
 20
0.0
 30
0.0
 70
     8
  0
VERTEX
  5
34B69
  8
0
 10
122.9240139808303
 20
243.52399309110709
 30
0.0
 70
    32
  0
VERTEX
  5
34B6A
  8
0
 10
123.00485863408809
 20
242.96181461299241
 30
0.0
 70
    32
  0
VERTEX
  5
34B6B
  8
0
 10
123.1194689728413
 20
241.90602472026831
 30
0.0
 70
    32
  0
VERTEX
  5
34B6C
  8
0
 10
123.17624355662559
 20
240.8972641763558
 30
0.0
 70
    32
  0
VERTEX
  5
34B6D
  8
0
 10
123.18343369024571
 20
240.39482642444051
 30
0.0
 70
    32
  0
SEQEND
  5
34B6E
  8
0
  0
POLYLINE
  5
34B6F
  8
0
 66
     1
 10
0.0
 20
0.0
 30
0.0
 70
     8
  0
VERTEX
  5
34B70
  8
0
 10
123.18343369024571
 20
240.39482642444051
 30
0.0
 70
    32
  0
VERTEX
  5
34B71
  8
0
 10
123.17624355662559
 20
239.8923886725247
 30
0.0
 70
    32
  0
VERTEX
  5
34B72
  8
0
 10
123.1194689728413
 20
238.8836281286126
 30
0.0
 70
    32
  0
VERTEX
  5
34B73
  8
0
 10
123.00485863408809
 20
237.82783823588849
 30
0.0
 70
    32
  0
VERTEX
  5
34B74
  8
0
 10
122.9240139808303
 20
237.26565975777379
 30
0.0
 70
    32
  0
SEQEND
  5
34B75
  8
0
  0
LINE
  5
34B7F
  8
0
 10
173.7834336902456
 20
237.708993091107
 30
0.0
 11
173.18343369024569
 21
237.708993091107
 31
0.0
  0
LINE
  5
34B80
  8
0
 10
113.9504336902455
 20
247.52399309110709
 30
0.0
 11
115.18343369024571
 21
247.52399309110709
 31
0.0
  0
LINE
  5
34B81
  8
0
 10
115.18343369024571
 20
239.52399309110709
 30
0.0
 11
113.9504336902455
 21
239.52399309110709
 31
0.0
  0
LINE
  5
34B82
  8
0
 10
113.18343369024571
 20
246.7569930911072
 30
0.0
 11
113.9504336902455
 21
247.52399309110709
 31
0.0
  0
LINE
  5
34B83
  8
0
 10
113.9504336902455
 20
239.52399309110709
 30
0.0
 11
113.18343369024571
 21
240.29099309110691
 31
0.0
  0
LINE
  5
34B84
  8
0
 10
125.68343369024571
 20
247.52399309110709
 30
0.0
 11
128.18343369024569
 21
247.52399309110709
 31
0.0
  0
LINE
  5
34B85
  8
0
 10
128.18343369024569
 20
239.52399309110709
 30
0.0
 11
125.68343369024571
 21
239.52399309110709
 31
0.0
  0
LINE
  5
34B86
  8
0
 10
115.18343369024571
 20
249.33899309110711
 30
0.0
 11
117.68343369024571
 21
249.33899309110711
 31
0.0
  0
LINE
  5
34B87
  8
0
 10
117.68343369024571
 20
237.708993091107
 30
0.0
 11
115.18343369024571
 21
237.708993091107
 31
0.0
  0
LINE
  5
34B88
  8
0
 10
168.18343369024569
 20
247.52399309110709
 30
0.0
 11
170.68343369024569
 21
247.52399309110709
 31
0.0
  0
LINE
  5
34B89
  8
0
 10
170.68343369024569
 20
239.52399309110709
 30
0.0
 11
168.18343369024569
 21
239.52399309110709
 31
0.0
  0
LINE
  5
34B8A
  8
0
 10
113.9504336902455
 20
239.52399309110709
 30
0.0
 11
113.9504336902455
 21
247.52399309110709
 31
0.0
  0
LINE
  5
34B8B
  8
0
 10
113.18343369024571
 20
240.29099309110691
 30
0.0
 11
113.18343369024571
 21
246.7569930911072
 31
0.0
  0
LINE
  5
34B8C
  8
0
 10
178.4834336902459
 20
237.26565975777379
 30
0.0
 11
178.4834336902459
 21
249.7823264244403
 31
0.0
  0
LINE
  5
34B8D
  8
0
 10
173.7834336902456
 20
237.26565975777379
 30
0.0
 11
173.7834336902456
 21
249.7823264244407
 31
0.0
  0
LINE
  5
34B8E
  8
0
 10
178.4834336902459
 20
237.26565975777379
 30
0.0
 11
173.7834336902456
 21
237.26565975777379
 31
0.0
  0
LINE
  5
34B8F
  8
0
 10
173.98400976040779
 20
243.92417378407029
 30
0.0
 11
174.042853399661
 21
243.52399309110709
 31
0.0
  0
POLYLINE
  5
34B90
  8
0
 66
     1
 10
0.0
 20
0.0
 30
0.0
 70
     8
  0
VERTEX
  5
34B91
  8
0
 10
178.22401398082999
 20
243.52399309110709
 30
0.0
 70
    32
  0
VERTEX
  5
34B92
  8
0
 10
178.3048586340883
 20
244.0861715692217
 30
0.0
 70
    32
  0
VERTEX
  5
34B93
  8
0
 10
178.41946897284151
 20
245.14196146194581
 30
0.0
 70
    32
  0
VERTEX
  5
34B94
  8
0
 10
178.4762435566258
 20
246.1507220058584
 30
0.0
 70
    32
  0
VERTEX
  5
34B95
  8
0
 10
178.4834336902459
 20
246.65315975777369
 30
0.0
 70
    32
  0
SEQEND
  5
34B96
  8
0
  0
POLYLINE
  5
34B97
  8
0
 66
     1
 10
0.0
 20
0.0
 30
0.0
 70
     8
  0
VERTEX
  5
34B98
  8
0
 10
178.4834336902459
 20
246.65315975777369
 30
0.0
 70
    32
  0
VERTEX
  5
34B99
  8
0
 10
178.4762435566258
 20
247.15559750968939
 30
0.0
 70
    32
  0
VERTEX
  5
34B9A
  8
0
 10
178.41946897284151
 20
248.16435805360149
 30
0.0
 70
    32
  0
VERTEX
  5
34B9B
  8
0
 10
178.3048586340883
 20
249.2201479463256
 30
0.0
 70
    32
  0
VERTEX
  5
34B9C
  8
0
 10
178.22401398082999
 20
249.7823264244403
 30
0.0
 70
    32
  0
SEQEND
  5
34B9D
  8
0
  0
POLYLINE
  5
34B9E
  8
0
 66
     1
 10
0.0
 20
0.0
 30
0.0
 70
     8
  0
VERTEX
  5
34B9F
  8
0
 10
173.7834336902456
 20
240.39482642444051
 30
0.0
 70
    32
  0
VERTEX
  5
34BA0
  8
0
 10
173.79062382386559
 20
239.8923886725247
 30
0.0
 70
    32
  0
VERTEX
  5
34BA1
  8
0
 10
173.84739840764991
 20
238.8836281286126
 30
0.0
 70
    32
  0
VERTEX
  5
34BA2
  8
0
 10
173.96200874640309
 20
237.82783823588849
 30
0.0
 70
    32
  0
VERTEX
  5
34BA3
  8
0
 10
174.042853399661
 20
237.26565975777379
 30
0.0
 70
    32
  0
SEQEND
  5
34BA4
  8
0
  0
POLYLINE
  5
34BA5
  8
0
 66
     1
 10
0.0
 20
0.0
 30
0.0
 70
     8
  0
VERTEX
  5
34BA6
  8
0
 10
178.22401398082999
 20
237.26565975777379
 30
0.0
 70
    32
  0
VERTEX
  5
34BA7
  8
0
 10
178.3048586340883
 20
237.82783823588849
 30
0.0
 70
    32
  0
VERTEX
  5
34BA8
  8
0
 10
178.41946897284151
 20
238.8836281286126
 30
0.0
 70
    32
  0
VERTEX
  5
34BA9
  8
0
 10
178.4762435566258
 20
239.8923886725247
 30
0.0
 70
    32
  0
VERTEX
  5
34BAA
  8
0
 10
178.4834336902459
 20
240.39482642444051
 30
0.0
 70
    32
  0
SEQEND
  5
34BAB
  8
0
  0
POLYLINE
  5
34BAC
  8
0
 66
     1
 10
0.0
 20
0.0
 30
0.0
 70
     8
  0
VERTEX
  5
34BAD
  8
0
 10
178.4834336902459
 20
240.39482642444051
 30
0.0
 70
    32
  0
VERTEX
  5
34BAE
  8
0
 10
178.4762435566258
 20
240.8972641763558
 30
0.0
 70
    32
  0
VERTEX
  5
34BAF
  8
0
 10
178.41946897284151
 20
241.90602472026831
 30
0.0
 70
    32
  0
VERTEX
  5
34BB0
  8
0
 10
178.3048586340883
 20
242.96181461299241
 30
0.0
 70
    32
  0
VERTEX
  5
34BB1
  8
0
 10
178.22401398082999
 20
243.52399309110709
 30
0.0
 70
    32
  0
SEQEND
  5
34BB2
  8
0
  0
LINE
  5
34BB3
  8
0
 10
178.22401398082999
 20
243.52399309110709
 30
0.0
 11
174.042853399661
 21
243.52399309110709
 31
0.0
  0
POLYLINE
  5
34BB4
  8
0
 66
     1
 10
0.0
 20
0.0
 30
0.0
 70
     8
  0
VERTEX
  5
34BB5
  8
0
 10
174.042853399661
 20
243.52399309110709
 30
0.0
 70
    32
  0
VERTEX
  5
34BB6
  8
0
 10
173.96200874640309
 20
242.96181461299241
 30
0.0
 70
    32
  0
VERTEX
  5
34BB7
  8
0
 10
173.84739840764991
 20
241.90602472026831
 30
0.0
 70
    32
  0
VERTEX
  5
34BB8
  8
0
 10
173.79062382386559
 20
240.8972641763558
 30
0.0
 70
    32
  0
VERTEX
  5
34BB9
  8
0
 10
173.7834336902456
 20
240.39482642444051
 30
0.0
 70
    32
  0
SEQEND
  5
34BBA
  8
0
  0
LINE
  5
34BBB
  8
0
 10
178.4834336902459
 20
249.7823264244403
 30
0.0
 11
173.7834336902456
 21
249.7823264244403
 31
0.0
  0
LINE
  5
34BBC
  8
0
 10
115.18343369024571
 20
237.708993091107
 30
0.0
 11
115.18343369024571
 21
249.33899309110711
 31
0.0
  0
LINE
  5
34BBD
  8
0
 10
117.68343369024571
 20
237.26565975777379
 30
0.0
 11
117.68343369024571
 21
249.7823264244403
 31
0.0
  0
LINE
  5
34BBE
  8
0
 10
123.18343369024571
 20
237.26565975777379
 30
0.0
 11
117.68343369024571
 21
237.26565975777379
 31
0.0
  0
POLYLINE
  5
34BBF
  8
0
 66
     1
 10
0.0
 20
0.0
 30
0.0
 70
     8
  0
VERTEX
  5
34BC0
  8
0
 10
117.68343369024571
 20
246.65315975777369
 30
0.0
 70
    32
  0
VERTEX
  5
34BC1
  8
0
 10
117.69062382386571
 20
246.1507220058584
 30
0.0
 70
    32
  0
VERTEX
  5
34BC2
  8
0
 10
117.74739840765
 20
245.14196146194581
 30
0.0
 70
    32
  0
VERTEX
  5
34BC3
  8
0
 10
117.86200874640321
 20
244.0861715692217
 30
0.0
 70
    32
  0
VERTEX
  5
34BC4
  8
0
 10
117.9428533996611
 20
243.52399309110709
 30
0.0
 70
    32
  0
SEQEND
  5
34BC5
  8
0
  0
POLYLINE
  5
34BC6
  8
0
 66
     1
 10
0.0
 20
0.0
 30
0.0
 70
     8
  0
VERTEX
  5
34BC7
  8
0
 10
117.9428533996611
 20
249.7823264244403
 30
0.0
 70
    32
  0
VERTEX
  5
34BC8
  8
0
 10
117.86200874640321
 20
249.2201479463256
 30
0.0
 70
    32
  0
VERTEX
  5
34BC9
  8
0
 10
117.74739840765
 20
248.16435805360149
 30
0.0
 70
    32
  0
VERTEX
  5
34BCA
  8
0
 10
117.69062382386571
 20
247.15559750968939
 30
0.0
 70
    32
  0
VERTEX
  5
34BCB
  8
0
 10
117.68343369024571
 20
246.65315975777369
 30
0.0
 70
    32
  0
SEQEND
  5
34BCC
  8
0
  0
POLYLINE
  5
34BCD
  8
0
 66
     1
 10
0.0
 20
0.0
 30
0.0
 70
     8
  0
VERTEX
  5
34BCE
  8
0
 10
117.68343369024571
 20
240.39482642444051
 30
0.0
 70
    32
  0
VERTEX
  5
34BCF
  8
0
 10
117.69062382386571
 20
239.8923886725247
 30
0.0
 70
    32
  0
VERTEX
  5
34BD0
  8
0
 10
117.74739840765
 20
238.8836281286126
 30
0.0
 70
    32
  0
VERTEX
  5
34BD1
  8
0
 10
117.86200874640321
 20
237.82783823588849
 30
0.0
 70
    32
  0
VERTEX
  5
34BD2
  8
0
 10
117.9428533996611
 20
237.26565975777379
 30
0.0
 70
    32
  0
SEQEND
  5
34BD3
  8
0
  0
LINE
  5
34BE2
  8
0
 10
122.9240139808303
 20
243.52399309110839
 30
0.0
 11
117.9428533996611
 21
243.52399309110709
 31
0.0
  0
POLYLINE
  5
34BE3
  8
0
 66
     1
 10
0.0
 20
0.0
 30
0.0
 70
     8
  0
VERTEX
  5
34BE4
  8
0
 10
117.9428533996611
 20
243.52399309110709
 30
0.0
 70
    32
  0
VERTEX
  5
34BE5
  8
0
 10
117.86200874640321
 20
242.96181461299241
 30
0.0
 70
    32
  0
VERTEX
  5
34BE6
  8
0
 10
117.74739840765
 20
241.90602472026831
 30
0.0
 70
    32
  0
VERTEX
  5
34BE7
  8
0
 10
117.69062382386571
 20
240.8972641763558
 30
0.0
 70
    32
  0
VERTEX
  5
34BE8
  8
0
 10
117.68343369024571
 20
240.39482642444051
 30
0.0
 70
    32
  0
SEQEND
  5
34BE9
  8
0
  0
LINE
  5
34BEA
  8
0
 10
117.68343369024571
 20
249.7823264244403
 30
0.0
 11
123.18343369024571
 21
249.7823264244403
 31
0.0
  0
LINE
  5
34BEC
  8
0
 10
151.18343369024569
 20
168.523993091107
 30
0.0
 11
145.18343369024569
 21
168.523993091107
 31
0.0
  0
ARC
  5
34BED
  8
0
 10
145.18343369024569
 20
168.82399309110721
 30
0.0
 40
0.3000000000000114
 50
180.0
 51
270.0
  0
LINE
  5
34BF0
  8
0
 10
144.88343369024551
 20
168.82399309110721
 30
0.0
 11
142.48343369024579
 21
168.82399309110721
 31
0.0
  0
ARC
  5
34BF1
  8
0
 10
142.18343369024569
 20
168.82399309110721
 30
0.0
 40
0.3000000000000034
 50
270.0
 51
0.0
  0
LINE
  5
34BF4
  8
0
 10
142.18343369024569
 20
168.523993091107
 30
0.0
 11
139.22655515683249
 21
168.523993091107
 31
0.0
  0
ARC
  5
34BF5
  8
0
 10
139.22655515683249
 20
169.523993091107
 30
0.0
 40
1.0000000000000131
 50
198.99999999999179
 51
270.0
  0
ARC
  5
34BF6
  8
0
 10
139.22655515683249
 20
317.52399309110712
 30
0.0
 40
1.0000000000000151
 50
136.57472530317179
 51
161.0000000000081
  0
LINE
  5
34BF7
  8
0
 10
136.17845882945949
 20
311.7432320677031
 30
0.0
 11
138.28103658123331
 21
317.84956124556402
 31
0.0
  0
LINE
  5
34BF8
  8
0
 10
138.28103658123331
 20
169.1984249366501
 30
0.0
 11
136.17845882945949
 21
175.30475411451101
 31
0.0
  0
ARC
  5
34BF9
  8
0
 10
139.01501455625751
 20
176.2814585778824
 30
0.0
 40
3.0000000000000391
 50
179.99999914622629
 51
198.99999999999179
  0
ARC
  5
34BFA
  8
0
 10
139.01501455625751
 20
310.76652760433171
 30
0.0
 40
3.0000000000000431
 50
161.0000000000081
 51
180.0
  0
ARC
  5
34BFB
  8
0
 10
135.34834788959051
 20
177.71557133575561
 30
0.0
 40
0.6666666666666661
 50
180.0
 51
0.0
  0
ARC
  5
34BFC
  8
0
 10
135.34834788959051
 20
309.33241484645851
 30
0.0
 40
0.6666666666666661
 50
0.0
 51
180.0
  0
ARC
  5
34BFD
  8
0
 10
134.01501455625751
 20
181.5878525059897
 30
0.0
 40
0.6666666666666661
 50
180.0
 51
0.0
  0
ARC
  5
34BFE
  8
0
 10
134.01501455625751
 20
305.46013367622442
 30
0.0
 40
0.6666666666666661
 50
0.0
 51
180.0
  0
LINE
  5
34BFF
  8
0
 10
128.3468779634477
 20
288.9986697272343
 30
0.0
 11
133.34834788959051
 21
303.52399309110712
 31
0.0
  0
LINE
  5
34C00
  8
0
 10
133.34834788959051
 20
183.523993091107
 30
0.0
 11
128.3468779634477
 21
198.04931645497979
 31
0.0
  0
ARC
  5
34C01
  8
0
 10
131.18343369024569
 20
288.02196526386302
 30
0.0
 40
2.9999999999999138
 50
161.0000000000081
 51
180.0
  0
ARC
  5
34C02
  8
0
 10
165.18343369024569
 20
288.02196526386302
 30
0.0
 40
2.9999999999999609
 50
0.0
 51
18.999999999991871
  0
LINE
  5
34C03
  8
0
 10
163.01851949090079
 20
303.52399309110712
 30
0.0
 11
168.01998941704369
 21
288.9986697272343
 31
0.0
  0
LINE
  5
34C04
  8
0
 10
168.01998941704369
 20
198.04931645497979
 30
0.0
 11
163.01851949090079
 21
183.523993091107
 31
0.0
  0
ARC
  5
34C05
  8
0
 10
162.3518528242339
 20
181.5878525059897
 30
0.0
 40
0.6666666666666661
 50
180.0
 51
0.0
  0
ARC
  5
34C06
  8
0
 10
162.3518528242339
 20
305.46013367622442
 30
0.0
 40
0.6666666666666661
 50
0.0
 51
180.0
  0
ARC
  5
34C07
  8
0
 10
161.01851949090079
 20
177.71557133575561
 30
0.0
 40
0.6666666666666679
 50
180.0
 51
0.0
  0
ARC
  5
34C08
  8
0
 10
161.01851949090079
 20
309.33241484645851
 30
0.0
 40
0.6666666666666679
 50
0.0
 51
180.0
  0
ARC
  5
34C09
  8
0
 10
157.3518528242343
 20
176.2814585778824
 30
0.0
 40
2.9999999999998281
 50
341.00000000000807
 51
0.0
  0
ARC
  5
34C0A
  8
0
 10
157.3518528242343
 20
310.76652760433171
 30
0.0
 40
2.999999999999829
 50
0.0
 51
18.999999999991871
  0
LINE
  5
34C0B
  8
0
 10
158.08583079925799
 20
317.84956124556402
 30
0.0
 11
160.1884085510319
 21
311.7432320677031
 31
0.0
  0
LINE
  5
34C0C
  8
0
 10
160.1884085510319
 20
175.30475411451101
 30
0.0
 11
158.08583079925799
 21
169.1984249366501
 31
0.0
  0
ARC
  5
34C0D
  8
0
 10
157.14031222365881
 20
169.523993091107
 30
0.0
 40
1.0000000000000131
 50
270.0
 51
341.00000000000807
  0
ARC
  5
34C0E
  8
0
 10
157.14031222365881
 20
317.52399309110712
 30
0.0
 40
1.0000000000000131
 50
18.999999999991871
 51
43.425274696828183
  0
LINE
  5
34C10
  8
0
 10
157.14031222365881
 20
168.523993091107
 30
0.0
 11
154.18343369024569
 21
168.523993091107
 31
0.0
  0
ARC
  5
34C11
  8
0
 10
154.18343369024569
 20
168.82399309110721
 30
0.0
 40
0.3000000000000114
 50
180.0
 51
270.0
  0
LINE
  5
34C14
  8
0
 10
153.88343369024551
 20
168.82399309110721
 30
0.0
 11
151.4834336902459
 21
168.82399309110721
 31
0.0
  0
ARC
  5
34C15
  8
0
 10
151.18343369024569
 20
168.82399309110721
 30
0.0
 40
0.3000000000000038
 50
270.0
 51
0.0
  0
LINE
  5
34C17
  8
0
 10
144.88343369024551
 20
168.82399309110721
 30
0.0
 11
144.88343369024551
 21
318.21140104652022
 31
0.0
  0
LINE
  5
34C18
  8
0
 10
142.48343369024579
 20
168.82399309110721
 30
0.0
 11
142.48343369024579
 21
318.21140104652022
 31
0.0
  0
LINE
  5
34C19
  8
0
 10
136.01501455625751
 20
176.2814585778824
 30
0.0
 11
136.01501455625751
 21
310.76652760433171
 31
0.0
  0
LINE
  5
34C1A
  8
0
 10
134.681681222924
 20
177.71557133575561
 30
0.0
 11
134.681681222924
 21
309.33241484645851
 31
0.0
  0
LINE
  5
34C1B
  8
0
 10
133.34834788959051
 20
181.5878525059897
 30
0.0
 11
133.34834788959051
 21
305.46013367622442
 31
0.0
  0
LINE
  5
34C1C
  8
0
 10
128.18343369024569
 20
199.02602091835109
 30
0.0
 11
128.18343369024569
 21
288.02196526386302
 31
0.0
  0
LINE
  5
34C1D
  8
0
 10
168.18343369024569
 20
199.02602091835109
 30
0.0
 11
168.18343369024569
 21
288.02196526386302
 31
0.0
  0
LINE
  5
34C1E
  8
0
 10
163.01851949090079
 20
181.5878525059897
 30
0.0
 11
163.01851949090079
 21
305.46013367622442
 31
0.0
  0
LINE
  5
34C1F
  8
0
 10
161.68518615756739
 20
177.71557133575561
 30
0.0
 11
161.68518615756739
 21
309.33241484645851
 31
0.0
  0
LINE
  5
34C20
  8
0
 10
160.3518528242339
 20
176.2814585778824
 30
0.0
 11
160.3518528242339
 21
310.76652760433171
 31
0.0
  0
LINE
  5
34C21
  8
0
 10
153.88343369024551
 20
168.82399309110721
 30
0.0
 11
153.88343369024551
 21
318.21140104652022
 31
0.0
  0
LINE
  5
34C22
  8
0
 10
151.4834336902459
 20
168.82399309110721
 30
0.0
 11
151.4834336902459
 21
318.21140104652022
 31
0.0
  0
LINE
  5
34C29
  8
1
 10
192.2690903028178
 20
243.52399309110839
 30
0.0
 11
104.0977770776735
 21
243.52399309110839
 31
0.0
  0
LINE
  5
34C2A
  8
1
 10
148.18343369024569
 20
155.59404064850651
 30
0.0
 11
148.18343369024521
 21
363.45394553370721
 31
0.0
  0
LINE
  5
34C2B
  8
3
 10
113.18343369024571
 20
246.7569930911072
 30
0.0
 11
115.1834336902461
 21
246.7569930911072
 31
0.0
  0
LINE
  5
34C2C
  8
3
 10
113.18343369024571
 20
240.29099309110691
 30
0.0
 11
115.1834336902461
 21
240.29099309110691
 31
0.0
  0
LINE
  5
34C2E
  8
1
 10
493.6642405345732
 20
512.41714282356816
 30
0.0
 11
316.14116601244308
 21
512.41714282356816
 31
0.0
  0
LINE
  5
34C2F
  8
0
 10
326.75094859036881
 20
496.39562214024949
 30
0.0
 11
326.75094859036881
 21
528.43866350688313
 31
0.0
  0
LINE
  5
34C30
  8
0
 10
331.29510885439691
 20
493.41714282356492
 30
0.0
 11
331.29510885439691
 21
531.41714282356486
 31
0.0
  0
LINE
  5
34C31
  8
0
 10
343.75094859036932
 20
496.41714282356492
 30
0.0
 11
343.75094859036972
 21
528.41714282356497
 31
0.0
  0
LINE
  5
34C32
  8
0
 10
346.75094859036932
 20
493.41714282356492
 30
0.0
 11
328.345058288985
 21
493.41714282356492
 31
0.0
  0
LINE
  5
34C33
  8
0
 10
343.75094859036932
 20
496.41714282356492
 30
0.0
 11
346.75094859036932
 21
496.41714282356492
 31
0.0
  0
LINE
  5
34C34
  8
0
 10
346.75094859036932
 20
531.41714282356486
 30
0.0
 11
328.345058288985
 21
531.41714282356486
 31
0.0
  0
LINE
  5
34C35
  8
0
 10
343.75094859037063
 20
528.41714282356497
 30
0.0
 11
346.75094859037017
 21
528.41714282356497
 31
0.0
  0
ARC
  5
34C36
  8
0
 10
331.0873879840106
 20
496.80069385001019
 30
0.0
 40
4.3553174057440378
 50
185.33657785306829
 51
230.9756258439001
  0
ARC
  5
34C37
  8
0
 10
331.0873879840106
 20
528.03359179711958
 30
0.0
 40
4.3553174057440378
 50
129.0243741560999
 51
174.66342214693171
  0
LINE
  5
34C38
  8
0
 10
326.75094859037017
 20
324.64634592723951
 30
0.0
 11
329.96488663880291
 21
320.8161237116442
 31
0.0
  0
LINE
  5
34C39
  8
0
 10
328.66605969816737
 20
326.2533149514561
 30
0.0
 11
326.75094859037017
 21
324.64634592723951
 31
0.0
  0
LINE
  5
34C3A
  8
0
 10
331.29510885439782
 20
323.12013617441198
 30
0.0
 11
328.66605969816737
 21
326.2533149514561
 31
0.0
  0
LINE
  5
34C3B
  8
0
 10
347.4605152900013
 20
320.87585411684768
 30
0.0
 11
331.29510885439782
 21
323.12013617441198
 31
0.0
  0
LINE
  5
34C3C
  8
0
 10
346.77708290342611
 20
323.4264585070855
 30
0.0
 11
346.47154126080022
 21
323.6058272592204
 31
0.0
  0
LINE
  5
34C3D
  8
0
 10
329.96488663880291
 20
320.8161237116442
 30
0.0
 11
348.17445333843398
 21
318.21140104664067
 31
0.0
  0
LINE
  5
34C3E
  8
0
 10
344.20532887082118
 20
327.38245403247271
 30
0.0
 11
346.74936256433688
 21
327.03213068703138
 31
0.0
  0
LINE
  5
34C3F
  8
0
 10
343.75441057872149
 20
324.27201333836052
 30
0.0
 11
344.20532887082118
 21
327.38245403247271
 31
0.0
  0
LINE
  5
34C40
  8
0
 10
346.40579017850092
 20
323.98488252898687
 30
0.0
 11
346.74936256433688
 21
327.03213068703138
 31
0.0
  0
LINE
  5
34C41
  8
0
 10
343.75441057872149
 20
324.27201333836052
 30
0.0
 11
344.49235757127462
 21
321.2879305554265
 31
0.0
  0
LINE
  5
34C42
  8
0
 10
346.40579017850092
 20
323.98488252898687
 30
0.0
 11
346.47154126080022
 21
323.6058272592204
 31
0.0
  0
POLYLINE
  5
34F37
  8
0
 66
     1
 10
0.0
 20
0.0
 30
0.0
 70
     8
  0
VERTEX
  5
34F39
  8
0
 10
176.29289414972479
 20
249.78232642443979
 30
0.0
 70
    32
  0
VERTEX
  5
34F3A
  8
0
 10
176.59911670280729
 20
250.659686327348
 30
0.0
 70
    32
  0
VERTEX
  5
34F3B
  8
0
 10
177.23974489139661
 20
252.6685721611934
 30
0.0
 70
    32
  0
VERTEX
  5
34F3C
  8
0
 10
177.83501770389461
 20
254.72065788825739
 30
0.0
 70
    32
  0
VERTEX
  5
34F3D
  8
0
 10
178.3840059506978
 20
256.81274031047178
 30
0.0
 70
    32
  0
VERTEX
  5
34F3E
  8
0
 10
178.88585268997889
 20
258.94155379702721
 30
0.0
 70
    32
  0
VERTEX
  5
34F3F
  8
0
 10
179.1188502867617
 20
260.0186983609388
 30
0.0
 70
    32
  0
VERTEX
  5
34F40
  8
0
 10
179.33977456532961
 20
261.10377538185088
 30
0.0
 70
    32
  0
VERTEX
  5
34F41
  8
0
 10
179.74506302853661
 20
263.29602995058298
 30
0.0
 70
    32
  0
VERTEX
  5
34F42
  8
0
 10
180.10108544558989
 20
265.51489550895388
 30
0.0
 70
    32
  0
VERTEX
  5
34F43
  8
0
 10
180.40728608419019
 20
267.75690852433439
 30
0.0
 70
    32
  0
VERTEX
  5
34F44
  8
0
 10
180.6631869812195
 20
270.0185693321323
 30
0.0
 70
    32
  0
VERTEX
  5
34F45
  8
0
 10
180.86838868881341
 20
272.29634759858169
 30
0.0
 70
    32
  0
VERTEX
  5
34F46
  8
0
 10
180.95187414410381
 20
273.44017051869417
 30
0.0
 70
    32
  0
VERTEX
  5
34F47
  8
0
 10
181.0225708978823
 20
274.58668783141093
 30
0.0
 70
    32
  0
VERTEX
  5
34F48
  8
0
 10
181.12549293809249
 20
276.88601492977841
 30
0.0
 70
    32
  0
VERTEX
  5
34F49
  8
0
 10
181.1769941535444
 20
279.19073976481701
 30
0.0
 70
    32
  0
VERTEX
  5
34F4A
  8
0
 10
181.18343369024569
 20
280.34400227344622
 30
0.0
 70
    32
  0
SEQEND
  5
34F38
  8
0
  0
POLYLINE
  5
34F4B
  8
0
 66
     1
 10
0.0
 20
0.0
 30
0.0
 70
     8
  0
VERTEX
  5
34F4D
  8
0
 10
115.18343369024571
 20
280.34400227344622
 30
0.0
 70
    32
  0
VERTEX
  5
34F4E
  8
0
 10
115.1898732269469
 20
279.19073976481701
 30
0.0
 70
    32
  0
VERTEX
  5
34F4F
  8
0
 10
115.24137444239879
 20
276.88601492977841
 30
0.0
 70
    32
  0
VERTEX
  5
34F50
  8
0
 10
115.344296482609
 20
274.58668783141093
 30
0.0
 70
    32
  0
VERTEX
  5
34F51
  8
0
 10
115.4149932363875
 20
273.44017051869417
 30
0.0
 70
    32
  0
VERTEX
  5
34F52
  8
0
 10
115.4984786916779
 20
272.29634759858169
 30
0.0
 70
    32
  0
VERTEX
  5
34F53
  8
0
 10
115.7036803992719
 20
270.0185693321323
 30
0.0
 70
    32
  0
VERTEX
  5
34F54
  8
0
 10
115.9595812963011
 20
267.75690852433439
 30
0.0
 70
    32
  0
VERTEX
  5
34F55
  8
0
 10
116.2657819349015
 20
265.51489550895388
 30
0.0
 70
    32
  0
VERTEX
  5
34F56
  8
0
 10
116.62180435195469
 20
263.29602995058298
 30
0.0
 70
    32
  0
VERTEX
  5
34F57
  8
0
 10
117.02709281516169
 20
261.10377538185088
 30
0.0
 70
    32
  0
VERTEX
  5
34F58
  8
0
 10
117.2480170937297
 20
260.0186983609388
 30
0.0
 70
    32
  0
VERTEX
  5
34F59
  8
0
 10
117.4810146905119
 20
258.94155379702721
 30
0.0
 70
    32
  0
VERTEX
  5
34F5A
  8
0
 10
117.9828614297935
 20
256.81274031047178
 30
0.0
 70
    32
  0
VERTEX
  5
34F5B
  8
0
 10
118.53184967659671
 20
254.72065788825739
 30
0.0
 70
    32
  0
VERTEX
  5
34F5C
  8
0
 10
119.1271224890947
 20
252.6685721611934
 30
0.0
 70
    32
  0
VERTEX
  5
34F5D
  8
0
 10
119.76775067768401
 20
250.659686327348
 30
0.0
 70
    32
  0
VERTEX
  5
34F5E
  8
0
 10
120.0739732307665
 20
249.7823264244403
 30
0.0
 70
    32
  0
SEQEND
  5
34F4C
  8
0
  0
LINE
  5
34F9E
  8
0
 10
167.18343369024521
 20
318.21140104652022
 30
0.0
 11
129.18343369024521
 21
318.21140104652022
 31
0.0
  0
LINE
  5
34F9F
  8
0
 10
167.18343369024521
 20
318.21140104652022
 30
0.0
 11
167.18343369024521
 21
326.2533149513356
 31
0.0
  0
LINE
  5
34FA0
  8
0
 10
164.18343369024569
 20
326.2533149513356
 30
0.0
 11
164.18343369024569
 21
327.38245403235209
 31
0.0
  0
LINE
  5
34FA1
  8
0
 10
167.18343369024521
 20
326.2533149513356
 30
0.0
 11
129.18343369024521
 21
326.2533149513356
 31
0.0
  0
LINE
  5
34FA2
  8
0
 10
129.18343369024521
 20
318.21140104652022
 30
0.0
 11
129.18343369024521
 21
326.2533149513356
 31
0.0
  0
LINE
  5
34FA3
  8
0
 10
164.18343369024569
 20
327.38245403235209
 30
0.0
 11
132.18343369024481
 21
327.38245403235209
 31
0.0
  0
LINE
  5
34FA4
  8
0
 10
132.18343369024481
 20
326.2533149513356
 30
0.0
 11
132.18343369024481
 21
327.38245403235209
 31
0.0
  0
LINE
  5
34FA5
  8
0
 10
129.18343369024521
 20
320.81612371152369
 30
0.0
 11
167.18343369024521
 21
320.81612371152369
 31
0.0
  0
POLYLINE
  5
34FA6
  8
0
 66
     1
 10
0.0
 20
0.0
 30
0.0
 70
     8
  0
VERTEX
  5
34FA8
  8
0
 10
129.18343369024569
 20
322.54580373070939
 30
0.0
 70
    32
  0
VERTEX
  5
34FA9
  8
0
 10
128.9202939755196
 20
322.17771981707853
 30
0.0
 70
    32
  0
VERTEX
  5
34FAA
  8
0
 10
128.2406763849049
 20
321.16886604094537
 30
0.0
 70
    32
  0
VERTEX
  5
34FAB
  8
0
 10
127.57793235796809
 20
320.12547035429043
 30
0.0
 70
    32
  0
VERTEX
  5
34FAC
  8
0
 10
126.93262264232089
 20
319.04841557403188
 30
0.0
 70
    32
  0
VERTEX
  5
34FAD
  8
0
 10
126.616676864056
 20
318.4975497122241
 30
0.0
 70
    32
  0
VERTEX
  5
34FAE
  8
0
 10
126.3052932344071
 20
317.9386129960435
 30
0.0
 70
    32
  0
VERTEX
  5
34FAF
  8
0
 10
125.6964749175367
 20
316.7970016241029
 30
0.0
 70
    32
  0
VERTEX
  5
34FB0
  8
0
 10
125.6834336902461
 20
316.77107682412179
 30
0.0
 70
    32
  0
SEQEND
  5
34FA7
  8
0
  0
LINE
  5
34FB1
  8
0
 10
129.18343369024521
 20
323.52399309110712
 30
0.0
 11
123.2834336902456
 21
323.52399309110712
 31
0.0
  0
POLYLINE
  5
34FB2
  8
0
 66
     1
 10
0.0
 20
0.0
 30
0.0
 70
     8
  0
VERTEX
  5
34FB4
  8
0
 10
170.68343369024609
 20
316.77107682412128
 30
0.0
 70
    32
  0
VERTEX
  5
34FB5
  8
0
 10
170.6703924629546
 20
316.7970016241029
 30
0.0
 70
    32
  0
VERTEX
  5
34FB6
  8
0
 10
170.06157414608381
 20
317.9386129960435
 30
0.0
 70
    32
  0
VERTEX
  5
34FB7
  8
0
 10
169.7501905164354
 20
318.4975497122241
 30
0.0
 70
    32
  0
VERTEX
  5
34FB8
  8
0
 10
169.43424473817049
 20
319.04841557403188
 30
0.0
 70
    32
  0
VERTEX
  5
34FB9
  8
0
 10
168.78893502252319
 20
320.12547035429043
 30
0.0
 70
    32
  0
VERTEX
  5
34FBA
  8
0
 10
168.12619099558651
 20
321.16886604094537
 30
0.0
 70
    32
  0
VERTEX
  5
34FBB
  8
0
 10
167.44657340497179
 20
322.17771981707853
 30
0.0
 70
    32
  0
VERTEX
  5
34FBC
  8
0
 10
167.18343369024521
 20
322.54580373071212
 30
0.0
 70
    32
  0
SEQEND
  5
34FB3
  8
0
  0
LINE
  5
34FBD
  8
0
 10
685.28514249370164
 20
318.21140104651892
 30
0.0
 11
675.96829253477188
 21
318.21140104651931
 31
0.0
  0
LINE
  5
34FBE
  8
0
 10
685.28514249370164
 20
318.21140104651892
 30
0.0
 11
685.28514249370198
 21
321.10917852538432
 31
0.0
  0
LINE
  5
34FBF
  8
0
 10
647.28514249370164
 20
318.21140104651892
 30
0.0
 11
647.2851424937021
 21
321.10917852538432
 31
0.0
  0
LINE
  5
34FC0
  8
0
 10
656.60199245262902
 20
318.21140104651892
 30
0.0
 11
647.28514249370164
 21
318.21140104651892
 31
0.0
  0
LINE
  5
34FC2
  8
0
 10
671.9851424937001
 20
318.22399309110688
 30
0.0
 11
669.58514249370035
 21
318.22399309110688
 31
0.0
  0
LINE
  5
384B2
  8
3
 10
688.78514249370073
 20
246.7569930911072
 30
0.0
 11
686.28514249370062
 21
246.7569930911072
 31
0.0
  0
LINE
  5
384B3
  8
3
 10
688.7851424937005
 20
240.2909930910605
 30
0.0
 11
686.28514249370062
 21
240.2909930910632
 31
0.0
  0
LINE
  5
384B4
  8
3
 10
646.28514249370062
 20
240.2909930911068
 30
0.0
 11
643.78514249369721
 21
240.29099309110961
 31
0.0
  0
LINE
  5
384B5
  8
3
 10
646.28514249370062
 20
246.7569930911072
 30
0.0
 11
643.78514249370073
 21
246.7569930911072
 31
0.0
  0
LINE
  5
384B6
  8
3
 10
170.68343369024569
 20
246.7569930911072
 30
0.0
 11
168.18343369024549
 21
246.7569930911072
 31
0.0
  0
LINE
  5
384B7
  8
3
 10
170.68343369024561
 20
240.2909930910605
 30
0.0
 11
168.18343369024549
 21
240.2909930910632
 31
0.0
  0
LINE
  5
384B8
  8
3
 10
128.18343369024569
 20
246.7569930911072
 30
0.0
 11
125.68343369024549
 21
246.7569930911072
 31
0.0
  0
LINE
  5
384B9
  8
3
 10
128.18343369024561
 20
240.2909930910605
 30
0.0
 11
125.68343369024549
 21
240.2909930910632
 31
0.0
  0
ARC
  5
38503
  8
0
 10
683.28514249370073
 20
199.02602091835109
 30
0.0
 40
2.9999999999999192
 50
341.00000000000921
 51
0.0
  0
ARC
  5
38504
  8
0
 10
649.28514249370073
 20
199.02602091835109
 30
0.0
 40
2.9999999999999192
 50
180.0
 51
198.99999999999
  0
ARC
  5
38505
  8
0
 10
165.18343369024569
 20
199.02602091835109
 30
0.0
 40
2.9999999999999192
 50
341.00000000001
 51
0.0
  0
ARC
  5
38506
  8
0
 10
131.18343369024569
 20
199.02602091835109
 30
0.0
 40
2.9999999999999192
 50
180.0
 51
198.99999999998931
  0
TEXT
  5
38562
  8
0
 62
     3
 10
0.0
 20
0.0
 30
0.0
 40
10.0
  1
CAE3-150FBF
  7
STANDARD1
  0
LINE
  5
38584
  8
0
 10
159.18343369024521
 20
347.22399309110727
 30
0.0
 11
159.18343369024521
 21
350.52399309110751
 31
0.0
  0
LINE
  5
38585
  8
0
 10
137.18343369024521
 20
350.52399309110751
 30
0.0
 11
137.18343369024521
 21
347.22399309110727
 31
0.0
  0
LINE
  5
38586
  8
0
 10
137.18343369024521
 20
350.52399309110751
 30
0.0
 11
159.18343369024521
 21
350.52399309110751
 31
0.0
  0
LINE
  5
38587
  8
0
 10
677.28514249370107
 20
347.22399309110682
 30
0.0
 11
677.28514249370107
 21
350.523993091107
 31
0.0
  0
LINE
  5
38588
  8
0
 10
655.28514249370096
 20
350.523993091107
 30
0.0
 11
655.28514249370096
 21
347.22399309110682
 31
0.0
  0
LINE
  5
38589
  8
0
 10
655.28514249370119
 20
350.523993091107
 30
0.0
 11
677.28514249370107
 21
350.523993091107
 31
0.0
  0
ENDSEC
  0
EOF
