  0
SECTION
  2
HEADER
  9
$ACADVER
  1
AC1009
  9
$INSBASE
 10
0.0
 20
0.0
 30
0.0
  9
$EXTMIN
 10
0.0
 20
-2.960436562073669
 30
0.0
  9
$EXTMAX
 10
708.78514249370085
 20
555.28975862916059
 30
0.0
  9
$LIMMIN
 10
0.0
 20
0.0
  9
$LIMMAX
 10
375.0
 20
270.0
  9
$ORTHOMODE
 70
     1
  9
$REGENMODE
 70
     1
  9
$FILLMODE
 70
     1
  9
$QTEXTMODE
 70
     0
  9
$MIRRTEXT
 70
     1
  9
$DRAGMODE
 70
     2
  9
$LTSCALE
 40
10.0
  9
$OSMODE
 70
  3071
  9
$ATTMODE
 70
     1
  9
$TEXTSIZE
 40
5.0
  9
$TRACEWID
 40
0.05
  9
$TEXTSTYLE
  7
STANDARD
  9
$CLAYER
  8
0
  9
$CELTYPE
  6
BYLAYER
  9
$CECOLOR
 62
     6
  9
$DIMSCALE
 40
2.0
  9
$DIMASZ
 40
3.0
  9
$DIMEXO
 40
2.0
  9
$DIMDLI
 40
0.38
  9
$DIMRND
 40
0.0
  9
$DIMDLE
 40
0.0
  9
$DIMEXE
 40
2.0
  9
$DIMTP
 40
0.0
  9
$DIMTM
 40
0.0
  9
$DIMTXT
 40
3.2000000000000002
  9
$DIMCEN
 40
0.0
  9
$DIMTSZ
 40
0.0
  9
$DIMTOL
 70
     0
  9
$DIMLIM
 70
     0
  9
$DIMTIH
 70
     0
  9
$DIMTOH
 70
     0
  9
$DIMSE1
 70
     0
  9
$DIMSE2
 70
     0
  9
$DIMTAD
 70
     1
  9
$DIMZIN
 70
     8
  9
$DIMBLK
  1

  9
$DIMASO
 70
     0
  9
$DIMSHO
 70
     0
  9
$DIMPOST
  1

  9
$DIMAPOST
  1

  9
$DIMALT
 70
     0
  9
$DIMALTD
 70
     2
  9
$DIMALTF
 40
25.399999999999999
  9
$DIMLFAC
 40
1.0
  9
$DIMTOFL
 70
     0
  9
$DIMTVP
 40
1.6000000000000001
  9
$DIMTIX
 70
     1
  9
$DIMSOXD
 70
     0
  9
$DIMSAH
 70
     0
  9
$DIMBLK1
  1

  9
$DIMBLK2
  1

  9
$DIMSTYLE
  2
STANDARD
  9
$DIMCLRD
 70
     0
  9
$DIMCLRE
 70
     0
  9
$DIMCLRT
 70
     0
  9
$DIMTFAC
 40
1.0
  9
$DIMGAP
 40
1.1999999999999991
  9
$LUNITS
 70
     2
  9
$LUPREC
 70
     4
  9
$SKETCHINC
 40
0.1
  9
$FILLETRAD
 40
0.0
  9
$AUNITS
 70
     0
  9
$AUPREC
 70
     4
  9
$MENU
  1
ACAD
  9
$ELEVATION
 40
0.0
  9
$PELEVATION
 40
0.0
  9
$THICKNESS
 40
0.0
  9
$LIMCHECK
 70
     0
  9
$BLIPMODE
 70
     0
  9
$CHAMFERA
 40
0.0
  9
$CHAMFERB
 40
0.0
  9
$SKPOLY
 70
     0
  9
$TDCREATE
 40
2448055.7149187499
  9
$TDUPDATE
 40
2456598.559412396
  9
$TDINDWG
 40
3.5502215625
  9
$TDUSRTIMER
 40
3.5502215625
  9
$USRTIMER
 70
     1
  9
$ANGBASE
 50
0.0
  9
$ANGDIR
 70
     0
  9
$PDMODE
 70
     0
  9
$PDSIZE
 40
0.0
  9
$PLINEWID
 40
0.0
  9
$COORDS
 70
     1
  9
$SPLFRAME
 70
     0
  9
$SPLINETYPE
 70
     6
  9
$SPLINESEGS
 70
     8
  9
$ATTDIA
 70
     0
  9
$ATTREQ
 70
     1
  9
$HANDLING
 70
     1
  9
$HANDSEED
  5
38BAA
  9
$SURFTAB1
 70
     6
  9
$SURFTAB2
 70
     6
  9
$SURFTYPE
 70
     6
  9
$SURFU
 70
     6
  9
$SURFV
 70
     6
  9
$UCSNAME
  2

  9
$UCSORG
 10
0.0
 20
0.0
 30
0.0
  9
$UCSXDIR
 10
1.0
 20
0.0
 30
0.0
  9
$UCSYDIR
 10
0.0
 20
1.0
 30
0.0
  9
$PUCSNAME
  2

  9
$PUCSORG
 10
0.0
 20
0.0
 30
0.0
  9
$PUCSXDIR
 10
1.0
 20
0.0
 30
0.0
  9
$PUCSYDIR
 10
0.0
 20
1.0
 30
0.0
  9
$USERI1
 70
     0
  9
$USERI2
 70
     0
  9
$USERI3
 70
     0
  9
$USERI4
 70
     0
  9
$USERI5
 70
     0
  9
$USERR1
 40
0.0
  9
$USERR2
 40
0.0
  9
$USERR3
 40
0.0
  9
$USERR4
 40
0.0
  9
$USERR5
 40
0.0
  9
$WORLDVIEW
 70
     1
  9
$SHADEDGE
 70
     3
  9
$SHADEDIF
 70
    70
  9
$TILEMODE
 70
     1
  9
$MAXACTVP
 70
    16
  9
$PLIMCHECK
 70
     0
  9
$PEXTMIN
 10
1.0000000000000000E+020
 20
1.0000000000000000E+020
 30
1.0000000000000000E+020
  9
$PEXTMAX
 10
-1.0000000000000000E+020
 20
-1.0000000000000000E+020
 30
-1.0000000000000000E+020
  9
$PLIMMIN
 10
0.0
 20
0.0
  9
$PLIMMAX
 10
12.0
 20
9.0
  9
$UNITMODE
 70
     0
  9
$VISRETAIN
 70
     0
  9
$PLINEGEN
 70
     1
  9
$PSLTSCALE
 70
     0
  0
ENDSEC
  0
SECTION
  2
TABLES
  0
TABLE
  2
VPORT
 70
     1
  0
VPORT
  2
*ACTIVE
 70
     0
 10
0.0
 20
0.0
 11
1.0
 21
1.0
 12
369.86216425305969
 22
276.16209697902832
 13
0.0
 23
0.0
 14
5.0
 24
5.0
 15
10.0
 25
10.0
 16
0.0
 26
0.0
 36
1.0
 17
0.0
 27
0.0
 37
0.0
 40
563.29629627234294
 41
1.831871345029239
 42
50.0
 43
0.0
 44
0.0
 50
0.0
 51
0.0
 71
     0
 72
   500
 73
     1
 74
     1
 75
     0
 76
     0
 77
     0
 78
     2
  0
ENDTAB
  0
TABLE
  2
LTYPE
 70
     3
  0
LTYPE
  2
CONTINUOUS
 70
     0
  3
実線
 72
    65
 73
     0
 40
0.0
  0
LTYPE
  2
CENTER
 70
     0
  3
____ _ ____ _ ____ _ ____ _ ____ _ ____ _ ____
 72
    65
 73
     4
 40
2.0
 49
1.25
 49
-0.25
 49
0.25
 49
-0.25
  0
LTYPE
  2
PHANTOM2
 70
     0
  3
___ _ _ ___ _ _ ___ _ _ ___ _ _
 72
    65
 73
     6
 40
1.25
 49
0.625
 49
-0.125
 49
0.125
 49
-0.125
 49
0.125
 49
-0.125
  0
ENDTAB
  0
TABLE
  2
LAYER
 70
     4
  0
LAYER
  2
0
 70
     0
 62
     7
  6
CONTINUOUS
  0
LAYER
  2
1
 70
     0
 62
     1
  6
CENTER
  0
LAYER
  2
DEFPOINTS
 70
     0
 62
     7
  6
CONTINUOUS
  0
LAYER
  2
3
 70
     0
 62
     3
  6
CONTINUOUS
  0
ENDTAB
  0
TABLE
  2
STYLE
 70
     3
  0
STYLE
  2
STANDARD
 70
     0
 40
0.0
 41
1.0
 50
0.0
 71
     0
 42
5.0
  3
simplex.shx
  4
bigfont.shx
  0
STYLE
  2
07500
 70
     0
 40
0.0
 41
0.75
 50
0.0
 71
     0
 42
0.2
  3
simplex.shx
  4
bigfont.shx
  0
STYLE
  2
STANDARD1
 70
     0
 40
0.0
 41
1.0
 50
0.0
 71
     0
 42
3.0
  3
txt
  4

  0
ENDTAB
  0
TABLE
  2
VIEW
 70
     2
  0
VIEW
  2
ALL
 70
     0
 40
270.0
 10
220.99159663865549
 20
135.0
 41
0.0
 11
0.0
 21
0.0
 31
1.0
 12
0.0
 22
0.0
 32
0.0
 42
0.0
 43
0.0
 44
0.0
 50
0.0
 71
     0
  0
VIEW
  2
OLE1
 70
     0
 40
168.2487151179721
 10
2892.3009567448912
 20
702.51600084347126
 41
162.5749581879237
 11
0.0
 21
0.0
 31
1.0
 12
0.0
 22
0.0
 32
0.0
 42
50.0
 43
0.0
 44
0.0
 50
0.0
 71
     0
  0
ENDTAB
  0
TABLE
  2
UCS
 70
     0
  0
ENDTAB
  0
TABLE
  2
APPID
 70
    48
  0
APPID
  2
ACAD
 70
     0
  0
APPID
  2
DCO15
 70
     0
  0
APPID
  2
GENIUS_GENOREF_13
 70
     0
  0
APPID
  2
GENIUS_GENOENT_13
 70
     0
  0
APPID
  2
GENIUS_GENBH_13
 70
     0
  0
APPID
  2
GENIUS_GENOBJ_13
 70
     0
  0
APPID
  2
GENIUS_GENODEF_13
 70
     0
  0
APPID
  2
GENIUS_GENOLIS_13
 70
     0
  0
APPID
  2
GENIUS_GENOBJ-NBEHI-BHF_13
 70
     0
  0
APPID
  2
GENIUS_GENOBJ-NBEHI-BHB_13
 70
     0
  0
APPID
  2
GENIUS_GENOBJ-F-PART_13
 70
     0
  0
APPID
  2
GENIUS_GEFSTDP_13
 70
     0
  0
APPID
  2
GENIUS_GENOBJ-N-RSSYM_13
 70
     0
  0
APPID
  2
GENIUS_GENSYMENT_13
 70
     0
  0
APPID
  2
GENIUS_GENOBJ-N-TIT_13
 70
     0
  0
APPID
  2
GENIUS_GENTITLE_13
 70
     0
  0
APPID
  2
GENIUS_GENZVEED_13
 70
     0
  0
APPID
  2
GENIUS_GENOBJ-N-LEADER_13
 70
     0
  0
APPID
  2
GENIUS_GENOBJ-N-FIL_13
 70
     0
  0
APPID
  2
GENIUS_GENOBJ-N-SEC_13
 70
     0
  0
APPID
  2
GENIUS_GENOBJ-N-CRS_13
 70
     0
  0
APPID
  2
GENIUS_GENOBJ-N-ZOO_13
 70
     0
  0
APPID
  2
GENIUS_GENZOO_13
 70
     0
  0
APPID
  2
GENIUS_GENOBJ-F-TOL_13
 70
     0
  0
APPID
  2
GENIUS_GENFIL_13
 70
     0
  0
APPID
  2
GENIUS_GENOBJ-N-CHA_13
 70
     0
  0
APPID
  2
_CALL_MAC$
 70
     0
  0
APPID
  2
ASM_BASE
 70
     0
  0
APPID
  2
ASM_EXPLO_VER_2_00
 70
     0
  0
APPID
  2
ASM_CADM_VER_12_00
 70
     0
  0
APPID
  2
ASM_BASEFORO
 70
     0
  0
APPID
  2
ASM_BASETRAVI
 70
     0
  0
APPID
  2
ASM_BASETRAVI1
 70
     0
  0
APPID
  2
ASM_GRUPPI
 70
     0
  0
APPID
  2
ASM_CADM_ALBERO
 70
     0
  0
APPID
  2
ASM_GOLE
 70
     0
  0
APPID
  2
ACAD_MLEADERVER
 70
     0
  0
APPID
  2
ACAD_DSTYLE_DIMJAG
 70
     0
  0
APPID
  2
ACAD_DSTYLE_DIMTALN
 70
     0
  0
APPID
  2
ACAD_EXEMPT_FROM_CAD_STANDARDS
 70
     0
  0
APPID
  2
ACAD_DSTYLE_DIMRADIAL_EXTENSION
 70
     0
  0
APPID
  2
ACAD_PSEXT
 70
     0
  0
APPID
  2
ACAD_DSTYLE_DIMBREAK
 70
     0
  0
APPID
  2
ACAECLAYERSTANDARD
 70
     0
  0
APPID
  2
ACCMTRANSPARENCY
 70
     0
  0
APPID
  2
GRADIENTCOLOR1ACI
 70
     0
  0
APPID
  2
GRADIENTCOLOR2ACI
 70
     0
  0
APPID
  2
ACAD_NAV_VCDISPLAY
 70
     0
  0
ENDTAB
  0
TABLE
  2
DIMSTYLE
 70
     1
  0
DIMSTYLE
  2
STANDARD
 70
     0
  3

  4

  5

  6

  7

 40
1.0
 41
0.18
 42
0.0625
 43
0.38
 44
0.18
 45
0.0
 46
0.0
 47
0.0
 48
0.0
140
0.18
141
0.09
142
0.0
143
25.399999999999999
144
1.0
145
0.0
146
1.0
147
0.09
 71
     0
 72
     0
 73
     1
 74
     1
 75
     0
 76
     0
 77
     0
 78
     0
170
     0
171
     2
172
     0
173
     0
174
     0
175
     0
176
     0
177
     0
178
     0
  0
ENDTAB
  0
ENDSEC
  0
SECTION
  2
BLOCKS
  0
BLOCK
  8
0
  2
$MODEL_SPACE
 70
     0
 10
0.0
 20
0.0
 30
0.0
  3
$MODEL_SPACE
  1

  0
ENDBLK
  5
36
  8
0
  0
BLOCK
 67
     1
  8
0
  2
$PAPER_SPACE
 70
     0
 10
0.0
 20
0.0
 30
0.0
  3
$PAPER_SPACE
  1

  0
ENDBLK
  5
34
 67
     1
  8
0
  0
ENDSEC
  0
SECTION
  2
ENTITIES
  0
POLYLINE
  5
2C306
  8
0
 66
     1
 10
0.0
 20
0.0
 30
0.0
  0
VERTEX
  5
382DC
  8
0
 10
403.62103765729518
 20
487.0577231141533
 30
0.0
  0
VERTEX
  5
382DD
  8
0
 10
403.29646376162299
 20
487.13856776741108
 30
0.0
  0
VERTEX
  5
382DE
  8
0
 10
402.6869031828511
 20
487.25317810616428
 30
0.0
  0
VERTEX
  5
382DF
  8
0
 10
402.1044950112755
 20
487.3099526899486
 30
0.0
  0
VERTEX
  5
382E0
  8
0
 10
401.81441243995602
 20
487.3171428235687
 30
0.0
  0
SEQEND
  5
382E1
  8
0
  0
POLYLINE
  5
2C307
  8
0
 66
     1
 10
0.0
 20
0.0
 30
0.0
  0
VERTEX
  5
382E2
  8
0
 10
401.81441243995602
 20
487.3171428235687
 30
0.0
  0
VERTEX
  5
382E3
  8
0
 10
401.52432986863658
 20
487.3099526899486
 30
0.0
  0
VERTEX
  5
382E4
  8
0
 10
400.94192169706088
 20
487.25317810616428
 30
0.0
  0
VERTEX
  5
382E5
  8
0
 10
400.33236111828899
 20
487.13856776741108
 30
0.0
  0
VERTEX
  5
382E6
  8
0
 10
400.0077872226168
 20
487.0577231141533
 30
0.0
  0
SEQEND
  5
382E7
  8
0
  0
POLYLINE
  5
2C308
  8
0
 66
     1
 10
0.0
 20
0.0
 30
0.0
  0
VERTEX
  5
382E8
  8
0
 10
410.8475385266521
 20
482.37656253298422
 30
0.0
  0
VERTEX
  5
382E9
  8
0
 10
411.17211242232418
 20
482.295717879726
 30
0.0
  0
VERTEX
  5
382EA
  8
0
 10
411.78167300109612
 20
482.18110754097268
 30
0.0
  0
VERTEX
  5
382EB
  8
0
 10
412.36408117267177
 20
482.12433295718841
 30
0.0
  0
VERTEX
  5
382EC
  8
0
 10
412.65416374399121
 20
482.11714282356837
 30
0.0
  0
SEQEND
  5
382ED
  8
0
  0
POLYLINE
  5
2C309
  8
0
 66
     1
 10
0.0
 20
0.0
 30
0.0
  0
VERTEX
  5
382EE
  8
0
 10
414.46078896133042
 20
487.0577231141533
 30
0.0
  0
VERTEX
  5
382EF
  8
0
 10
414.13621506565829
 20
487.13856776741108
 30
0.0
  0
VERTEX
  5
382F0
  8
0
 10
413.5266544868864
 20
487.25317810616428
 30
0.0
  0
VERTEX
  5
382F1
  8
0
 10
412.94424631531069
 20
487.3099526899486
 30
0.0
  0
VERTEX
  5
382F2
  8
0
 10
412.65416374399121
 20
487.3171428235687
 30
0.0
  0
SEQEND
  5
382F3
  8
0
  0
POLYLINE
  5
2C30A
  8
0
 66
     1
 10
0.0
 20
0.0
 30
0.0
  0
VERTEX
  5
382F4
  8
0
 10
403.62103765729518
 20
542.15772311415321
 30
0.0
  0
VERTEX
  5
382F5
  8
0
 10
403.29646376162299
 20
542.23856776741104
 30
0.0
  0
VERTEX
  5
382F6
  8
0
 10
402.6869031828511
 20
542.35317810616425
 30
0.0
  0
VERTEX
  5
382F7
  8
0
 10
402.1044950112755
 20
542.40995268994845
 30
0.0
  0
VERTEX
  5
382F8
  8
0
 10
401.81441243995602
 20
542.41714282356861
 30
0.0
  0
SEQEND
  5
382F9
  8
0
  0
POLYLINE
  5
2C30B
  8
0
 66
     1
 10
0.0
 20
0.0
 30
0.0
  0
VERTEX
  5
382FA
  8
0
 10
410.8475385266521
 20
542.15772311415321
 30
0.0
  0
VERTEX
  5
382FB
  8
0
 10
410.19839073530761
 20
542.23856776741104
 30
0.0
  0
VERTEX
  5
382FC
  8
0
 10
408.97926957776389
 20
542.35317810616425
 30
0.0
  0
VERTEX
  5
382FD
  8
0
 10
407.81445323461259
 20
542.40995268994845
 30
0.0
  0
VERTEX
  5
382FE
  8
0
 10
407.23428809197372
 20
542.41714282356861
 30
0.0
  0
SEQEND
  5
382FF
  8
0
  0
POLYLINE
  5
2C30C
  8
0
 66
     1
 10
0.0
 20
0.0
 30
0.0
  0
VERTEX
  5
38300
  8
0
 10
412.65416374399121
 20
542.41714282356861
 30
0.0
  0
VERTEX
  5
38301
  8
0
 10
412.36408117267177
 20
542.40995268994845
 30
0.0
  0
VERTEX
  5
38302
  8
0
 10
411.78167300109618
 20
542.35317810616425
 30
0.0
  0
VERTEX
  5
38303
  8
0
 10
411.17211242232418
 20
542.23856776741104
 30
0.0
  0
VERTEX
  5
38304
  8
0
 10
410.8475385266521
 20
542.15772311415321
 30
0.0
  0
SEQEND
  5
38305
  8
0
  0
POLYLINE
  5
2C30D
  8
0
 66
     1
 10
0.0
 20
0.0
 30
0.0
  0
VERTEX
  5
38306
  8
0
 10
410.8475385266521
 20
537.17656253298401
 30
0.0
  0
VERTEX
  5
38307
  8
0
 10
411.17211242232418
 20
537.09571787972618
 30
0.0
  0
VERTEX
  5
38308
  8
0
 10
411.78167300109618
 20
536.98110754097286
 30
0.0
  0
VERTEX
  5
38309
  8
0
 10
412.36408117267177
 20
536.92433295718865
 30
0.0
  0
VERTEX
  5
3830A
  8
0
 10
412.65416374399121
 20
536.91714282356861
 30
0.0
  0
SEQEND
  5
3830B
  8
0
  0
POLYLINE
  5
2C30E
  8
0
 66
     1
 10
0.0
 20
0.0
 30
0.0
  0
VERTEX
  5
3830C
  8
0
 10
414.46078896133042
 20
542.15772311415321
 30
0.0
  0
VERTEX
  5
3830D
  8
0
 10
414.13621506565829
 20
542.23856776741104
 30
0.0
  0
VERTEX
  5
3830E
  8
0
 10
413.5266544868864
 20
542.35317810616425
 30
0.0
  0
VERTEX
  5
3830F
  8
0
 10
412.94424631531069
 20
542.40995268994845
 30
0.0
  0
VERTEX
  5
38310
  8
0
 10
412.65416374399121
 20
542.41714282356861
 30
0.0
  0
SEQEND
  5
38311
  8
0
  0
LINE
  5
2C312
  8
0
 10
401.41928809197361
 20
487.91714282356861
 30
0.0
 11
401.41928809197361
 21
487.3171428235687
 31
0.0
  0
LINE
  5
2C313
  8
0
 10
413.04928809197361
 20
487.3171428235687
 30
0.0
 11
413.04928809197361
 21
487.91714282356861
 31
0.0
  0
LINE
  5
2C314
  8
0
 10
403.23428809197372
 20
546.65014282356867
 30
0.0
 11
403.23428809197372
 21
544.9171428235685
 31
0.0
  0
LINE
  5
2C315
  8
0
 10
411.23428809197372
 20
544.9171428235685
 30
0.0
 11
411.23428809197372
 21
546.65014282356867
 31
0.0
  0
LINE
  5
2C316
  8
0
 10
404.00128809197372
 20
547.41714282356861
 30
0.0
 11
403.23428809197372
 21
546.65014282356867
 31
0.0
  0
LINE
  5
2C317
  8
0
 10
411.23428809197372
 20
546.65014282356867
 30
0.0
 11
410.46728809197373
 21
547.41714282356861
 31
0.0
  0
LINE
  5
2C318
  8
0
 10
413.49262142530688
 20
482.11714282356837
 30
0.0
 11
414.46078896133042
 21
482.37656253298422
 31
0.0
  0
LINE
  5
2C319
  8
0
 10
400.0077872226168
 20
482.37656253298422
 30
0.0
 11
400.97595475864028
 21
482.11714282356837
 31
0.0
  0
LINE
  5
2C31A
  8
0
 10
414.46078896133042
 20
487.0577231141533
 30
0.0
 11
413.49262142530688
 21
487.3171428235687
 31
0.0
  0
LINE
  5
2C31B
  8
0
 10
400.97595475864028
 20
487.3171428235687
 30
0.0
 11
400.0077872226168
 21
487.0577231141533
 31
0.0
  0
LINE
  5
2C31C
  8
0
 10
401.41928809197361
 20
544.9171428235685
 30
0.0
 11
401.41928809197361
 21
542.41714282356861
 31
0.0
  0
LINE
  5
2C31D
  8
0
 10
413.04928809197361
 20
542.41714282356861
 30
0.0
 11
413.04928809197361
 21
544.9171428235685
 31
0.0
  0
LINE
  5
2C31E
  8
0
 10
413.49262142530688
 20
536.91714282356861
 30
0.0
 11
414.46078896133042
 21
537.17656253298401
 31
0.0
  0
LINE
  5
2C31F
  8
0
 10
400.0077872226168
 20
537.17656253298401
 30
0.0
 11
400.97595475864028
 21
536.91714282356861
 31
0.0
  0
LINE
  5
2C320
  8
0
 10
414.46078896133042
 20
542.15772311415321
 30
0.0
 11
413.49262142530688
 21
542.41714282356861
 31
0.0
  0
LINE
  5
2C321
  8
0
 10
400.97595475864028
 20
542.41714282356861
 30
0.0
 11
400.0077872226168
 21
542.15772311415321
 31
0.0
  0
LINE
  5
2C322
  8
0
 10
411.23428809197372
 20
546.65014282356867
 30
0.0
 11
403.23428809197372
 21
546.65014282356867
 31
0.0
  0
LINE
  5
2C323
  8
0
 10
410.46728809197373
 20
547.41714282356861
 30
0.0
 11
404.00128809197372
 21
547.41714282356861
 31
0.0
  0
LINE
  5
2C324
  8
0
 10
413.49262142530688
 20
482.11714282356837
 30
0.0
 11
400.97595475864028
 21
482.11714282356837
 31
0.0
  0
LINE
  5
2C325
  8
0
 10
413.49262142530688
 20
487.3171428235687
 30
0.0
 11
400.97595475864028
 21
487.3171428235687
 31
0.0
  0
POLYLINE
  5
2C326
  8
0
 66
     1
 10
0.0
 20
0.0
 30
0.0
  0
VERTEX
  5
38312
  8
0
 10
403.62103765729518
 20
482.37656253298422
 30
0.0
  0
VERTEX
  5
38313
  8
0
 10
403.29646376162299
 20
482.295717879726
 30
0.0
  0
VERTEX
  5
38314
  8
0
 10
402.6869031828511
 20
482.18110754097268
 30
0.0
  0
VERTEX
  5
38315
  8
0
 10
402.1044950112755
 20
482.12433295718841
 30
0.0
  0
VERTEX
  5
38316
  8
0
 10
401.81441243995602
 20
482.11714282356837
 30
0.0
  0
SEQEND
  5
38317
  8
0
  0
POLYLINE
  5
2C327
  8
0
 66
     1
 10
0.0
 20
0.0
 30
0.0
  0
VERTEX
  5
38318
  8
0
 10
401.81441243995602
 20
482.11714282356837
 30
0.0
  0
VERTEX
  5
38319
  8
0
 10
401.52432986863658
 20
482.12433295718841
 30
0.0
  0
VERTEX
  5
3831A
  8
0
 10
400.94192169706088
 20
482.18110754097268
 30
0.0
  0
VERTEX
  5
3831B
  8
0
 10
400.33236111828899
 20
482.295717879726
 30
0.0
  0
VERTEX
  5
3831C
  8
0
 10
400.0077872226168
 20
482.37656253298422
 30
0.0
  0
SEQEND
  5
3831D
  8
0
  0
POLYLINE
  5
2C328
  8
0
 66
     1
 10
0.0
 20
0.0
 30
0.0
  0
VERTEX
  5
3831E
  8
0
 10
400.0077872226168
 20
487.0577231141533
 30
0.0
  0
VERTEX
  5
3831F
  8
0
 10
400.33236111828899
 20
487.13856776741108
 30
0.0
  0
VERTEX
  5
38320
  8
0
 10
400.94192169706088
 20
487.25317810616428
 30
0.0
  0
VERTEX
  5
38321
  8
0
 10
401.52432986863658
 20
487.3099526899486
 30
0.0
  0
VERTEX
  5
38322
  8
0
 10
401.81441243995602
 20
487.3171428235687
 30
0.0
  0
SEQEND
  5
38323
  8
0
  0
POLYLINE
  5
2C329
  8
0
 66
     1
 10
0.0
 20
0.0
 30
0.0
  0
VERTEX
  5
38324
  8
0
 10
401.81441243995602
 20
487.3171428235687
 30
0.0
  0
VERTEX
  5
38325
  8
0
 10
402.1044950112755
 20
487.3099526899486
 30
0.0
  0
VERTEX
  5
38326
  8
0
 10
402.6869031828511
 20
487.25317810616428
 30
0.0
  0
VERTEX
  5
38327
  8
0
 10
403.29646376162299
 20
487.13856776741108
 30
0.0
  0
VERTEX
  5
38328
  8
0
 10
403.62103765729518
 20
487.0577231141533
 30
0.0
  0
SEQEND
  5
38329
  8
0
  0
LINE
  5
2C32A
  8
0
 10
400.0077872226168
 20
482.37656253298422
 30
0.0
 11
400.0077872226168
 21
487.0577231141533
 31
0.0
  0
POLYLINE
  5
2C32B
  8
0
 66
     1
 10
0.0
 20
0.0
 30
0.0
  0
VERTEX
  5
3832A
  8
0
 10
412.65416374399121
 20
487.3171428235687
 30
0.0
  0
VERTEX
  5
3832B
  8
0
 10
412.94424631531069
 20
487.3099526899486
 30
0.0
  0
VERTEX
  5
3832C
  8
0
 10
413.5266544868864
 20
487.25317810616428
 30
0.0
  0
VERTEX
  5
3832D
  8
0
 10
414.13621506565829
 20
487.13856776741108
 30
0.0
  0
VERTEX
  5
3832E
  8
0
 10
414.46078896133042
 20
487.0577231141533
 30
0.0
  0
SEQEND
  5
3832F
  8
0
  0
POLYLINE
  5
2C32C
  8
0
 66
     1
 10
0.0
 20
0.0
 30
0.0
  0
VERTEX
  5
38330
  8
0
 10
414.46078896133042
 20
482.37656253298422
 30
0.0
  0
VERTEX
  5
38331
  8
0
 10
414.13621506565829
 20
482.295717879726
 30
0.0
  0
VERTEX
  5
38332
  8
0
 10
413.5266544868864
 20
482.18110754097268
 30
0.0
  0
VERTEX
  5
38333
  8
0
 10
412.94424631531069
 20
482.12433295718841
 30
0.0
  0
VERTEX
  5
38334
  8
0
 10
412.65416374399121
 20
482.11714282356837
 30
0.0
  0
SEQEND
  5
38335
  8
0
  0
POLYLINE
  5
2C32D
  8
0
 66
     1
 10
0.0
 20
0.0
 30
0.0
  0
VERTEX
  5
38336
  8
0
 10
412.65416374399121
 20
482.11714282356837
 30
0.0
  0
VERTEX
  5
38337
  8
0
 10
412.36408117267177
 20
482.12433295718841
 30
0.0
  0
VERTEX
  5
38338
  8
0
 10
411.78167300109612
 20
482.18110754097268
 30
0.0
  0
VERTEX
  5
38339
  8
0
 10
411.17211242232418
 20
482.295717879726
 30
0.0
  0
VERTEX
  5
3833A
  8
0
 10
410.8475385266521
 20
482.37656253298422
 30
0.0
  0
SEQEND
  5
3833B
  8
0
  0
POLYLINE
  5
2C32E
  8
0
 66
     1
 10
0.0
 20
0.0
 30
0.0
  0
VERTEX
  5
3833C
  8
0
 10
410.8475385266521
 20
487.0577231141533
 30
0.0
  0
VERTEX
  5
3833D
  8
0
 10
411.17211242232418
 20
487.13856776741108
 30
0.0
  0
VERTEX
  5
3833E
  8
0
 10
411.78167300109612
 20
487.25317810616428
 30
0.0
  0
VERTEX
  5
3833F
  8
0
 10
412.36408117267177
 20
487.3099526899486
 30
0.0
  0
VERTEX
  5
38340
  8
0
 10
412.65416374399121
 20
487.3171428235687
 30
0.0
  0
SEQEND
  5
38341
  8
0
  0
LINE
  5
2C32F
  8
0
 10
414.46078896133042
 20
482.37656253298422
 30
0.0
 11
414.46078896133042
 21
487.0577231141533
 31
0.0
  0
POLYLINE
  5
2C330
  8
0
 66
     1
 10
0.0
 20
0.0
 30
0.0
  0
VERTEX
  5
38342
  8
0
 10
407.23428809197372
 20
487.3171428235687
 30
0.0
  0
VERTEX
  5
38343
  8
0
 10
407.81445323461259
 20
487.3099526899486
 30
0.0
  0
VERTEX
  5
38344
  8
0
 10
408.97926957776389
 20
487.25317810616428
 30
0.0
  0
VERTEX
  5
38345
  8
0
 10
410.19839073530761
 20
487.13856776741108
 30
0.0
  0
VERTEX
  5
38346
  8
0
 10
410.8475385266521
 20
487.0577231141533
 30
0.0
  0
SEQEND
  5
38347
  8
0
  0
LINE
  5
2C331
  8
0
 10
410.8475385266521
 20
482.37656253298422
 30
0.0
 11
410.8475385266521
 21
487.0577231141533
 31
0.0
  0
POLYLINE
  5
2C332
  8
0
 66
     1
 10
0.0
 20
0.0
 30
0.0
  0
VERTEX
  5
38348
  8
0
 10
410.8475385266521
 20
482.37656253298422
 30
0.0
  0
VERTEX
  5
38349
  8
0
 10
410.19839073530761
 20
482.295717879726
 30
0.0
  0
VERTEX
  5
3834A
  8
0
 10
408.97926957776389
 20
482.18110754097268
 30
0.0
  0
VERTEX
  5
3834B
  8
0
 10
407.81445323461259
 20
482.12433295718841
 30
0.0
  0
VERTEX
  5
3834C
  8
0
 10
407.23428809197372
 20
482.11714282356837
 30
0.0
  0
SEQEND
  5
3834D
  8
0
  0
POLYLINE
  5
2C333
  8
0
 66
     1
 10
0.0
 20
0.0
 30
0.0
  0
VERTEX
  5
3834E
  8
0
 10
407.23428809197372
 20
482.11714282356837
 30
0.0
  0
VERTEX
  5
3834F
  8
0
 10
406.65412294933469
 20
482.12433295718841
 30
0.0
  0
VERTEX
  5
38350
  8
0
 10
405.48930660618339
 20
482.18110754097268
 30
0.0
  0
VERTEX
  5
38351
  8
0
 10
404.27018544863961
 20
482.295717879726
 30
0.0
  0
VERTEX
  5
38352
  8
0
 10
403.62103765729518
 20
482.37656253298422
 30
0.0
  0
SEQEND
  5
38353
  8
0
  0
LINE
  5
2C334
  8
0
 10
403.62103765729518
 20
482.37656253298422
 30
0.0
 11
403.62103765729518
 21
487.0577231141533
 31
0.0
  0
POLYLINE
  5
2C335
  8
0
 66
     1
 10
0.0
 20
0.0
 30
0.0
  0
VERTEX
  5
38354
  8
0
 10
403.62103765729518
 20
487.0577231141533
 30
0.0
  0
VERTEX
  5
38355
  8
0
 10
404.27018544863961
 20
487.13856776741108
 30
0.0
  0
VERTEX
  5
38356
  8
0
 10
405.48930660618339
 20
487.25317810616428
 30
0.0
  0
VERTEX
  5
38357
  8
0
 10
406.65412294933469
 20
487.3099526899486
 30
0.0
  0
VERTEX
  5
38358
  8
0
 10
407.23428809197372
 20
487.3171428235687
 30
0.0
  0
SEQEND
  5
38359
  8
0
  0
LINE
  5
2C336
  8
0
 10
413.04928809197361
 20
544.9171428235685
 30
0.0
 11
401.41928809197361
 21
544.9171428235685
 31
0.0
  0
LINE
  5
2C337
  8
0
 10
413.49262142530688
 20
542.41714282356861
 30
0.0
 11
400.97595475864028
 21
542.41714282356861
 31
0.0
  0
POLYLINE
  5
2C338
  8
0
 66
     1
 10
0.0
 20
0.0
 30
0.0
  0
VERTEX
  5
3835A
  8
0
 10
403.62103765729518
 20
537.17656253298401
 30
0.0
  0
VERTEX
  5
3835B
  8
0
 10
403.29646376162299
 20
537.09571787972618
 30
0.0
  0
VERTEX
  5
3835C
  8
0
 10
402.6869031828511
 20
536.98110754097286
 30
0.0
  0
VERTEX
  5
3835D
  8
0
 10
402.1044950112755
 20
536.92433295718865
 30
0.0
  0
VERTEX
  5
3835E
  8
0
 10
401.81441243995602
 20
536.91714282356861
 30
0.0
  0
SEQEND
  5
3835F
  8
0
  0
POLYLINE
  5
2C339
  8
0
 66
     1
 10
0.0
 20
0.0
 30
0.0
  0
VERTEX
  5
38360
  8
0
 10
401.81441243995602
 20
536.91714282356861
 30
0.0
  0
VERTEX
  5
38361
  8
0
 10
401.52432986863658
 20
536.92433295718865
 30
0.0
  0
VERTEX
  5
38362
  8
0
 10
400.94192169706088
 20
536.98110754097286
 30
0.0
  0
VERTEX
  5
38363
  8
0
 10
400.33236111828899
 20
537.09571787972618
 30
0.0
  0
VERTEX
  5
38364
  8
0
 10
400.0077872226168
 20
537.17656253298401
 30
0.0
  0
SEQEND
  5
38365
  8
0
  0
POLYLINE
  5
2C33A
  8
0
 66
     1
 10
0.0
 20
0.0
 30
0.0
  0
VERTEX
  5
38366
  8
0
 10
400.0077872226168
 20
542.15772311415321
 30
0.0
  0
VERTEX
  5
38367
  8
0
 10
400.33236111828899
 20
542.23856776741104
 30
0.0
  0
VERTEX
  5
38368
  8
0
 10
400.94192169706088
 20
542.35317810616425
 30
0.0
  0
VERTEX
  5
38369
  8
0
 10
401.52432986863658
 20
542.40995268994845
 30
0.0
  0
VERTEX
  5
3836A
  8
0
 10
401.81441243995602
 20
542.41714282356861
 30
0.0
  0
SEQEND
  5
3836B
  8
0
  0
POLYLINE
  5
2C33B
  8
0
 66
     1
 10
0.0
 20
0.0
 30
0.0
  0
VERTEX
  5
3836C
  8
0
 10
401.81441243995602
 20
542.41714282356861
 30
0.0
  0
VERTEX
  5
3836D
  8
0
 10
402.1044950112755
 20
542.40995268994845
 30
0.0
  0
VERTEX
  5
3836E
  8
0
 10
402.6869031828511
 20
542.35317810616425
 30
0.0
  0
VERTEX
  5
3836F
  8
0
 10
403.29646376162299
 20
542.23856776741104
 30
0.0
  0
VERTEX
  5
38370
  8
0
 10
403.62103765729518
 20
542.15772311415321
 30
0.0
  0
SEQEND
  5
38371
  8
0
  0
LINE
  5
2C33C
  8
0
 10
400.0077872226168
 20
537.17656253298401
 30
0.0
 11
400.0077872226168
 21
542.15772311415321
 31
0.0
  0
POLYLINE
  5
2C33D
  8
0
 66
     1
 10
0.0
 20
0.0
 30
0.0
  0
VERTEX
  5
38372
  8
0
 10
412.65416374399121
 20
542.41714282356861
 30
0.0
  0
VERTEX
  5
38373
  8
0
 10
412.94424631531069
 20
542.40995268994845
 30
0.0
  0
VERTEX
  5
38374
  8
0
 10
413.5266544868864
 20
542.35317810616425
 30
0.0
  0
VERTEX
  5
38375
  8
0
 10
414.13621506565829
 20
542.23856776741104
 30
0.0
  0
VERTEX
  5
38376
  8
0
 10
414.46078896133042
 20
542.15772311415321
 30
0.0
  0
SEQEND
  5
38377
  8
0
  0
POLYLINE
  5
2C33E
  8
0
 66
     1
 10
0.0
 20
0.0
 30
0.0
  0
VERTEX
  5
38378
  8
0
 10
414.46078896133042
 20
537.17656253298401
 30
0.0
  0
VERTEX
  5
38379
  8
0
 10
414.13621506565829
 20
537.09571787972618
 30
0.0
  0
VERTEX
  5
3837A
  8
0
 10
413.5266544868864
 20
536.98110754097286
 30
0.0
  0
VERTEX
  5
3837B
  8
0
 10
412.94424631531069
 20
536.92433295718865
 30
0.0
  0
VERTEX
  5
3837C
  8
0
 10
412.65416374399121
 20
536.91714282356861
 30
0.0
  0
SEQEND
  5
3837D
  8
0
  0
POLYLINE
  5
2C33F
  8
0
 66
     1
 10
0.0
 20
0.0
 30
0.0
  0
VERTEX
  5
3837E
  8
0
 10
412.65416374399121
 20
536.91714282356861
 30
0.0
  0
VERTEX
  5
3837F
  8
0
 10
412.36408117267177
 20
536.92433295718865
 30
0.0
  0
VERTEX
  5
38380
  8
0
 10
411.78167300109618
 20
536.98110754097286
 30
0.0
  0
VERTEX
  5
38381
  8
0
 10
411.17211242232418
 20
537.09571787972618
 30
0.0
  0
VERTEX
  5
38382
  8
0
 10
410.8475385266521
 20
537.17656253298401
 30
0.0
  0
SEQEND
  5
38383
  8
0
  0
POLYLINE
  5
2C340
  8
0
 66
     1
 10
0.0
 20
0.0
 30
0.0
  0
VERTEX
  5
38384
  8
0
 10
410.8475385266521
 20
542.15772311415321
 30
0.0
  0
VERTEX
  5
38385
  8
0
 10
411.17211242232418
 20
542.23856776741104
 30
0.0
  0
VERTEX
  5
38386
  8
0
 10
411.78167300109618
 20
542.35317810616425
 30
0.0
  0
VERTEX
  5
38387
  8
0
 10
412.36408117267177
 20
542.40995268994845
 30
0.0
  0
VERTEX
  5
38388
  8
0
 10
412.65416374399121
 20
542.41714282356861
 30
0.0
  0
SEQEND
  5
38389
  8
0
  0
LINE
  5
2C341
  8
0
 10
414.46078896133042
 20
537.17656253298401
 30
0.0
 11
414.46078896133042
 21
542.15772311415321
 31
0.0
  0
POLYLINE
  5
2C342
  8
0
 66
     1
 10
0.0
 20
0.0
 30
0.0
  0
VERTEX
  5
3838A
  8
0
 10
407.23428809197372
 20
542.41714282356861
 30
0.0
  0
VERTEX
  5
3838B
  8
0
 10
407.81445323461259
 20
542.40995268994845
 30
0.0
  0
VERTEX
  5
3838C
  8
0
 10
408.97926957776389
 20
542.35317810616425
 30
0.0
  0
VERTEX
  5
3838D
  8
0
 10
410.19839073530761
 20
542.23856776741104
 30
0.0
  0
VERTEX
  5
3838E
  8
0
 10
410.8475385266521
 20
542.15772311415321
 30
0.0
  0
SEQEND
  5
3838F
  8
0
  0
LINE
  5
2C343
  8
0
 10
410.8475385266521
 20
537.17656253298401
 30
0.0
 11
410.8475385266521
 21
542.15772311415321
 31
0.0
  0
POLYLINE
  5
2C344
  8
0
 66
     1
 10
0.0
 20
0.0
 30
0.0
  0
VERTEX
  5
38390
  8
0
 10
410.8475385266521
 20
537.17656253298401
 30
0.0
  0
VERTEX
  5
38391
  8
0
 10
410.19839073530761
 20
537.09571787972618
 30
0.0
  0
VERTEX
  5
38392
  8
0
 10
408.97926957776389
 20
536.98110754097286
 30
0.0
  0
VERTEX
  5
38393
  8
0
 10
407.81445323461259
 20
536.92433295718865
 30
0.0
  0
VERTEX
  5
38394
  8
0
 10
407.23428809197372
 20
536.91714282356861
 30
0.0
  0
SEQEND
  5
38395
  8
0
  0
POLYLINE
  5
2C345
  8
0
 66
     1
 10
0.0
 20
0.0
 30
0.0
  0
VERTEX
  5
38396
  8
0
 10
407.23428809197372
 20
536.91714282356861
 30
0.0
  0
VERTEX
  5
38397
  8
0
 10
406.65412294933458
 20
536.92433295718865
 30
0.0
  0
VERTEX
  5
38398
  8
0
 10
405.48930660618339
 20
536.98110754097286
 30
0.0
  0
VERTEX
  5
38399
  8
0
 10
404.27018544863961
 20
537.09571787972618
 30
0.0
  0
VERTEX
  5
3839A
  8
0
 10
403.62103765729518
 20
537.17656253298401
 30
0.0
  0
SEQEND
  5
3839B
  8
0
  0
LINE
  5
2C346
  8
0
 10
403.62103765729518
 20
537.17656253298401
 30
0.0
 11
403.62103765729518
 21
542.15772311415321
 31
0.0
  0
POLYLINE
  5
2C347
  8
0
 66
     1
 10
0.0
 20
0.0
 30
0.0
  0
VERTEX
  5
3839C
  8
0
 10
403.62103765729518
 20
542.15772311415321
 30
0.0
  0
VERTEX
  5
3839D
  8
0
 10
404.27018544863961
 20
542.23856776741104
 30
0.0
  0
VERTEX
  5
3839E
  8
0
 10
405.48930660618339
 20
542.35317810616425
 30
0.0
  0
VERTEX
  5
3839F
  8
0
 10
406.65412294933458
 20
542.40995268994845
 30
0.0
  0
VERTEX
  5
383A0
  8
0
 10
407.23428809197372
 20
542.41714282356861
 30
0.0
  0
SEQEND
  5
383A1
  8
0
  0
LINE
  5
2C386
  8
0
 10
400.73428809197361
 20
536.91841941857956
 30
0.0
 11
400.9332172644128
 21
536.91714282356861
 31
0.0
  0
LINE
  5
2C387
  8
0
 10
413.53535891953447
 20
536.91714282356861
 30
0.0
 11
413.73428809197361
 21
536.91841941857956
 31
0.0
  0
LINE
  5
2C389
  8
0
 10
413.73428809197361
 20
487.9158662285576
 30
0.0
 11
413.53535891953447
 21
487.91714282356861
 31
0.0
  0
LINE
  5
2C38A
  8
0
 10
400.9332172644128
 20
487.91714282356861
 30
0.0
 11
400.73428809197361
 21
487.9158662285576
 31
0.0
  0
ARC
  5
2C38B
  8
0
 10
431.23428809197361
 20
518.91714282356861
 30
0.0
 40
6.9999999999999973
 50
6.4562973208734578
 51
83.543702679144815
  0
ARC
  5
2C38C
  8
0
 10
383.23428809197372
 20
505.91714282356861
 30
0.0
 40
7.0000000000000151
 50
186.4562973208734
 51
263.54370267914152
  0
LINE
  5
2C38D
  8
0
 10
438.18989348318479
 20
519.70426012216728
 30
0.0
 11
438.18989348318479
 21
505.13002552496982
 31
0.0
  0
LINE
  5
2C390
  8
0
 10
376.27868270076237
 20
519.70426012216728
 30
0.0
 11
376.27868270076237
 21
505.13002552496982
 31
0.0
  0
ARC
  5
2C391
  8
0
 10
431.23428809197361
 20
505.91714282356861
 30
0.0
 40
7.0000000000000009
 50
276.45629732085843
 51
353.54370267915277
  0
ARC
  5
2C396
  8
0
 10
383.23428809197372
 20
518.91714282356861
 30
0.0
 40
7.0000000000000178
 50
96.456297320858425
 51
173.54370267912651
  0
LINE
  5
2C39B
  8
0
 10
382.44717079337511
 20
498.96153743235749
 30
0.0
 11
432.02140539057223
 21
498.96153743235749
 31
0.0
  0
LINE
  5
2C3A2
  8
0
 10
382.44717079337511
 20
525.87274821477956
 30
0.0
 11
432.02140539057223
 21
525.87274821477956
 31
0.0
  0
LINE
  5
2C3A3
  8
1
 10
442.5092880919737
 20
482.4171428235685
 30
0.0
 11
451.95928809197369
 21
482.4171428235685
 31
0.0
  0
LINE
  5
2C3A4
  8
1
 10
447.23428809197361
 20
477.6921428235687
 30
0.0
 11
447.23428809197361
 21
487.14214282356841
 31
0.0
  0
LINE
  5
2C3A5
  8
1
 10
440.00928809197359
 20
489.9171428235685
 30
0.0
 11
449.45928809197369
 21
489.9171428235685
 31
0.0
  0
LINE
  5
2C3A6
  8
1
 10
444.73428809197372
 20
485.19214282356859
 30
0.0
 11
444.73428809197372
 21
494.64214282356852
 31
0.0
  0
LINE
  5
2C3A7
  8
1
 10
442.50928809197359
 20
542.41714282356861
 30
0.0
 11
451.95928809197369
 21
542.41714282356861
 31
0.0
  0
LINE
  5
2C3A8
  8
1
 10
447.23428809197361
 20
537.6921428235687
 30
0.0
 11
447.23428809197361
 21
547.14214282356852
 31
0.0
  0
LINE
  5
2C3A9
  8
1
 10
440.00928809197359
 20
534.91714282356861
 30
0.0
 11
449.45928809197369
 21
534.91714282356861
 31
0.0
  0
LINE
  5
2C3AA
  8
1
 10
444.73428809197372
 20
530.1921428235687
 30
0.0
 11
444.73428809197372
 21
539.64214282356852
 31
0.0
  0
LINE
  5
2C3AB
  8
1
 10
365.0092880919737
 20
489.9171428235685
 30
0.0
 11
374.45928809197369
 21
489.9171428235685
 31
0.0
  0
LINE
  5
2C3AC
  8
1
 10
369.73428809197372
 20
485.19214282356859
 30
0.0
 11
369.73428809197372
 21
494.64214282356852
 31
0.0
  0
LINE
  5
2C3AD
  8
1
 10
362.5092880919737
 20
482.4171428235685
 30
0.0
 11
371.95928809197369
 21
482.4171428235685
 31
0.0
  0
LINE
  5
2C3AE
  8
1
 10
367.23428809197372
 20
477.6921428235687
 30
0.0
 11
367.23428809197372
 21
487.14214282356841
 31
0.0
  0
LINE
  5
2C3AF
  8
1
 10
365.0092880919737
 20
534.91714282356861
 30
0.0
 11
374.45928809197369
 21
534.91714282356861
 31
0.0
  0
LINE
  5
2C3B0
  8
1
 10
369.73428809197372
 20
530.1921428235687
 30
0.0
 11
369.73428809197372
 21
539.64214282356852
 31
0.0
  0
LINE
  5
2C3B1
  8
1
 10
362.5092880919737
 20
542.41714282356861
 30
0.0
 11
371.95928809197358
 21
542.41714282356861
 31
0.0
  0
LINE
  5
2C3B2
  8
1
 10
367.23428809197372
 20
537.6921428235687
 30
0.0
 11
367.23428809197372
 21
547.14214282356852
 31
0.0
  0
LINE
  5
2C3B4
  8
0
 10
382.23428809197372
 20
503.7774401413098
 30
0.0
 11
432.23428809197372
 21
503.7774401413098
 31
0.0
  0
LINE
  5
2C3B5
  8
0
 10
382.23428809197372
 20
521.05684550582737
 30
0.0
 11
432.23428809197372
 21
521.05684550582737
 31
0.0
  0
LINE
  5
2C3B8
  8
0
 10
380.59458540971491
 20
519.4171428235685
 30
0.0
 11
380.59458540971491
 21
505.41714282356861
 31
0.0
  0
LINE
  5
2C3B9
  8
0
 10
433.87399077423242
 20
519.4171428235685
 30
0.0
 11
433.87399077423242
 21
505.41714282356861
 31
0.0
  0
ARC
  5
2C3BC
  8
0
 10
432.23428809197372
 20
505.41714282356861
 30
0.0
 40
1.6397026822587399
 50
270.0
 51
0.0
  0
LINE
  5
2C3BF
  8
0
 10
375.81848055466412
 20
554.91714282356861
 30
0.0
 11
361.92339895951829
 21
554.91714282356861
 31
0.0
  0
ARC
  5
2C3C0
  8
0
 10
375.81848055466412
 20
544.9171428235685
 30
0.0
 40
10.00000000000003
 50
30.00000000000021
 51
90.0
  0
LINE
  5
2C3C1
  8
0
 10
387.50982350575413
 20
544.66714282356861
 30
0.0
 11
384.4787345925086
 21
549.91714282356861
 31
0.0
  0
ARC
  5
2C3C2
  8
0
 10
400.9332172644128
 20
552.4171428235685
 30
0.0
 40
15.5
 50
210.0000000000002
 51
270.0
  0
LINE
  5
2C3C3
  8
0
 10
413.53535891953447
 20
536.91714282356861
 30
0.0
 11
400.9332172644128
 21
536.91714282356861
 31
0.0
  0
ARC
  5
2C3C4
  8
0
 10
413.53535891953447
 20
552.4171428235685
 30
0.0
 40
15.49999999999998
 50
270.0
 51
329.99999999999977
  0
LINE
  5
2C3C5
  8
0
 10
429.98984159143879
 20
549.91714282356861
 30
0.0
 11
426.95875267819321
 21
544.66714282356861
 31
0.0
  0
ARC
  5
2C3C6
  8
0
 10
438.65009562928321
 20
544.9171428235685
 30
0.0
 40
10.000000000000011
 50
90.0
 51
149.9999999999998
  0
LINE
  5
2C3C7
  8
0
 10
452.54517722442898
 20
554.91714282356861
 30
0.0
 11
438.65009562928321
 21
554.91714282356861
 31
0.0
  0
LINE
  5
2C3C8
  8
0
 10
457.23428809197372
 20
537.41714282356861
 30
0.0
 11
452.54517722442898
 21
554.91714282356861
 31
0.0
  0
LINE
  5
2C3C9
  8
0
 10
457.23428809197372
 20
487.41714282356861
 30
0.0
 11
457.23428809197372
 21
537.41714282356861
 31
0.0
  0
LINE
  5
2C3CA
  8
0
 10
452.54517722442898
 20
469.9171428235685
 30
0.0
 11
457.23428809197372
 21
487.41714282356861
 31
0.0
  0
LINE
  5
2C3CB
  8
0
 10
438.65009562928321
 20
469.9171428235685
 30
0.0
 11
452.54517722442898
 21
469.9171428235685
 31
0.0
  0
ARC
  5
2C3CC
  8
0
 10
438.65009562928321
 20
479.91714282356861
 30
0.0
 40
10.00000000000005
 50
210.0000000000002
 51
270.0
  0
LINE
  5
2C3CD
  8
0
 10
426.95875267819321
 20
480.1671428235685
 30
0.0
 11
429.98984159143879
 21
474.91714282356861
 31
0.0
  0
ARC
  5
2C3CE
  8
0
 10
413.53535891953447
 20
472.41714282356861
 30
0.0
 40
15.49999999999998
 50
30.00000000000021
 51
90.0
  0
LINE
  5
2C3CF
  8
0
 10
400.9332172644128
 20
487.91714282356861
 30
0.0
 11
413.53535891953447
 21
487.91714282356861
 31
0.0
  0
ARC
  5
2C3D0
  8
0
 10
400.9332172644128
 20
472.41714282356861
 30
0.0
 40
15.49999999999998
 50
90.0
 51
149.9999999999998
  0
LINE
  5
2C3D1
  8
0
 10
384.4787345925086
 20
474.91714282356861
 30
0.0
 11
387.50982350575413
 21
480.1671428235685
 31
0.0
  0
ARC
  5
2C3D2
  8
0
 10
375.81848055466412
 20
479.91714282356861
 30
0.0
 40
10.000000000000011
 50
270.0
 51
329.99999999999977
  0
LINE
  5
2C3D3
  8
0
 10
361.92339895951829
 20
469.9171428235685
 30
0.0
 11
375.81848055466412
 21
469.9171428235685
 31
0.0
  0
LINE
  5
2C3D4
  8
0
 10
357.23428809197372
 20
487.41714282356861
 30
0.0
 11
361.92339895951829
 21
469.9171428235685
 31
0.0
  0
LINE
  5
2C3D5
  8
0
 10
357.23428809197372
 20
537.41714282356861
 30
0.0
 11
357.23428809197372
 21
487.41714282356861
 31
0.0
  0
LINE
  5
2C3D6
  8
0
 10
361.92339895951829
 20
554.91714282356861
 30
0.0
 11
357.23428809197372
 21
537.41714282356861
 31
0.0
  0
ARC
  5
2C3D7
  8
0
 10
447.23428809197361
 20
482.4171428235685
 30
0.0
 40
4.4999999999999876
 50
198.43494882291429
 51
18.434948822914318
  0
LINE
  5
2C3D8
  8
0
 10
451.50336293320089
 20
483.8401677706442
 30
0.0
 11
449.003362933201
 21
491.3401677706442
 31
0.0
  0
ARC
  5
2C3D9
  8
0
 10
444.73428809197372
 20
489.9171428235685
 30
0.0
 40
4.4999999999999938
 50
18.434948822914318
 51
198.43494882291429
  0
LINE
  5
2C3DA
  8
0
 10
440.46521325074639
 20
488.49411787649291
 30
0.0
 11
442.96521325074627
 21
480.99411787649291
 31
0.0
  0
ARC
  5
2C3DB
  8
0
 10
447.23428809197361
 20
542.41714282356861
 30
0.0
 40
4.5000000000000018
 50
341.56505117708571
 51
161.56505117708571
  0
LINE
  5
2C3DC
  8
0
 10
442.96521325074627
 20
543.84016777064414
 30
0.0
 11
440.46521325074639
 21
536.34016777064414
 31
0.0
  0
ARC
  5
2C3DD
  8
0
 10
444.73428809197372
 20
534.91714282356861
 30
0.0
 40
4.5000000000000018
 50
161.56505117708571
 51
341.56505117708571
  0
LINE
  5
2C3DE
  8
0
 10
449.003362933201
 20
533.49411787649285
 30
0.0
 11
451.503362933201
 21
540.99411787649285
 31
0.0
  0
ARC
  5
2C3DF
  8
0
 10
369.73428809197372
 20
489.9171428235685
 30
0.0
 40
4.4999999999999956
 50
341.56505117708571
 51
161.56505117708571
  0
LINE
  5
2C3E0
  8
0
 10
365.46521325074639
 20
491.3401677706442
 30
0.0
 11
362.96521325074639
 21
483.8401677706442
 31
0.0
  0
ARC
  5
2C3E1
  8
0
 10
367.23428809197372
 20
482.4171428235685
 30
0.0
 40
4.4999999999999938
 50
161.56505117708571
 51
341.56505117708571
  0
LINE
  5
2C3E2
  8
0
 10
371.503362933201
 20
480.99411787649291
 30
0.0
 11
374.003362933201
 21
488.49411787649291
 31
0.0
  0
ARC
  5
2C3E3
  8
0
 10
369.73428809197372
 20
534.91714282356861
 30
0.0
 40
4.5000000000000018
 50
198.43494882291429
 51
18.434948822914318
  0
LINE
  5
2C3E4
  8
0
 10
374.003362933201
 20
536.34016777064414
 30
0.0
 11
371.503362933201
 21
543.84016777064414
 31
0.0
  0
ARC
  5
2C3E5
  8
0
 10
367.23428809197372
 20
542.41714282356861
 30
0.0
 40
4.5000000000000027
 50
18.434948822914318
 51
198.43494882291429
  0
LINE
  5
2C3E6
  8
0
 10
362.96521325074627
 20
540.99411787649285
 30
0.0
 11
365.46521325074627
 21
533.49411787649285
 31
0.0
  0
ARC
  5
2C3EC
  8
0
 10
432.23428809197372
 20
519.4171428235685
 30
0.0
 40
1.6397026822587499
 50
0.0
 51
90.0
  0
ARC
  5
2C3F9
  8
0
 10
382.23428809197372
 20
505.41714282356861
 30
0.0
 40
1.6397026822587391
 50
180.0
 51
270.0
  0
ARC
  5
2C3FF
  8
0
 10
382.23428809197372
 20
519.4171428235685
 30
0.0
 40
1.639702682258747
 50
90.0
 51
180.0
  0
LINE
  5
2C454
  8
0
 10
332.23428809197372
 20
514.9171428235685
 30
0.0
 11
332.23428809197372
 21
509.91714282356861
 31
0.0
  0
LINE
  5
2C455
  8
0
 10
482.23428809197372
 20
509.91714282356861
 30
0.0
 11
482.23428809197372
 21
514.9171428235685
 31
0.0
  0
ARC
  5
2C456
  8
0
 10
481.98428809197361
 20
514.9171428235685
 30
0.0
 40
0.25
 50
0.0
 51
90.0
  0
ARC
  5
2C457
  8
0
 10
332.48428809197372
 20
514.9171428235685
 30
0.0
 40
0.2499999999999951
 50
90.0
 51
180.0
  0
LINE
  5
2C458
  8
0
 10
332.48428809197372
 20
517.1671428235685
 30
0.0
 11
332.48428809197372
 21
515.16714282356861
 31
0.0
  0
LINE
  5
2C459
  8
0
 10
481.98428809197361
 20
515.16714282356861
 30
0.0
 11
481.98428809197361
 21
517.1671428235685
 31
0.0
  0
ARC
  5
2C45A
  8
0
 10
481.98428809197361
 20
517.41714282356861
 30
0.0
 40
0.2499999999999982
 50
270.0
 51
0.0
  0
ARC
  5
2C45B
  8
0
 10
332.48428809197372
 20
517.41714282356861
 30
0.0
 40
0.25
 50
180.0
 51
270.0
  0
LINE
  5
2C45C
  8
0
 10
332.23428809197372
 20
521.49290353496463
 30
0.0
 11
332.23428809197372
 21
517.41714282356861
 31
0.0
  0
LINE
  5
2C45D
  8
0
 10
482.23428809197372
 20
517.41714282356861
 30
0.0
 11
482.23428809197372
 21
521.49290353496463
 31
0.0
  0
ARC
  5
2C45E
  8
0
 10
481.4009547586403
 20
521.49290353496463
 30
0.0
 40
0.8333333333333001
 50
0.0
 51
70.999999999996533
  0
ARC
  5
2C45F
  8
0
 10
333.06762142530698
 20
521.49290353496463
 30
0.0
 40
0.8333333333332962
 50
109.0000000000034
 51
180.0
  0
LINE
  5
2C460
  8
0
 10
339.0941618880654
 20
524.44935839655545
 30
0.0
 11
332.79631462992597
 21
522.28083568129705
 31
0.0
  0
LINE
  5
2C461
  8
0
 10
481.67226155402119
 20
522.28083568129705
 30
0.0
 11
475.37441429588188
 21
524.44935839655545
 31
0.0
  0
ARC
  5
2C462
  8
0
 10
474.56049390973891
 20
522.08556195755671
 30
0.0
 40
2.5000000000003242
 50
70.999999999996533
 51
90.0
  0
ARC
  5
2C463
  8
0
 10
339.90808227420843
 20
522.08556195755671
 30
0.0
 40
2.5000000000003122
 50
90.0
 51
109.0000000000034
  0
ARC
  5
2C464
  8
0
 10
473.04270984732528
 20
525.25222862422368
 30
0.0
 40
0.6666666666666661
 50
270.0
 51
90.0
  0
ARC
  5
2C465
  8
0
 10
341.42586633662199
 20
525.25222862422368
 30
0.0
 40
0.6666666666666661
 50
90.0
 51
270.0
  0
ARC
  5
2C466
  8
0
 10
469.1704286770908
 20
526.58556195755671
 30
0.0
 40
0.6666666666666661
 50
270.0
 51
90.0
  0
ARC
  5
2C467
  8
0
 10
345.29814750685648
 20
526.58556195755671
 30
0.0
 40
0.6666666666666661
 50
90.0
 51
270.0
  0
LINE
  5
2C468
  8
0
 10
357.23428809197372
 20
530.69550475712049
 30
0.0
 11
347.23428809197361
 21
527.25222862422379
 31
0.0
  0
LINE
  5
2C469
  8
0
 10
467.23428809197361
 20
527.25222862422379
 30
0.0
 11
457.23428809197372
 21
530.69550475712049
 31
0.0
  0
LINE
  5
2C46A
  8
0
 10
347.23428809197361
 20
497.58205702291338
 30
0.0
 11
357.23428809197372
 21
494.13878089001668
 31
0.0
  0
LINE
  5
2C46B
  8
0
 10
457.23428809197372
 20
494.13878089001668
 30
0.0
 11
467.23428809197361
 21
497.58205702291338
 31
0.0
  0
ARC
  5
2C46C
  8
0
 10
469.1704286770908
 20
498.2487236895804
 30
0.0
 40
0.6666666666666661
 50
270.0
 51
90.0
  0
ARC
  5
2C46D
  8
0
 10
345.29814750685642
 20
498.2487236895804
 30
0.0
 40
0.6666666666666661
 50
90.0
 51
270.0
  0
ARC
  5
2C46E
  8
0
 10
473.04270984732528
 20
499.58205702291338
 30
0.0
 40
0.6666666666666679
 50
270.0
 51
90.0
  0
ARC
  5
2C46F
  8
0
 10
341.42586633662199
 20
499.58205702291338
 30
0.0
 40
0.6666666666666679
 50
90.0
 51
270.0
  0
ARC
  5
2C470
  8
0
 10
474.56049390973891
 20
502.7487236895808
 30
0.0
 40
2.5000000000004441
 50
270.0
 51
289.00000000000341
  0
ARC
  5
2C471
  8
0
 10
339.90808227420843
 20
502.7487236895804
 30
0.0
 40
2.5000000000002811
 50
250.9999999999965
 51
270.0
  0
LINE
  5
2C472
  8
0
 10
332.79631462992597
 20
502.55344996584017
 30
0.0
 11
339.0941618880654
 21
500.38492725058171
 31
0.0
  0
LINE
  5
2C473
  8
0
 10
475.37441429588188
 20
500.38492725058171
 30
0.0
 11
481.67226155402119
 21
502.55344996584017
 31
0.0
  0
ARC
  5
2C474
  8
0
 10
481.4009547586403
 20
503.34138211217248
 30
0.0
 40
0.8333333333333436
 50
289.00000000000642
 51
0.0
  0
ARC
  5
2C475
  8
0
 10
333.06762142530698
 20
503.34138211217248
 30
0.0
 40
0.8333333333333428
 50
180.0
 51
250.99999999999361
  0
LINE
  5
2C476
  8
0
 10
332.23428809197372
 20
507.4171428235685
 30
0.0
 11
332.23428809197372
 21
503.34138211217248
 31
0.0
  0
LINE
  5
2C477
  8
0
 10
482.23428809197372
 20
503.34138211217248
 30
0.0
 11
482.23428809197372
 21
507.4171428235685
 31
0.0
  0
ARC
  5
2C478
  8
0
 10
481.98428809197361
 20
507.4171428235685
 30
0.0
 40
0.25
 50
0.0
 51
90.0
  0
ARC
  5
2C479
  8
0
 10
332.48428809197372
 20
507.4171428235685
 30
0.0
 40
0.2499999999999947
 50
90.0
 51
180.0
  0
LINE
  5
2C47A
  8
0
 10
332.48428809197372
 20
509.66714282356861
 30
0.0
 11
332.48428809197372
 21
507.66714282356861
 31
0.0
  0
LINE
  5
2C47B
  8
0
 10
481.98428809197361
 20
507.66714282356861
 30
0.0
 11
481.98428809197361
 21
509.66714282356861
 31
0.0
  0
ARC
  5
2C47C
  8
0
 10
481.98428809197361
 20
509.91714282356861
 30
0.0
 40
0.2499999999999978
 50
270.0
 51
0.0
  0
ARC
  5
2C47D
  8
0
 10
332.48428809197372
 20
509.91714282356861
 30
0.0
 40
0.25
 50
180.0
 51
270.0
  0
LINE
  5
2C480
  8
0
 10
481.98428809197361
 20
515.16714282356861
 30
0.0
 11
457.23425861408612
 21
515.16714282356861
 31
0.0
  0
LINE
  5
2C481
  8
0
 10
357.2343175698611
 20
515.16714282356861
 30
0.0
 11
332.48428809197372
 21
515.16714282356861
 31
0.0
  0
LINE
  5
2C482
  8
0
 10
481.98428809197361
 20
517.1671428235685
 30
0.0
 11
457.23425861408612
 21
517.1671428235685
 31
0.0
  0
LINE
  5
2C483
  8
0
 10
357.2343175698611
 20
517.1671428235685
 30
0.0
 11
332.48428809197372
 21
517.1671428235685
 31
0.0
  0
LINE
  5
2C48C
  8
0
 10
474.56049390973891
 20
524.58556195755682
 30
0.0
 11
457.2940744836028
 21
524.58556195755682
 31
0.0
  0
LINE
  5
2C48D
  8
0
 10
357.17450170034448
 20
524.58556195755682
 30
0.0
 11
339.90808227420843
 21
524.58556195755682
 31
0.0
  0
LINE
  5
2C48E
  8
0
 10
473.04270984732528
 20
525.91889529089019
 30
0.0
 11
457.27231378571338
 21
525.91889529089019
 31
0.0
  0
LINE
  5
2C48F
  8
0
 10
357.19626239823401
 20
525.91889529089019
 30
0.0
 11
341.42586633662199
 21
525.91889529089019
 31
0.0
  0
LINE
  5
2C490
  8
0
 10
469.1704286770908
 20
527.25222862422379
 30
0.0
 11
457.29254883921323
 21
527.25222862422379
 31
0.0
  0
LINE
  5
2C491
  8
0
 10
357.17602734473411
 20
527.25222862422379
 30
0.0
 11
345.29814750685648
 21
527.25222862422379
 31
0.0
  0
LINE
  5
2C494
  8
0
 10
448.4829918417351
 20
532.4171428235685
 30
0.0
 11
441.0218437972718
 21
532.4171428235685
 31
0.0
  0
LINE
  5
2C495
  8
0
 10
373.44673238667559
 20
532.4171428235685
 30
0.0
 11
365.98558434221218
 21
532.4171428235685
 31
0.0
  0
LINE
  5
2C496
  8
0
 10
448.4829918417351
 20
492.41714282356861
 30
0.0
 11
441.0218437972718
 21
492.41714282356861
 31
0.0
  0
LINE
  5
2C497
  8
0
 10
373.44673238667559
 20
492.41714282356861
 30
0.0
 11
365.98558434221218
 21
492.41714282356861
 31
0.0
  0
LINE
  5
2C49A
  8
0
 10
469.1704286770908
 20
497.58205702291338
 30
0.0
 11
457.29254883921323
 21
497.58205702291338
 31
0.0
  0
LINE
  5
2C49B
  8
0
 10
357.17602734473411
 20
497.58205702291338
 30
0.0
 11
345.29814750685648
 21
497.58205702291338
 31
0.0
  0
LINE
  5
2C49C
  8
0
 10
473.04270984732528
 20
498.91539035624692
 30
0.0
 11
457.27231378571338
 21
498.91539035624692
 31
0.0
  0
LINE
  5
2C49D
  8
0
 10
357.19626239823401
 20
498.91539035624692
 30
0.0
 11
341.42586633662199
 21
498.91539035624692
 31
0.0
  0
LINE
  5
2C49E
  8
0
 10
474.56049390973891
 20
500.24872368958029
 30
0.0
 11
457.2940744836028
 21
500.24872368958029
 31
0.0
  0
LINE
  5
2C49F
  8
0
 10
357.17450170034448
 20
500.24872368958029
 30
0.0
 11
339.90808227420843
 21
500.24872368958029
 31
0.0
  0
LINE
  5
2C4A8
  8
0
 10
481.98428809197361
 20
507.66714282356861
 30
0.0
 11
457.23425861408612
 21
507.66714282356861
 31
0.0
  0
LINE
  5
2C4A9
  8
0
 10
357.2343175698611
 20
507.66714282356861
 30
0.0
 11
332.48428809197372
 21
507.66714282356861
 31
0.0
  0
LINE
  5
2C4AC
  8
0
 10
481.98428809197361
 20
509.66714282356861
 30
0.0
 11
457.23425861408612
 21
509.66714282356861
 31
0.0
  0
LINE
  5
2C4AD
  8
0
 10
357.2343175698611
 20
509.66714282356861
 30
0.0
 11
332.48428809197372
 21
509.66714282356861
 31
0.0
  0
LINE
  5
2C4DE
  8
0
 10
698.78514249370096
 20
239.5239930911066
 30
0.0
 11
700.51814249370091
 21
239.5239930911066
 31
0.0
  0
LINE
  5
2C4DF
  8
0
 10
700.51814249370091
 20
239.5239930911066
 30
0.0
 11
701.28514249370085
 21
240.29099309110691
 31
0.0
  0
LINE
  5
2C4E0
  8
0
 10
688.78514249370085
 20
247.5239930911066
 30
0.0
 11
686.78514249370085
 21
247.5239930911066
 31
0.0
  0
LINE
  5
2C4E1
  8
0
 10
686.78514249370085
 20
239.5239930911066
 30
0.0
 11
688.78514249370085
 21
239.5239930911066
 31
0.0
  0
LINE
  5
2C4E3
  8
0
 10
696.28514249370085
 20
237.70899309110649
 30
0.0
 11
698.78514249370096
 21
237.70899309110649
 31
0.0
  0
LINE
  5
2C4E4
  8
0
 10
646.28514249370085
 20
247.5239930911066
 30
0.0
 11
643.78514249370085
 21
247.5239930911066
 31
0.0
  0
LINE
  5
2C4E5
  8
0
 10
643.78514249370085
 20
239.5239930911066
 30
0.0
 11
646.28514249370085
 21
239.5239930911066
 31
0.0
  0
LINE
  5
2C4E6
  8
0
 10
686.78514249370085
 20
251.0239930911066
 30
0.0
 11
686.28514249370096
 21
251.0239930911066
 31
0.0
  0
LINE
  5
2C4E7
  8
0
 10
686.28514249370096
 20
236.0239930911066
 30
0.0
 11
686.78514249370085
 21
236.0239930911066
 31
0.0
  0
LINE
  5
2C4E8
  8
0
 10
700.51814249370091
 20
239.5239930911066
 30
0.0
 11
700.51814249370091
 21
243.92209498378321
 31
0.0
  0
LINE
  5
2C4E9
  8
0
 10
701.28514249370085
 20
240.29099309110691
 30
0.0
 11
701.28514249370085
 21
244.69004064396859
 31
0.0
  0
LINE
  5
2C4EA
  8
0
 10
635.98514249370089
 20
237.26565975777339
 30
0.0
 11
635.98514249370089
 21
239.6401240813739
 31
0.0
  0
LINE
  5
2C4EB
  8
0
 10
635.98514249370089
 20
237.26565975777339
 30
0.0
 11
637.47553220834277
 21
237.26565975777339
 31
0.0
  0
POLYLINE
  5
2C4EC
  8
0
 66
     1
 10
0.0
 20
0.0
 30
0.0
  0
VERTEX
  5
383A2
  8
0
 10
636.24456220311652
 20
237.26565975777339
 30
0.0
  0
VERTEX
  5
383A3
  8
0
 10
636.18332307788
 20
237.6830998240639
 30
0.0
  0
VERTEX
  5
383A4
  8
0
 10
636.08706906299574
 20
238.47662813533
 30
0.0
  0
VERTEX
  5
383A5
  8
0
 10
636.0232018630137
 20
239.23356537681909
 30
0.0
  0
VERTEX
  5
383A6
  8
0
 10
636.00286609131922
 20
239.60474982180131
 30
0.0
  0
SEQEND
  5
383A7
  8
0
  0
LINE
  5
2C4ED
  8
0
 10
698.78514249370096
 20
237.70899309110649
 30
0.0
 11
698.78514249370096
 21
242.18751231674329
 31
0.0
  0
LINE
  5
2C4EE
  8
0
 10
696.28514249370085
 20
237.26565975777339
 30
0.0
 11
696.28514249370085
 21
239.196810789681
 31
0.0
  0
LINE
  5
2C4EF
  8
0
 10
695.09475277905904
 20
237.26565975777339
 30
0.0
 11
696.28514249370085
 21
237.26565975777339
 31
0.0
  0
POLYLINE
  5
2C4F0
  8
0
 66
     1
 10
0.0
 20
0.0
 30
0.0
  0
VERTEX
  5
383A8
  8
0
 10
696.24066618580241
 20
239.1382935645106
 30
0.0
  0
VERTEX
  5
383A9
  8
0
 10
696.21758601897091
 20
238.84096322315369
 30
0.0
  0
VERTEX
  5
383AA
  8
0
 10
696.15661788222781
 20
238.23256663945361
 30
0.0
  0
VERTEX
  5
383AB
  8
0
 10
696.07490507606121
 20
237.59709394040371
 30
0.0
  0
VERTEX
  5
383AC
  8
0
 10
696.02572278428545
 20
237.26565975777339
 30
0.0
  0
SEQEND
  5
383AD
  8
0
  0
LINE
  5
2C4F1
  8
0
 10
686.78514249370085
 20
236.0239930911066
 30
0.0
 11
686.78514249370085
 21
251.0239930911066
 31
0.0
  0
POLYLINE
  5
2C50A
  8
0
 66
     1
 10
0.0
 20
0.0
 30
0.0
  0
VERTEX
  5
383AE
  8
0
 10
639.80872857710301
 20
233.77197833339599
 30
0.0
  0
VERTEX
  5
383AF
  8
0
 10
639.89942025648759
 20
233.6619130882905
 30
0.0
  0
VERTEX
  5
383B0
  8
0
 10
640.07766859408105
 20
233.45016262652419
 30
0.0
  0
VERTEX
  5
383B1
  8
0
 10
640.2508927087315
 20
233.25035073817389
 30
0.0
  0
VERTEX
  5
383B2
  8
0
 10
640.3353150073392
 20
233.15519562060581
 30
0.0
  0
SEQEND
  5
383B3
  8
0
  0
POLYLINE
  5
2C50B
  8
0
 66
     1
 10
0.0
 20
0.0
 30
0.0
  0
VERTEX
  5
383B4
  8
0
 10
641.51694751136984
 20
232.068790247572
 30
0.0
  0
VERTEX
  5
383B5
  8
0
 10
641.54585495177787
 20
232.05505910367171
 30
0.0
  0
VERTEX
  5
383B6
  8
0
 10
641.59860846383754
 20
232.0351395492344
 30
0.0
  0
VERTEX
  5
383B7
  8
0
 10
641.64461057426956
 20
232.02522652292831
 30
0.0
  0
VERTEX
  5
383B8
  8
0
 10
641.66508829199608
 20
232.0239930911066
 30
0.0
  0
SEQEND
  5
383B9
  8
0
  0
POLYLINE
  5
2C50C
  8
0
 66
     1
 10
0.0
 20
0.0
 30
0.0
  0
VERTEX
  5
383BA
  8
0
 10
634.03514249370096
 20
241.93905660056771
 30
0.0
  0
VERTEX
  5
383BB
  8
0
 10
634.1450296885414
 20
241.82812572300961
 30
0.0
  0
VERTEX
  5
383BC
  8
0
 10
634.36320899304235
 20
241.60159737841789
 30
0.0
  0
VERTEX
  5
383BD
  8
0
 10
634.57921260813089
 20
241.3688979318195
 30
0.0
  0
VERTEX
  5
383BE
  8
0
 10
634.6863803285479
 20
241.25025356630979
 30
0.0
  0
VERTEX
  5
383BF
  8
0
 10
634.79298235691783
 20
241.1300900568408
 30
0.0
  0
VERTEX
  5
383C0
  8
0
 10
635.00446066416794
 20
240.8852380723097
 30
0.0
  0
VERTEX
  5
383C1
  8
0
 10
635.21359057180655
 20
240.6344079249306
 30
0.0
  0
VERTEX
  5
383C2
  8
0
 10
635.42031575426086
 20
240.3776671715255
 30
0.0
  0
VERTEX
  5
383C3
  8
0
 10
635.62458053362877
 20
240.11508496083661
 30
0.0
  0
VERTEX
  5
383C4
  8
0
 10
635.82632989467686
 20
239.84673201490301
 30
0.0
  0
VERTEX
  5
383C5
  8
0
 10
635.92624428591876
 20
239.71041404237619
 30
0.0
  0
VERTEX
  5
383C6
  8
0
 10
636.02550949965621
 20
239.57268061001329
 30
0.0
  0
VERTEX
  5
383C7
  8
0
 10
636.2220657029377
 20
239.29300455723839
 30
0.0
  0
VERTEX
  5
383C8
  8
0
 10
636.41594556546113
 20
239.00777918255241
 30
0.0
  0
VERTEX
  5
383C9
  8
0
 10
636.60709686899258
 20
238.717081306544
 30
0.0
  0
VERTEX
  5
383CA
  8
0
 10
636.79546813018942
 20
238.4209892237277
 30
0.0
  0
VERTEX
  5
383CB
  8
0
 10
636.98100861446562
 20
238.11958268145511
 30
0.0
  0
VERTEX
  5
383CC
  8
0
 10
637.07270166880562
 20
237.9669118010525
 30
0.0
  0
VERTEX
  5
383CD
  8
0
 10
637.16366834965675
 20
237.8129428584366
 30
0.0
  0
VERTEX
  5
383CE
  8
0
 10
637.34339813947906
 20
237.50115234287799
 30
0.0
  0
VERTEX
  5
383CF
  8
0
 10
637.52014957677977
 20
237.18429511023581
 30
0.0
  0
VERTEX
  5
383D0
  8
0
 10
637.60739350499
 20
237.0239930911066
 30
0.0
  0
SEQEND
  5
383D1
  8
0
  0
POLYLINE
  5
2C50D
  8
0
 66
     1
 10
0.0
 20
0.0
 30
0.0
  0
VERTEX
  5
383D2
  8
0
 10
633.5018928088657
 20
246.47230628540319
 30
0.0
  0
VERTEX
  5
383D3
  8
0
 10
633.43851758386381
 20
246.53515266304839
 30
0.0
  0
VERTEX
  5
383D4
  8
0
 10
633.30940076885861
 20
246.6600388670081
 30
0.0
  0
VERTEX
  5
383D5
  8
0
 10
633.1771516306909
 20
246.7838276780121
 30
0.0
  0
VERTEX
  5
383D6
  8
0
 10
633.10986115703463
 20
246.84530236887119
 30
0.0
  0
VERTEX
  5
383D7
  8
0
 10
633.04179814483382
 20
246.90649291025289
 30
0.0
  0
VERTEX
  5
383D8
  8
0
 10
632.90336894344171
 20
247.02800861559899
 30
0.0
  0
VERTEX
  5
383D9
  8
0
 10
632.76189330929435
 20
247.1483490890873
 30
0.0
  0
VERTEX
  5
383DA
  8
0
 10
632.61740116960254
 20
247.2674888743577
 30
0.0
  0
VERTEX
  5
383DB
  8
0
 10
632.46992308967617
 20
247.3854027690391
 30
0.0
  0
VERTEX
  5
383DC
  8
0
 10
632.31949026645998
 20
247.50206583008051
 30
0.0
  0
VERTEX
  5
383DD
  8
0
 10
632.24317574625456
 20
247.5599205754902
 30
0.0
  0
VERTEX
  5
383DE
  8
0
 10
632.16613452193371
 20
247.61745337902769
 30
0.0
  0
VERTEX
  5
383DF
  8
0
 10
632.00988829638027
 20
247.73154100724381
 30
0.0
  0
VERTEX
  5
383E0
  8
0
 10
631.85078464152411
 20
247.8443045810709
 30
0.0
  0
VERTEX
  5
383E1
  8
0
 10
631.68885721353922
 20
247.95572024693769
 30
0.0
  0
VERTEX
  5
383E2
  8
0
 10
631.52414026592965
 20
248.0657644364037
 30
0.0
  0
VERTEX
  5
383E3
  8
0
 10
631.35666864228335
 20
248.17441387114519
 30
0.0
  0
VERTEX
  5
383E4
  8
0
 10
631.27191087510766
 20
248.22820836155961
 30
0.0
  0
VERTEX
  5
383E5
  8
0
 10
631.18647776890248
 20
248.281645567879
 30
0.0
  0
VERTEX
  5
383E6
  8
0
 10
631.01360364730817
 20
248.38743684322569
 30
0.0
  0
VERTEX
  5
383E7
  8
0
 10
630.83808284662587
 20
248.49176531850659
 30
0.0
  0
VERTEX
  5
383E8
  8
0
 10
630.74934152278161
 20
248.5433740972685
 30
0.0
  0
SEQEND
  5
383E9
  8
0
  0
POLYLINE
  5
2C50E
  8
0
 66
     1
 10
0.0
 20
0.0
 30
0.0
  0
VERTEX
  5
383EA
  8
0
 10
623.78514249370096
 20
256.82847751804462
 30
0.0
  0
VERTEX
  5
383EB
  8
0
 10
623.78523041563221
 20
256.74215043878979
 30
0.0
  0
VERTEX
  5
383EC
  8
0
 10
623.78596451571161
 20
256.57083796345069
 30
0.0
  0
VERTEX
  5
383ED
  8
0
 10
623.78751177476556
 20
256.40140105726232
 30
0.0
  0
VERTEX
  5
383EE
  8
0
 10
623.78861633637575
 20
256.3174180779161
 30
0.0
  0
VERTEX
  5
383EF
  8
0
 10
623.78995545379439
 20
256.23394231639992
 30
0.0
  0
VERTEX
  5
383F0
  8
0
 10
623.79337925388779
 20
256.06856229535379
 30
0.0
  0
VERTEX
  5
383F1
  8
0
 10
623.79786694106724
 20
255.90535902317509
 30
0.0
  0
VERTEX
  5
383F2
  8
0
 10
623.80350197513394
 20
255.74442753299849
 30
0.0
  0
VERTEX
  5
383F3
  8
0
 10
623.81036714779236
 20
255.58585940201101
 30
0.0
  0
VERTEX
  5
383F4
  8
0
 10
623.81854427357837
 20
255.42974164029781
 30
0.0
  0
VERTEX
  5
383F5
  8
0
 10
623.82315008667388
 20
255.35262683298831
 30
0.0
  0
VERTEX
  5
383F6
  8
0
 10
623.82811399385992
 20
255.27615483846691
 30
0.0
  0
VERTEX
  5
383F7
  8
0
 10
623.83915508776772
 20
255.12517925878501
 30
0.0
  0
VERTEX
  5
383F8
  8
0
 10
623.85174404170073
 20
254.97689356115919
 30
0.0
  0
VERTEX
  5
383F9
  8
0
 10
623.86595462552611
 20
254.83137391843911
 30
0.0
  0
VERTEX
  5
383FA
  8
0
 10
623.88185747119303
 20
254.6886934036952
 30
0.0
  0
VERTEX
  5
383FB
  8
0
 10
623.89951967380568
 20
254.54892139052069
 30
0.0
  0
VERTEX
  5
383FC
  8
0
 10
623.90903044275683
 20
254.48014659513501
 30
0.0
  0
VERTEX
  5
383FD
  8
0
 10
623.91900442372605
 20
254.4121229668022
 30
0.0
  0
VERTEX
  5
383FE
  8
0
 10
623.94037067921056
 20
254.2783583630362
 30
0.0
  0
VERTEX
  5
383FF
  8
0
 10
623.96367289004434
 20
254.14768239696329
 30
0.0
  0
VERTEX
  5
38400
  8
0
 10
623.97606570736252
 20
254.0835181710932
 30
0.0
  0
SEQEND
  5
38401
  8
0
  0
POLYLINE
  5
2C50F
  8
0
 66
     1
 10
0.0
 20
0.0
 30
0.0
  0
VERTEX
  5
38402
  8
0
 10
692.34981444005848
 20
237.0239930911066
 30
0.0
  0
VERTEX
  5
38403
  8
0
 10
692.23780499397401
 20
236.77421419581421
 30
0.0
  0
VERTEX
  5
38404
  8
0
 10
692.00768785287175
 20
236.29187724357419
 30
0.0
  0
VERTEX
  5
38405
  8
0
 10
691.77263987894355
 20
235.8341130212803
 30
0.0
  0
VERTEX
  5
38406
  8
0
 10
691.65443479345436
 20
235.61501304107651
 30
0.0
  0
VERTEX
  5
38407
  8
0
 10
691.53637829004708
 20
235.40271909222159
 30
0.0
  0
VERTEX
  5
38408
  8
0
 10
691.3024335941916
 20
234.99932346618149
 30
0.0
  0
VERTEX
  5
38409
  8
0
 10
691.07000612695379
 20
234.61880839897731
 30
0.0
  0
VERTEX
  5
3840A
  8
0
 10
690.83587347901198
 20
234.2537258865168
 30
0.0
  0
VERTEX
  5
3840B
  8
0
 10
690.60311747370315
 20
233.9074869630644
 30
0.0
  0
VERTEX
  5
3840C
  8
0
 10
690.37482161017374
 20
233.58330591466941
 30
0.0
  0
VERTEX
  5
3840D
  8
0
 10
690.26327069476565
 20
233.43040024173979
 30
0.0
  0
VERTEX
  5
3840E
  8
0
 10
690.15392572615553
 20
233.2840703578936
 30
0.0
  0
VERTEX
  5
3840F
  8
0
 10
689.94320864690292
 20
233.0123905179689
 30
0.0
  0
VERTEX
  5
38410
  8
0
 10
689.74522016091498
 20
232.77055917237979
 30
0.0
  0
VERTEX
  5
38411
  8
0
 10
689.56211077918147
 20
232.5603936704847
 30
0.0
  0
VERTEX
  5
38412
  8
0
 10
689.39583338411705
 20
232.38351383324331
 30
0.0
  0
VERTEX
  5
38413
  8
0
 10
689.24807238507105
 20
232.24124082898109
 30
0.0
  0
VERTEX
  5
38414
  8
0
 10
689.18155175640084
 20
232.1833709552198
 30
0.0
  0
VERTEX
  5
38415
  8
0
 10
689.12010580974061
 20
232.13444010465039
 30
0.0
  0
VERTEX
  5
38416
  8
0
 10
689.01279303665387
 20
232.0635074456286
 30
0.0
  0
VERTEX
  5
38417
  8
0
 10
688.92657457555674
 20
232.02834413239501
 30
0.0
  0
VERTEX
  5
38418
  8
0
 10
688.89138692257643
 20
232.0239930911066
 30
0.0
  0
SEQEND
  5
38419
  8
0
  0
POLYLINE
  5
2C510
  8
0
 66
     1
 10
0.0
 20
0.0
 30
0.0
  0
VERTEX
  5
3841A
  8
0
 10
697.53514249370085
 20
244.93905660056771
 30
0.0
  0
VERTEX
  5
3841B
  8
0
 10
697.36831187423979
 20
244.77009176237701
 30
0.0
  0
VERTEX
  5
3841C
  8
0
 10
697.03793321434159
 20
244.42264091428481
 30
0.0
  0
VERTEX
  5
3841D
  8
0
 10
696.7120654037069
 20
244.06263705518819
 30
0.0
  0
VERTEX
  5
3841E
  8
0
 10
696.55087283008663
 20
243.87798238846341
 30
0.0
  0
VERTEX
  5
3841F
  8
0
 10
696.39086740278844
 20
243.6902557973271
 30
0.0
  0
VERTEX
  5
38420
  8
0
 10
696.07449589407508
 20
243.30567879071901
 30
0.0
  0
VERTEX
  5
38421
  8
0
 10
695.76310520566153
 20
242.90909363454699
 30
0.0
  0
VERTEX
  5
38422
  8
0
 10
695.45684723596526
 20
242.5006937856478
 30
0.0
  0
VERTEX
  5
38423
  8
0
 10
695.15587137963018
 20
242.080678464144
 30
0.0
  0
VERTEX
  5
38424
  8
0
 10
694.86032445465059
 20
241.64925255625991
 30
0.0
  0
VERTEX
  5
38425
  8
0
 10
694.71463199983862
 20
241.4293261841558
 30
0.0
  0
VERTEX
  5
38426
  8
0
 10
694.57035063075284
 20
241.20662651437991
 30
0.0
  0
VERTEX
  5
38427
  8
0
 10
694.28609135906754
 20
240.75301625438669
 30
0.0
  0
VERTEX
  5
38428
  8
0
 10
694.00768530312939
 20
240.28864305033721
 30
0.0
  0
VERTEX
  5
38429
  8
0
 10
693.73526827123692
 20
239.81373342652159
 30
0.0
  0
VERTEX
  5
3842A
  8
0
 10
693.46897315020215
 20
239.32851904696599
 30
0.0
  0
VERTEX
  5
3842B
  8
0
 10
693.20892984052989
 20
238.83323660242331
 30
0.0
  0
VERTEX
  5
3842C
  8
0
 10
693.08129237666935
 20
238.58189516777341
 30
0.0
  0
VERTEX
  5
3842D
  8
0
 10
692.95526519305008
 20
238.3281276949142
 30
0.0
  0
VERTEX
  5
3842E
  8
0
 10
692.70810294703961
 20
237.81343871987249
 30
0.0
  0
VERTEX
  5
3842F
  8
0
 10
692.46756366986085
 20
237.28942074595261
 30
0.0
  0
VERTEX
  5
38430
  8
0
 10
692.34981444005848
 20
237.0239930911066
 30
0.0
  0
SEQEND
  5
38431
  8
0
  0
POLYLINE
  5
2C511
  8
0
 66
     1
 10
0.0
 20
0.0
 30
0.0
  0
VERTEX
  5
38432
  8
0
 10
701.82094346462031
 20
248.5433740972685
 30
0.0
  0
VERTEX
  5
38433
  8
0
 10
701.73220214077583
 20
248.49176531850659
 30
0.0
  0
VERTEX
  5
38434
  8
0
 10
701.55668134009363
 20
248.38743684322569
 30
0.0
  0
VERTEX
  5
38435
  8
0
 10
701.38380721849944
 20
248.281645567879
 30
0.0
  0
VERTEX
  5
38436
  8
0
 10
701.29837411229414
 20
248.22820836155961
 30
0.0
  0
VERTEX
  5
38437
  8
0
 10
701.21361634511845
 20
248.17441387114519
 30
0.0
  0
VERTEX
  5
38438
  8
0
 10
701.04614472147227
 20
248.0657644364037
 30
0.0
  0
VERTEX
  5
38439
  8
0
 10
700.88142777386247
 20
247.95572024693769
 30
0.0
  0
VERTEX
  5
3843A
  8
0
 10
700.71950034587758
 20
247.8443045810709
 30
0.0
  0
VERTEX
  5
3843B
  8
0
 10
700.56039669102165
 20
247.73154100724381
 30
0.0
  0
VERTEX
  5
3843C
  8
0
 10
700.40415046546798
 20
247.61745337902769
 30
0.0
  0
VERTEX
  5
3843D
  8
0
 10
700.32710924114713
 20
247.5599205754902
 30
0.0
  0
VERTEX
  5
3843E
  8
0
 10
700.25079472094183
 20
247.50206583008051
 30
0.0
  0
VERTEX
  5
3843F
  8
0
 10
700.10036189772563
 20
247.3854027690391
 30
0.0
  0
VERTEX
  5
38440
  8
0
 10
699.95288381779915
 20
247.2674888743577
 30
0.0
  0
VERTEX
  5
38441
  8
0
 10
699.80839167810734
 20
247.1483490890873
 30
0.0
  0
VERTEX
  5
38442
  8
0
 10
699.66691604395999
 20
247.02800861559899
 30
0.0
  0
VERTEX
  5
38443
  8
0
 10
699.5284868425681
 20
246.90649291025289
 30
0.0
  0
VERTEX
  5
38444
  8
0
 10
699.46042383036718
 20
246.84530236887119
 30
0.0
  0
VERTEX
  5
38445
  8
0
 10
699.39313335671079
 20
246.7838276780121
 30
0.0
  0
VERTEX
  5
38446
  8
0
 10
699.2608842185432
 20
246.6600388670081
 30
0.0
  0
VERTEX
  5
38447
  8
0
 10
699.13176740353799
 20
246.53515266304839
 30
0.0
  0
VERTEX
  5
38448
  8
0
 10
699.06839217853621
 20
246.47230628540319
 30
0.0
  0
SEQEND
  5
38449
  8
0
  0
POLYLINE
  5
2C512
  8
0
 66
     1
 10
0.0
 20
0.0
 30
0.0
  0
VERTEX
  5
3844A
  8
0
 10
706.54516745501905
 20
254.08351817109221
 30
0.0
  0
VERTEX
  5
3844B
  8
0
 10
706.49994187547861
 20
253.91121502995969
 30
0.0
  0
VERTEX
  5
3844C
  8
0
 10
706.39803913186438
 20
253.56984280208189
 30
0.0
  0
VERTEX
  5
3844D
  8
0
 10
706.28103916167652
 20
253.23334588664511
 30
0.0
  0
VERTEX
  5
3844E
  8
0
 10
706.21694906679932
 20
253.06713461979601
 30
0.0
  0
VERTEX
  5
3844F
  8
0
 10
706.14917398895852
 20
252.90239159471591
 30
0.0
  0
VERTEX
  5
38450
  8
0
 10
706.00270511711483
 20
252.57763624571729
 30
0.0
  0
VERTEX
  5
38451
  8
0
 10
705.8419230103209
 20
252.25972386587449
 30
0.0
  0
VERTEX
  5
38452
  8
0
 10
705.66714651749976
 20
251.9492849110388
 30
0.0
  0
VERTEX
  5
38453
  8
0
 10
705.47872224000946
 20
251.6469350164225
 30
0.0
  0
VERTEX
  5
38454
  8
0
 10
705.27702384429324
 20
251.35327377572551
 30
0.0
  0
VERTEX
  5
38455
  8
0
 10
705.1713208421894
 20
251.20988409396571
 30
0.0
  0
VERTEX
  5
38456
  8
0
 10
705.06245132085689
 20
251.06888355207411
 30
0.0
  0
VERTEX
  5
38457
  8
0
 10
704.835430191044
 20
250.7943283231298
 30
0.0
  0
VERTEX
  5
38458
  8
0
 10
704.59641066317783
 20
250.53015256265741
 30
0.0
  0
VERTEX
  5
38459
  8
0
 10
704.34586673974934
 20
250.27688016077491
 30
0.0
  0
VERTEX
  5
3845A
  8
0
 10
704.084295277416
 20
250.03501338501789
 30
0.0
  0
VERTEX
  5
3845B
  8
0
 10
703.81221500168022
 20
249.80503188428841
 30
0.0
  0
VERTEX
  5
3845C
  8
0
 10
703.67240188797041
 20
249.6946415825237
 30
0.0
  0
VERTEX
  5
3845D
  8
0
 10
703.53016547819789
 20
249.5873917376571
 30
0.0
  0
VERTEX
  5
3845E
  8
0
 10
703.23870604275965
 20
249.3825245499074
 30
0.0
  0
VERTEX
  5
3845F
  8
0
 10
702.93841469206586
 20
249.19083659561511
 30
0.0
  0
VERTEX
  5
38460
  8
0
 10
702.78514249370096
 20
249.1000546662608
 30
0.0
  0
SEQEND
  5
38461
  8
0
  0
POLYLINE
  5
2C513
  8
0
 66
     1
 10
0.0
 20
0.0
 30
0.0
  0
VERTEX
  5
38462
  8
0
 10
706.78514249370096
 20
256.82847751804462
 30
0.0
  0
VERTEX
  5
38463
  8
0
 10
706.78503123994074
 20
256.74162787220439
 30
0.0
  0
VERTEX
  5
38464
  8
0
 10
706.78410286656083
 20
256.56938180016141
 30
0.0
  0
VERTEX
  5
38465
  8
0
 10
706.78214776971299
 20
256.39916886208721
 30
0.0
  0
VERTEX
  5
38466
  8
0
 10
706.78075302288289
 20
256.31486007003878
 30
0.0
  0
VERTEX
  5
38467
  8
0
 10
706.7790629813278
 20
256.23110151082619
 30
0.0
  0
VERTEX
  5
38468
  8
0
 10
706.77474567907495
 20
256.06528920143728
 30
0.0
  0
VERTEX
  5
38469
  8
0
 10
706.76909370269607
 20
255.90183780918099
 30
0.0
  0
VERTEX
  5
3846A
  8
0
 10
706.76200598145908
 20
255.74084757324911
 30
0.0
  0
VERTEX
  5
3846B
  8
0
 10
706.75338294666756
 20
255.58241283060491
 30
0.0
  0
VERTEX
  5
3846C
  8
0
 10
706.74312729825544
 20
255.4266271826055
 30
0.0
  0
VERTEX
  5
3846D
  8
0
 10
706.73735760114823
 20
255.34975643655159
 30
0.0
  0
VERTEX
  5
3846E
  8
0
 10
706.73114458790633
 20
255.27358202078361
 30
0.0
  0
VERTEX
  5
3846F
  8
0
 10
706.71734381097599
 20
255.123365758011
 30
0.0
  0
VERTEX
  5
38470
  8
0
 10
706.70163797742714
 20
254.97606308405099
 30
0.0
  0
VERTEX
  5
38471
  8
0
 10
706.68394464916184
 20
254.8317542265481
 30
0.0
  0
VERTEX
  5
38472
  8
0
 10
706.66418643010081
 20
254.6905142166743
 30
0.0
  0
VERTEX
  5
38473
  8
0
 10
706.64229139348629
 20
254.55241215973871
 30
0.0
  0
VERTEX
  5
38474
  8
0
 10
706.63052167435967
 20
254.48455766061849
 30
0.0
  0
VERTEX
  5
38475
  8
0
 10
706.6181796568269
 20
254.41743773190501
 30
0.0
  0
VERTEX
  5
38476
  8
0
 10
706.59132925891004
 20
254.2834887474705
 30
0.0
  0
VERTEX
  5
38477
  8
0
 10
706.56136810957298
 20
254.1499631824345
 30
0.0
  0
VERTEX
  5
38478
  8
0
 10
706.54516745501905
 20
254.08351817109221
 30
0.0
  0
SEQEND
  5
38479
  8
0
  0
LINE
  5
2C52A
  8
0
 10
625.78514249370085
 20
348.5239930911066
 30
0.0
 11
706.78514249370096
 21
348.5239930911066
 31
0.0
  0
LINE
  5
2C52B
  8
0
 10
706.78514249370096
 20
348.5239930911066
 30
0.0
 11
706.78514249370096
 21
256.82847751804462
 31
0.0
  0
LINE
  5
2C532
  8
0
 10
625.78514249370085
 20
348.5239930911066
 30
0.0
 11
625.78514249370085
 21
256.82847751804462
 31
0.0
  0
POLYLINE
  5
2C533
  8
0
 66
     1
 10
0.0
 20
0.0
 30
0.0
  0
VERTEX
  5
3847A
  8
0
 10
625.78514249370085
 20
256.82847751804462
 30
0.0
  0
VERTEX
  5
3847B
  8
0
 10
625.78525374746118
 20
256.74162787220439
 30
0.0
  0
VERTEX
  5
3847C
  8
0
 10
625.78618212084098
 20
256.56938180016141
 30
0.0
  0
VERTEX
  5
3847D
  8
0
 10
625.78813721768893
 20
256.39916886208681
 30
0.0
  0
VERTEX
  5
3847E
  8
0
 10
625.78953196451903
 20
256.31486007003878
 30
0.0
  0
VERTEX
  5
3847F
  8
0
 10
625.79122200607412
 20
256.23110151082619
 30
0.0
  0
VERTEX
  5
38480
  8
0
 10
625.79553930832685
 20
256.06528920143728
 30
0.0
  0
VERTEX
  5
38481
  8
0
 10
625.80119128470574
 20
255.90183780918099
 30
0.0
  0
VERTEX
  5
38482
  8
0
 10
625.80827900594295
 20
255.7408475732486
 30
0.0
  0
VERTEX
  5
38483
  8
0
 10
625.81690204073425
 20
255.58241283060491
 30
0.0
  0
VERTEX
  5
38484
  8
0
 10
625.82715768914636
 20
255.4266271826055
 30
0.0
  0
VERTEX
  5
38485
  8
0
 10
625.83292738625357
 20
255.34975643655159
 30
0.0
  0
VERTEX
  5
38486
  8
0
 10
625.83914039949559
 20
255.27358202078361
 30
0.0
  0
VERTEX
  5
38487
  8
0
 10
625.85294117642593
 20
255.123365758011
 30
0.0
  0
VERTEX
  5
38488
  8
0
 10
625.86864700997467
 20
254.97606308405099
 30
0.0
  0
VERTEX
  5
38489
  8
0
 10
625.88634033824007
 20
254.8317542265481
 30
0.0
  0
VERTEX
  5
3848A
  8
0
 10
625.90609855730111
 20
254.6905142166743
 30
0.0
  0
VERTEX
  5
3848B
  8
0
 10
625.92799359391563
 20
254.5524121597382
 30
0.0
  0
VERTEX
  5
3848C
  8
0
 10
625.93976331304225
 20
254.48455766061849
 30
0.0
  0
VERTEX
  5
3848D
  8
0
 10
625.95210533057502
 20
254.41743773190501
 30
0.0
  0
VERTEX
  5
3848E
  8
0
 10
625.97895572849188
 20
254.2834887474705
 30
0.0
  0
VERTEX
  5
3848F
  8
0
 10
626.00891687782882
 20
254.1499631824345
 30
0.0
  0
VERTEX
  5
38490
  8
0
 10
626.02511753238275
 20
254.08351817109221
 30
0.0
  0
SEQEND
  5
38491
  8
0
  0
POLYLINE
  5
2C534
  8
0
 66
     1
 10
0.0
 20
0.0
 30
0.0
  0
VERTEX
  5
38492
  8
0
 10
623.97606570736275
 20
254.08351817109221
 30
0.0
  0
VERTEX
  5
38493
  8
0
 10
623.96367289004445
 20
254.1476823969619
 30
0.0
  0
VERTEX
  5
38494
  8
0
 10
623.9403706792109
 20
254.2783583630353
 30
0.0
  0
VERTEX
  5
38495
  8
0
 10
623.91900442372605
 20
254.41212296680081
 30
0.0
  0
VERTEX
  5
38496
  8
0
 10
623.90903044275694
 20
254.4801465951337
 30
0.0
  0
VERTEX
  5
38497
  8
0
 10
623.89951967380568
 20
254.5489213905193
 30
0.0
  0
VERTEX
  5
38498
  8
0
 10
623.88185747119314
 20
254.68869340369429
 30
0.0
  0
VERTEX
  5
38499
  8
0
 10
623.86595462552623
 20
254.8313739184382
 30
0.0
  0
VERTEX
  5
3849A
  8
0
 10
623.85174404170084
 20
254.97689356115831
 30
0.0
  0
VERTEX
  5
3849B
  8
0
 10
623.83915508776772
 20
255.1251792587841
 30
0.0
  0
VERTEX
  5
3849C
  8
0
 10
623.82811399385992
 20
255.276154838466
 30
0.0
  0
VERTEX
  5
3849D
  8
0
 10
623.82315008667388
 20
255.3526268329874
 30
0.0
  0
VERTEX
  5
3849E
  8
0
 10
623.81854427357837
 20
255.42974164029741
 30
0.0
  0
VERTEX
  5
3849F
  8
0
 10
623.81036714779236
 20
255.58585940201061
 30
0.0
  0
VERTEX
  5
384A0
  8
0
 10
623.80350197513394
 20
255.74442753299809
 30
0.0
  0
VERTEX
  5
384A1
  8
0
 10
623.79786694106724
 20
255.9053590231743
 30
0.0
  0
VERTEX
  5
384A2
  8
0
 10
623.79337925388779
 20
256.06856229535327
 30
0.0
  0
VERTEX
  5
384A3
  8
0
 10
623.78995545379439
 20
256.23394231639941
 30
0.0
  0
VERTEX
  5
384A4
  8
0
 10
623.78861633637575
 20
256.3174180779161
 30
0.0
  0
VERTEX
  5
384A5
  8
0
 10
623.78751177476556
 20
256.40140105726192
 30
0.0
  0
VERTEX
  5
384A6
  8
0
 10
623.78596451571161
 20
256.57083796345017
 30
0.0
  0
VERTEX
  5
384A7
  8
0
 10
623.78523041563221
 20
256.74215043878979
 30
0.0
  0
VERTEX
  5
384A8
  8
0
 10
623.78514249370096
 20
256.82847751804462
 30
0.0
  0
SEQEND
  5
384A9
  8
0
  0
LINE
  5
2C535
  8
0
 10
623.78514249370096
 20
256.82847751804462
 30
0.0
 11
623.78514249370096
 21
350.5239930911066
 31
0.0
  0
POLYLINE
  5
2C537
  8
0
 66
     1
 10
0.0
 20
0.0
 30
0.0
  0
VERTEX
  5
384AA
  8
0
 10
626.02511753238275
 20
254.08351817109181
 30
0.0
  0
VERTEX
  5
384AB
  8
0
 10
626.07034311192331
 20
253.91121502995929
 30
0.0
  0
VERTEX
  5
384AC
  8
0
 10
626.17224585553754
 20
253.56984280208189
 30
0.0
  0
VERTEX
  5
384AD
  8
0
 10
626.2892458257254
 20
253.23334588664511
 30
0.0
  0
VERTEX
  5
384AE
  8
0
 10
626.3533359206026
 20
253.06713461979601
 30
0.0
  0
VERTEX
  5
384AF
  8
0
 10
626.4211109984434
 20
252.90239159471591
 30
0.0
  0
VERTEX
  5
384B0
  8
0
 10
626.56757987028698
 20
252.57763624571729
 30
0.0
  0
VERTEX
  5
384B1
  8
0
 10
626.72836197708102
 20
252.25972386587449
 30
0.0
  0
VERTEX
  5
384B2
  8
0
 10
626.90313846990205
 20
251.9492849110388
 30
0.0
  0
VERTEX
  5
384B3
  8
0
 10
627.09156274739235
 20
251.6469350164225
 30
0.0
  0
VERTEX
  5
384B4
  8
0
 10
627.29326114310868
 20
251.35327377572551
 30
0.0
  0
VERTEX
  5
384B5
  8
0
 10
627.39896414521252
 20
251.20988409396571
 30
0.0
  0
VERTEX
  5
384B6
  8
0
 10
627.50783366654491
 20
251.06888355207411
 30
0.0
  0
VERTEX
  5
384B7
  8
0
 10
627.73485479635792
 20
250.79432832312929
 30
0.0
  0
VERTEX
  5
384B8
  8
0
 10
627.97387432422408
 20
250.53015256265741
 30
0.0
  0
VERTEX
  5
384B9
  8
0
 10
628.22441824765247
 20
250.27688016077491
 30
0.0
  0
VERTEX
  5
384BA
  8
0
 10
628.48598970998592
 20
250.03501338501789
 30
0.0
  0
VERTEX
  5
384BB
  8
0
 10
628.75806998572159
 20
249.8050318842879
 30
0.0
  0
VERTEX
  5
384BC
  8
0
 10
628.89788309943151
 20
249.6946415825237
 30
0.0
  0
VERTEX
  5
384BD
  8
0
 10
629.04011950920403
 20
249.58739173765659
 30
0.0
  0
VERTEX
  5
384BE
  8
0
 10
629.33157894464205
 20
249.3825245499074
 30
0.0
  0
VERTEX
  5
384BF
  8
0
 10
629.63187029533594
 20
249.19083659561511
 30
0.0
  0
VERTEX
  5
384C0
  8
0
 10
629.78514249370085
 20
249.1000546662608
 30
0.0
  0
SEQEND
  5
384C1
  8
0
  0
LINE
  5
2C538
  8
0
 10
629.78514249370085
 20
249.1000546662608
 30
0.0
 11
630.74934152278161
 21
248.5433740972685
 31
0.0
  0
POLYLINE
  5
2C539
  8
0
 66
     1
 10
0.0
 20
0.0
 30
0.0
  0
VERTEX
  5
384C2
  8
0
 10
627.1536634345872
 20
248.5433740972685
 30
0.0
  0
VERTEX
  5
384C3
  8
0
 10
627.01959598354279
 20
248.66433364252001
 30
0.0
  0
VERTEX
  5
384C4
  8
0
 10
626.75812185408176
 20
248.91341559818781
 30
0.0
  0
VERTEX
  5
384C5
  8
0
 10
626.5058117002543
 20
249.17177605818921
 30
0.0
  0
VERTEX
  5
384C6
  8
0
 10
626.38319641757198
 20
249.3043308976703
 30
0.0
  0
VERTEX
  5
384C7
  8
0
 10
626.26299456109678
 20
249.4390780932508
 30
0.0
  0
VERTEX
  5
384C8
  8
0
 10
626.02998709575445
 20
249.71497311334269
 30
0.0
  0
VERTEX
  5
384C9
  8
0
 10
625.80709317052322
 20
249.9991013222762
 30
0.0
  0
VERTEX
  5
384CA
  8
0
 10
625.59460346257686
 20
250.2910921869165
 30
0.0
  0
VERTEX
  5
384CB
  8
0
 10
625.39279508089317
 20
250.59056492039829
 30
0.0
  0
VERTEX
  5
384CC
  8
0
 10
625.20193120487454
 20
250.89712897870871
 30
0.0
  0
VERTEX
  5
384CD
  8
0
 10
625.11068180634186
 20
251.05294566678961
 30
0.0
  0
VERTEX
  5
384CE
  8
0
 10
625.02226074113423
 20
251.2103845700012
 30
0.0
  0
VERTEX
  5
384CF
  8
0
 10
624.85401799889621
 20
251.52992317596451
 30
0.0
  0
VERTEX
  5
384D0
  8
0
 10
624.69742238443064
 20
251.85532808457361
 30
0.0
  0
VERTEX
  5
384D1
  8
0
 10
624.5526781149257
 20
252.1861749335267
 30
0.0
  0
VERTEX
  5
384D2
  8
0
 10
624.41997395216617
 20
252.5220322636583
 30
0.0
  0
VERTEX
  5
384D3
  8
0
 10
624.29948295636905
 20
252.86246208160671
 30
0.0
  0
VERTEX
  5
384D4
  8
0
 10
624.24386712803596
 20
253.03425315429649
 30
0.0
  0
VERTEX
  5
384D5
  8
0
 10
624.19136226049341
 20
253.2070204310053
 30
0.0
  0
VERTEX
  5
384D6
  8
0
 10
624.0957528653239
 20
253.5552579714454
 30
0.0
  0
VERTEX
  5
384D7
  8
0
 10
624.01277945558991
 20
253.9067205644678
 30
0.0
  0
VERTEX
  5
384D8
  8
0
 10
623.97606570736275
 20
254.08351817109221
 30
0.0
  0
SEQEND
  5
384D9
  8
0
  0
POLYLINE
  5
2C53B
  8
0
 66
     1
 10
0.0
 20
0.0
 30
0.0
  0
VERTEX
  5
384DA
  8
0
 10
630.74934152278161
 20
248.5433740972685
 30
0.0
  0
VERTEX
  5
384DB
  8
0
 10
630.83808284662587
 20
248.49176531850659
 30
0.0
  0
VERTEX
  5
384DC
  8
0
 10
631.01360364730817
 20
248.38743684322569
 30
0.0
  0
VERTEX
  5
384DD
  8
0
 10
631.18647776890248
 20
248.281645567879
 30
0.0
  0
VERTEX
  5
384DE
  8
0
 10
631.27191087510766
 20
248.22820836155961
 30
0.0
  0
VERTEX
  5
384DF
  8
0
 10
631.35666864228335
 20
248.17441387114519
 30
0.0
  0
VERTEX
  5
384E0
  8
0
 10
631.52414026592965
 20
248.0657644364037
 30
0.0
  0
VERTEX
  5
384E1
  8
0
 10
631.68885721353922
 20
247.95572024693769
 30
0.0
  0
VERTEX
  5
384E2
  8
0
 10
631.85078464152411
 20
247.8443045810709
 30
0.0
  0
VERTEX
  5
384E3
  8
0
 10
632.00988829638027
 20
247.73154100724381
 30
0.0
  0
VERTEX
  5
384E4
  8
0
 10
632.16613452193371
 20
247.61745337902769
 30
0.0
  0
VERTEX
  5
384E5
  8
0
 10
632.24317574625456
 20
247.5599205754902
 30
0.0
  0
VERTEX
  5
384E6
  8
0
 10
632.31949026645998
 20
247.50206583008051
 30
0.0
  0
VERTEX
  5
384E7
  8
0
 10
632.46992308967617
 20
247.3854027690391
 30
0.0
  0
VERTEX
  5
384E8
  8
0
 10
632.61740116960254
 20
247.2674888743577
 30
0.0
  0
VERTEX
  5
384E9
  8
0
 10
632.76189330929458
 20
247.1483490890873
 30
0.0
  0
VERTEX
  5
384EA
  8
0
 10
632.90336894344171
 20
247.02800861559899
 30
0.0
  0
VERTEX
  5
384EB
  8
0
 10
633.04179814483382
 20
246.90649291025289
 30
0.0
  0
VERTEX
  5
384EC
  8
0
 10
633.10986115703463
 20
246.84530236887119
 30
0.0
  0
VERTEX
  5
384ED
  8
0
 10
633.1771516306909
 20
246.7838276780121
 30
0.0
  0
VERTEX
  5
384EE
  8
0
 10
633.30940076885872
 20
246.6600388670081
 30
0.0
  0
VERTEX
  5
384EF
  8
0
 10
633.43851758386381
 20
246.53515266304839
 30
0.0
  0
VERTEX
  5
384F0
  8
0
 10
633.5018928088657
 20
246.47230628540319
 30
0.0
  0
SEQEND
  5
384F1
  8
0
  0
POLYLINE
  5
2C53C
  8
0
 66
     1
 10
0.0
 20
0.0
 30
0.0
  0
VERTEX
  5
384F2
  8
0
 10
629.5018928088657
 20
246.47230628540319
 30
0.0
  0
VERTEX
  5
384F3
  8
0
 10
629.38859806134428
 20
246.5839272522403
 30
0.0
  0
VERTEX
  5
384F4
  8
0
 10
629.15455282250343
 20
246.80458392648461
 30
0.0
  0
VERTEX
  5
384F5
  8
0
 10
628.91069785844115
 20
247.02167072478781
 30
0.0
  0
VERTEX
  5
384F6
  8
0
 10
628.78514249370085
 20
247.1288299068701
 30
0.0
  0
SEQEND
  5
384F7
  8
0
  0
LINE
  5
2C53D
  8
0
 10
628.78514249370085
 20
247.1288299068701
 30
0.0
 11
627.1536634345872
 21
248.5433740972685
 31
0.0
  0
LINE
  5
2C53F
  8
0
 10
633.5018928088657
 20
246.47230628540319
 30
0.0
 11
635.03514249370085
 21
244.93905660056771
 31
0.0
  0
POLYLINE
  5
2C540
  8
0
 66
     1
 10
0.0
 20
0.0
 30
0.0
  0
VERTEX
  5
384F8
  8
0
 10
635.03514249370085
 20
244.93905660056771
 30
0.0
  0
VERTEX
  5
384F9
  8
0
 10
635.20197311316201
 20
244.77009176237701
 30
0.0
  0
VERTEX
  5
384FA
  8
0
 10
635.53235177306033
 20
244.42264091428481
 30
0.0
  0
VERTEX
  5
384FB
  8
0
 10
635.85821958369502
 20
244.06263705518819
 30
0.0
  0
VERTEX
  5
384FC
  8
0
 10
636.01941215731529
 20
243.87798238846341
 30
0.0
  0
VERTEX
  5
384FD
  8
0
 10
636.17941758461336
 20
243.6902557973271
 30
0.0
  0
VERTEX
  5
384FE
  8
0
 10
636.49578909332672
 20
243.30567879071901
 30
0.0
  0
VERTEX
  5
384FF
  8
0
 10
636.80717978174027
 20
242.90909363454699
 30
0.0
  0
VERTEX
  5
38500
  8
0
 10
637.11343775143655
 20
242.5006937856478
 30
0.0
  0
VERTEX
  5
38501
  8
0
 10
637.41441360777173
 20
242.0806784641436
 30
0.0
  0
VERTEX
  5
38502
  8
0
 10
637.7099605327511
 20
241.64925255625991
 30
0.0
  0
VERTEX
  5
38503
  8
0
 10
637.85565298756319
 20
241.4293261841558
 30
0.0
  0
VERTEX
  5
38504
  8
0
 10
637.99993435664896
 20
241.20662651437991
 30
0.0
  0
VERTEX
  5
38505
  8
0
 10
638.28419362833438
 20
240.75301625438669
 30
0.0
  0
VERTEX
  5
38506
  8
0
 10
638.5625996842723
 20
240.28864305033721
 30
0.0
  0
VERTEX
  5
38507
  8
0
 10
638.83501671616489
 20
239.81373342652159
 30
0.0
  0
VERTEX
  5
38508
  8
0
 10
639.10131183719966
 20
239.32851904696599
 30
0.0
  0
VERTEX
  5
38509
  8
0
 10
639.3613551468718
 20
238.83323660242331
 30
0.0
  0
VERTEX
  5
3850A
  8
0
 10
639.48899261073245
 20
238.5818951677729
 30
0.0
  0
VERTEX
  5
3850B
  8
0
 10
639.61501979435172
 20
238.3281276949142
 30
0.0
  0
VERTEX
  5
3850C
  8
0
 10
639.86218204036209
 20
237.81343871987249
 30
0.0
  0
VERTEX
  5
3850D
  8
0
 10
640.10272131754084
 20
237.28942074595261
 30
0.0
  0
VERTEX
  5
3850E
  8
0
 10
640.22047054734344
 20
237.0239930911066
 30
0.0
  0
SEQEND
  5
3850F
  8
0
  0
LINE
  5
2C541
  8
0
 10
634.03514249370096
 20
241.93905660056771
 30
0.0
 11
629.5018928088657
 21
246.47230628540319
 31
0.0
  0
POLYLINE
  5
2C543
  8
0
 66
     1
 10
0.0
 20
0.0
 30
0.0
  0
VERTEX
  5
38510
  8
0
 10
640.22047054734344
 20
237.0239930911066
 30
0.0
  0
VERTEX
  5
38511
  8
0
 10
640.33255444666065
 20
236.7740517304496
 30
0.0
  0
VERTEX
  5
38512
  8
0
 10
640.56273152063511
 20
236.29160621079151
 30
0.0
  0
VERTEX
  5
38513
  8
0
 10
640.79767982727128
 20
235.8340476479743
 30
0.0
  0
VERTEX
  5
38514
  8
0
 10
640.91575954676273
 20
235.61517848009271
 30
0.0
  0
VERTEX
  5
38515
  8
0
 10
641.03363292842835
 20
235.4032042699323
 30
0.0
  0
VERTEX
  5
38516
  8
0
 10
641.26702440454915
 20
235.00071187681709
 30
0.0
  0
VERTEX
  5
38517
  8
0
 10
641.50012069905972
 20
234.6190610002941
 30
0.0
  0
VERTEX
  5
38518
  8
0
 10
641.73476154807986
 20
234.2531929565593
 30
0.0
  0
VERTEX
  5
38519
  8
0
 10
641.96782011032042
 20
233.9065387120859
 30
0.0
  0
VERTEX
  5
3851A
  8
0
 10
642.1962515993124
 20
233.58221277898701
 30
0.0
  0
VERTEX
  5
3851B
  8
0
 10
642.30781959193405
 20
233.4293096181959
 30
0.0
  0
VERTEX
  5
3851C
  8
0
 10
642.41715367072857
 20
233.28302031157321
 30
0.0
  0
VERTEX
  5
3851D
  8
0
 10
642.62778375702919
 20
233.01150230511391
 30
0.0
  0
VERTEX
  5
3851E
  8
0
 10
642.82563301464393
 20
232.7698856943839
 30
0.0
  0
VERTEX
  5
3851F
  8
0
 10
643.00858995444219
 20
232.5599333680411
 30
0.0
  0
VERTEX
  5
38520
  8
0
 10
643.17471567949099
 20
232.38324559417509
 30
0.0
  0
VERTEX
  5
38521
  8
0
 10
643.32234793037833
 20
232.24111864557611
 30
0.0
  0
VERTEX
  5
38522
  8
0
 10
643.38881801544665
 20
232.18330020712531
 30
0.0
  0
VERTEX
  5
38523
  8
0
 10
643.45022412218066
 20
232.1344061756599
 30
0.0
  0
VERTEX
  5
38524
  8
0
 10
643.55749009121416
 20
232.0635084634896
 30
0.0
  0
VERTEX
  5
38525
  8
0
 10
643.64370201621841
 20
232.02834606941221
 30
0.0
  0
VERTEX
  5
38526
  8
0
 10
643.67889806482538
 20
232.0239930911066
 30
0.0
  0
SEQEND
  5
38527
  8
0
  0
LINE
  5
2C544
  8
0
 10
643.78514249370085
 20
232.0239930911066
 30
0.0
 11
641.66508829555676
 21
232.0239930911066
 31
0.0
  0
POLYLINE
  5
2C545
  8
0
 66
     1
 10
0.0
 20
0.0
 30
0.0
  0
VERTEX
  5
38528
  8
0
 10
637.60739350499
 20
237.0239930911066
 30
0.0
  0
VERTEX
  5
38529
  8
0
 10
637.66733105769879
 20
236.91394729082231
 30
0.0
  0
VERTEX
  5
3852A
  8
0
 10
637.78857768911359
 20
236.6970475536173
 30
0.0
  0
VERTEX
  5
3852B
  8
0
 10
637.91131962012025
 20
236.48453155143079
 30
0.0
  0
VERTEX
  5
3852C
  8
0
 10
637.97312839644769
 20
236.37996489364241
 30
0.0
  0
VERTEX
  5
3852D
  8
0
 10
638.03516489820049
 20
236.2765504223353
 30
0.0
  0
VERTEX
  5
3852E
  8
0
 10
638.15973277326873
 20
236.07325037992271
 30
0.0
  0
VERTEX
  5
3852F
  8
0
 10
638.28465209730234
 20
235.87477615217591
 30
0.0
  0
VERTEX
  5
38530
  8
0
 10
638.40956148540045
 20
235.68127092640091
 30
0.0
  0
VERTEX
  5
38531
  8
0
 10
638.53411035551085
 20
235.49287476703381
 30
0.0
  0
VERTEX
  5
38532
  8
0
 10
638.65795996428085
 20
235.3097230504909
 30
0.0
  0
VERTEX
  5
38533
  8
0
 10
638.71952019264177
 20
235.2201544802401
 30
0.0
  0
VERTEX
  5
38534
  8
0
 10
638.78078449767384
 20
235.13194482839751
 30
0.0
  0
VERTEX
  5
38535
  8
0
 10
638.90227222511294
 20
234.9596611165816
 30
0.0
  0
VERTEX
  5
38536
  8
0
 10
639.02326789904623
 20
234.7914113152506
 30
0.0
  0
VERTEX
  5
38537
  8
0
 10
639.14479761051302
 20
234.62561658301911
 30
0.0
  0
VERTEX
  5
38538
  8
0
 10
639.26654650359012
 20
234.46260792041949
 30
0.0
  0
VERTEX
  5
38539
  8
0
 10
639.38819837443236
 20
234.30270927369969
 30
0.0
  0
VERTEX
  5
3853A
  8
0
 10
639.44888973319814
 20
234.22402458855279
 30
0.0
  0
VERTEX
  5
3853B
  8
0
 10
639.50943946585812
 20
234.14623409575549
 30
0.0
  0
VERTEX
  5
3853C
  8
0
 10
639.62996023002847
 20
233.9934846766491
 30
0.0
  0
VERTEX
  5
3853D
  8
0
 10
639.74945702961691
 20
233.8447514777408
 30
0.0
  0
VERTEX
  5
3853E
  8
0
 10
639.80872857710301
 20
233.77197833339599
 30
0.0
  0
SEQEND
  5
3853F
  8
0
  0
POLYLINE
  5
2C546
  8
0
 66
     1
 10
0.0
 20
0.0
 30
0.0
  0
VERTEX
  5
38540
  8
0
 10
640.3353150073392
 20
233.15519562060581
 30
0.0
  0
VERTEX
  5
38541
  8
0
 10
640.37848535789669
 20
233.1071233989592
 30
0.0
  0
VERTEX
  5
38542
  8
0
 10
640.46345822417618
 20
233.01370333040001
 30
0.0
  0
VERTEX
  5
38543
  8
0
 10
640.54650590093274
 20
232.92400406994781
 30
0.0
  0
VERTEX
  5
38544
  8
0
 10
640.58727105922935
 20
232.88058150989451
 30
0.0
  0
VERTEX
  5
38545
  8
0
 10
640.62751156797765
 20
232.83812652612909
 30
0.0
  0
VERTEX
  5
38546
  8
0
 10
640.70637415762837
 20
232.75615547431559
 30
0.0
  0
VERTEX
  5
38547
  8
0
 10
640.78300380808855
 20
232.67816537124651
 30
0.0
  0
VERTEX
  5
38548
  8
0
 10
640.85729644261426
 20
232.6042461998932
 30
0.0
  0
VERTEX
  5
38549
  8
0
 10
640.92915257508912
 20
232.53448327183739
 30
0.0
  0
VERTEX
  5
3854A
  8
0
 10
640.99847826324367
 20
232.46895619946099
 30
0.0
  0
VERTEX
  5
3854B
  8
0
 10
641.032164486856
 20
232.43780428379881
 30
0.0
  0
VERTEX
  5
3854C
  8
0
 10
641.0651856628624
 20
232.40773830876881
 30
0.0
  0
VERTEX
  5
3854D
  8
0
 10
641.12919353970426
 20
232.35089612022099
 30
0.0
  0
VERTEX
  5
3854E
  8
0
 10
641.19042773081583
 20
232.29848890890341
 30
0.0
  0
VERTEX
  5
3854F
  8
0
 10
641.24882154600948
 20
232.25056835701031
 30
0.0
  0
VERTEX
  5
38550
  8
0
 10
641.30431609844459
 20
232.20717831384849
 30
0.0
  0
VERTEX
  5
38551
  8
0
 10
641.35686021781373
 20
232.1683549189824
 30
0.0
  0
VERTEX
  5
38552
  8
0
 10
641.38201169045431
 20
232.15066511299031
 30
0.0
  0
VERTEX
  5
38553
  8
0
 10
641.4064093441159
 20
232.13412737735831
 30
0.0
  0
VERTEX
  5
38554
  8
0
 10
641.45292548980422
 20
232.1045177065503
 30
0.0
  0
VERTEX
  5
38555
  8
0
 10
641.49637782411503
 20
232.07954001165581
 30
0.0
  0
VERTEX
  5
38556
  8
0
 10
641.51694751136984
 20
232.068790247572
 30
0.0
  0
SEQEND
  5
38557
  8
0
  0
POLYLINE
  5
2C548
  8
0
 66
     1
 10
0.0
 20
0.0
 30
0.0
  0
VERTEX
  5
38558
  8
0
 10
708.78514249370085
 20
256.82847751804462
 30
0.0
  0
VERTEX
  5
38559
  8
0
 10
708.78505457176971
 20
256.74215043878979
 30
0.0
  0
VERTEX
  5
3855A
  8
0
 10
708.78432047169031
 20
256.57083796345017
 30
0.0
  0
VERTEX
  5
3855B
  8
0
 10
708.78277321263624
 20
256.40140105726192
 30
0.0
  0
VERTEX
  5
3855C
  8
0
 10
708.78166865102594
 20
256.3174180779161
 30
0.0
  0
VERTEX
  5
3855D
  8
0
 10
708.78032953360753
 20
256.23394231639941
 30
0.0
  0
VERTEX
  5
3855E
  8
0
 10
708.77690573351413
 20
256.06856229535327
 30
0.0
  0
VERTEX
  5
3855F
  8
0
 10
708.77241804633468
 20
255.9053590231743
 30
0.0
  0
VERTEX
  5
38560
  8
0
 10
708.76678301226787
 20
255.74442753299809
 30
0.0
  0
VERTEX
  5
38561
  8
0
 10
708.75991783960944
 20
255.58585940201061
 30
0.0
  0
VERTEX
  5
38562
  8
0
 10
708.75174071382344
 20
255.42974164029741
 30
0.0
  0
VERTEX
  5
38563
  8
0
 10
708.74713490072793
 20
255.3526268329874
 30
0.0
  0
VERTEX
  5
38564
  8
0
 10
708.74217099354189
 20
255.276154838466
 30
0.0
  0
VERTEX
  5
38565
  8
0
 10
708.7311298996342
 20
255.1251792587841
 30
0.0
  0
VERTEX
  5
38566
  8
0
 10
708.71854094570108
 20
254.97689356115831
 30
0.0
  0
VERTEX
  5
38567
  8
0
 10
708.70433036187569
 20
254.8313739184382
 30
0.0
  0
VERTEX
  5
38568
  8
0
 10
708.68842751620878
 20
254.68869340369429
 30
0.0
  0
VERTEX
  5
38569
  8
0
 10
708.67076531359601
 20
254.5489213905193
 30
0.0
  0
VERTEX
  5
3856A
  8
0
 10
708.66125454464475
 20
254.4801465951337
 30
0.0
  0
VERTEX
  5
3856B
  8
0
 10
708.65128056367575
 20
254.41212296680081
 30
0.0
  0
VERTEX
  5
3856C
  8
0
 10
708.62991430819102
 20
254.2783583630353
 30
0.0
  0
VERTEX
  5
3856D
  8
0
 10
708.60661209735736
 20
254.1476823969619
 30
0.0
  0
VERTEX
  5
3856E
  8
0
 10
708.59421928003906
 20
254.08351817109221
 30
0.0
  0
SEQEND
  5
3856F
  8
0
  0
POLYLINE
  5
2C549
  8
0
 66
     1
 10
0.0
 20
0.0
 30
0.0
  0
VERTEX
  5
38570
  8
0
 10
706.54516745501905
 20
254.08351817109221
 30
0.0
  0
VERTEX
  5
38571
  8
0
 10
706.56136810957298
 20
254.1499631824345
 30
0.0
  0
VERTEX
  5
38572
  8
0
 10
706.59132925891004
 20
254.2834887474705
 30
0.0
  0
VERTEX
  5
38573
  8
0
 10
706.6181796568269
 20
254.41743773190501
 30
0.0
  0
VERTEX
  5
38574
  8
0
 10
706.63052167435967
 20
254.48455766061849
 30
0.0
  0
VERTEX
  5
38575
  8
0
 10
706.64229139348629
 20
254.5524121597382
 30
0.0
  0
VERTEX
  5
38576
  8
0
 10
706.66418643010081
 20
254.6905142166743
 30
0.0
  0
VERTEX
  5
38577
  8
0
 10
706.68394464916184
 20
254.8317542265481
 30
0.0
  0
VERTEX
  5
38578
  8
0
 10
706.70163797742714
 20
254.97606308405099
 30
0.0
  0
VERTEX
  5
38579
  8
0
 10
706.71734381097599
 20
255.123365758011
 30
0.0
  0
VERTEX
  5
3857A
  8
0
 10
706.73114458790633
 20
255.27358202078361
 30
0.0
  0
VERTEX
  5
3857B
  8
0
 10
706.73735760114823
 20
255.34975643655159
 30
0.0
  0
VERTEX
  5
3857C
  8
0
 10
706.74312729825544
 20
255.4266271826055
 30
0.0
  0
VERTEX
  5
3857D
  8
0
 10
706.75338294666756
 20
255.58241283060491
 30
0.0
  0
VERTEX
  5
3857E
  8
0
 10
706.76200598145908
 20
255.7408475732486
 30
0.0
  0
VERTEX
  5
3857F
  8
0
 10
706.76909370269607
 20
255.90183780918099
 30
0.0
  0
VERTEX
  5
38580
  8
0
 10
706.77474567907495
 20
256.06528920143728
 30
0.0
  0
VERTEX
  5
38581
  8
0
 10
706.7790629813278
 20
256.23110151082619
 30
0.0
  0
VERTEX
  5
38582
  8
0
 10
706.78075302288289
 20
256.31486007003878
 30
0.0
  0
VERTEX
  5
38583
  8
0
 10
706.78214776971299
 20
256.39916886208681
 30
0.0
  0
VERTEX
  5
38584
  8
0
 10
706.78410286656083
 20
256.56938180016141
 30
0.0
  0
VERTEX
  5
38585
  8
0
 10
706.78503123994074
 20
256.74162787220439
 30
0.0
  0
VERTEX
  5
38586
  8
0
 10
706.78514249370096
 20
256.82847751804462
 30
0.0
  0
SEQEND
  5
38587
  8
0
  0
POLYLINE
  5
2C54B
  8
0
 66
     1
 10
0.0
 20
0.0
 30
0.0
  0
VERTEX
  5
38588
  8
0
 10
702.78514249370096
 20
249.1000546662608
 30
0.0
  0
VERTEX
  5
38589
  8
0
 10
702.93841469206586
 20
249.19083659561511
 30
0.0
  0
VERTEX
  5
3858A
  8
0
 10
703.23870604275965
 20
249.3825245499074
 30
0.0
  0
VERTEX
  5
3858B
  8
0
 10
703.53016547819789
 20
249.58739173765659
 30
0.0
  0
VERTEX
  5
3858C
  8
0
 10
703.67240188797041
 20
249.6946415825237
 30
0.0
  0
VERTEX
  5
3858D
  8
0
 10
703.81221500168022
 20
249.80503188428841
 30
0.0
  0
VERTEX
  5
3858E
  8
0
 10
704.084295277416
 20
250.03501338501789
 30
0.0
  0
VERTEX
  5
3858F
  8
0
 10
704.34586673974934
 20
250.27688016077491
 30
0.0
  0
VERTEX
  5
38590
  8
0
 10
704.59641066317783
 20
250.53015256265741
 30
0.0
  0
VERTEX
  5
38591
  8
0
 10
704.835430191044
 20
250.79432832312929
 30
0.0
  0
VERTEX
  5
38592
  8
0
 10
705.06245132085689
 20
251.06888355207411
 30
0.0
  0
VERTEX
  5
38593
  8
0
 10
705.1713208421894
 20
251.20988409396571
 30
0.0
  0
VERTEX
  5
38594
  8
0
 10
705.27702384429324
 20
251.35327377572551
 30
0.0
  0
VERTEX
  5
38595
  8
0
 10
705.47872224000946
 20
251.6469350164225
 30
0.0
  0
VERTEX
  5
38596
  8
0
 10
705.66714651749976
 20
251.9492849110388
 30
0.0
  0
VERTEX
  5
38597
  8
0
 10
705.8419230103209
 20
252.25972386587449
 30
0.0
  0
VERTEX
  5
38598
  8
0
 10
706.00270511711483
 20
252.57763624571729
 30
0.0
  0
VERTEX
  5
38599
  8
0
 10
706.14917398895852
 20
252.90239159471591
 30
0.0
  0
VERTEX
  5
3859A
  8
0
 10
706.21694906679932
 20
253.06713461979601
 30
0.0
  0
VERTEX
  5
3859B
  8
0
 10
706.28103916167652
 20
253.23334588664511
 30
0.0
  0
VERTEX
  5
3859C
  8
0
 10
706.39803913186438
 20
253.56984280208189
 30
0.0
  0
VERTEX
  5
3859D
  8
0
 10
706.49994187547861
 20
253.91121502995929
 30
0.0
  0
VERTEX
  5
3859E
  8
0
 10
706.54516745501905
 20
254.08351817109181
 30
0.0
  0
SEQEND
  5
3859F
  8
0
  0
POLYLINE
  5
2C54D
  8
0
 66
     1
 10
0.0
 20
0.0
 30
0.0
  0
VERTEX
  5
385A0
  8
0
 10
708.59421928003906
 20
254.08351817109221
 30
0.0
  0
VERTEX
  5
385A1
  8
0
 10
708.55750553181201
 20
253.9067205644678
 30
0.0
  0
VERTEX
  5
385A2
  8
0
 10
708.47453212207802
 20
253.5552579714454
 30
0.0
  0
VERTEX
  5
385A3
  8
0
 10
708.37892272690851
 20
253.2070204310053
 30
0.0
  0
VERTEX
  5
385A4
  8
0
 10
708.32641785936585
 20
253.03425315429649
 30
0.0
  0
VERTEX
  5
385A5
  8
0
 10
708.27080203103276
 20
252.86246208160671
 30
0.0
  0
VERTEX
  5
385A6
  8
0
 10
708.15031103523563
 20
252.5220322636583
 30
0.0
  0
VERTEX
  5
385A7
  8
0
 10
708.01760687247622
 20
252.1861749335267
 30
0.0
  0
VERTEX
  5
385A8
  8
0
 10
707.87286260297128
 20
251.85532808457361
 30
0.0
  0
VERTEX
  5
385A9
  8
0
 10
707.71626698850571
 20
251.52992317596451
 30
0.0
  0
VERTEX
  5
385AA
  8
0
 10
707.54802424626769
 20
251.2103845700012
 30
0.0
  0
VERTEX
  5
385AB
  8
0
 10
707.45960318105983
 20
251.05294566678961
 30
0.0
  0
VERTEX
  5
385AC
  8
0
 10
707.36835378252738
 20
250.89712897870871
 30
0.0
  0
VERTEX
  5
385AD
  8
0
 10
707.17748990650875
 20
250.59056492039829
 30
0.0
  0
VERTEX
  5
385AE
  8
0
 10
706.97568152482506
 20
250.2910921869165
 30
0.0
  0
VERTEX
  5
385AF
  8
0
 10
706.76319181687859
 20
249.9991013222762
 30
0.0
  0
VERTEX
  5
385B0
  8
0
 10
706.54029789164736
 20
249.71497311334269
 30
0.0
  0
VERTEX
  5
385B1
  8
0
 10
706.30729042630503
 20
249.4390780932508
 30
0.0
  0
VERTEX
  5
385B2
  8
0
 10
706.18708856982994
 20
249.3043308976703
 30
0.0
  0
VERTEX
  5
385B3
  8
0
 10
706.06447328714762
 20
249.17177605818921
 30
0.0
  0
VERTEX
  5
385B4
  8
0
 10
705.81216313332015
 20
248.91341559818781
 30
0.0
  0
VERTEX
  5
385B5
  8
0
 10
705.55068900385902
 20
248.66433364252001
 30
0.0
  0
VERTEX
  5
385B6
  8
0
 10
705.41662155281449
 20
248.5433740972685
 30
0.0
  0
SEQEND
  5
385B7
  8
0
  0
LINE
  5
2C54E
  8
0
 10
701.82094346462031
 20
248.5433740972685
 30
0.0
 11
702.78514249370096
 21
249.1000546662608
 31
0.0
  0
LINE
  5
2C551
  8
0
 10
705.41662155281449
 20
248.5433740972685
 30
0.0
 11
703.78514249370085
 21
247.1288299068701
 31
0.0
  0
POLYLINE
  5
2C552
  8
0
 66
     1
 10
0.0
 20
0.0
 30
0.0
  0
VERTEX
  5
385B8
  8
0
 10
703.78514249370085
 20
247.1288299068701
 30
0.0
  0
VERTEX
  5
385B9
  8
0
 10
703.65958712896065
 20
247.02167072478781
 30
0.0
  0
VERTEX
  5
385BA
  8
0
 10
703.41573216489826
 20
246.80458392648461
 30
0.0
  0
VERTEX
  5
385BB
  8
0
 10
703.18168692605764
 20
246.5839272522403
 30
0.0
  0
VERTEX
  5
385BC
  8
0
 10
703.06839217853621
 20
246.47230628540319
 30
0.0
  0
SEQEND
  5
385BD
  8
0
  0
POLYLINE
  5
2C553
  8
0
 66
     1
 10
0.0
 20
0.0
 30
0.0
  0
VERTEX
  5
385BE
  8
0
 10
699.06839217853621
 20
246.47230628540319
 30
0.0
  0
VERTEX
  5
385BF
  8
0
 10
699.13176740353799
 20
246.53515266304839
 30
0.0
  0
VERTEX
  5
385C0
  8
0
 10
699.2608842185432
 20
246.6600388670081
 30
0.0
  0
VERTEX
  5
385C1
  8
0
 10
699.39313335671079
 20
246.7838276780121
 30
0.0
  0
VERTEX
  5
385C2
  8
0
 10
699.46042383036718
 20
246.84530236887119
 30
0.0
  0
VERTEX
  5
385C3
  8
0
 10
699.5284868425681
 20
246.90649291025289
 30
0.0
  0
VERTEX
  5
385C4
  8
0
 10
699.66691604395999
 20
247.02800861559899
 30
0.0
  0
VERTEX
  5
385C5
  8
0
 10
699.80839167810734
 20
247.1483490890873
 30
0.0
  0
VERTEX
  5
385C6
  8
0
 10
699.95288381779915
 20
247.2674888743577
 30
0.0
  0
VERTEX
  5
385C7
  8
0
 10
700.10036189772563
 20
247.3854027690391
 30
0.0
  0
VERTEX
  5
385C8
  8
0
 10
700.25079472094183
 20
247.50206583008051
 30
0.0
  0
VERTEX
  5
385C9
  8
0
 10
700.32710924114724
 20
247.5599205754902
 30
0.0
  0
VERTEX
  5
385CA
  8
0
 10
700.40415046546821
 20
247.61745337902769
 30
0.0
  0
VERTEX
  5
385CB
  8
0
 10
700.56039669102165
 20
247.73154100724381
 30
0.0
  0
VERTEX
  5
385CC
  8
0
 10
700.71950034587758
 20
247.8443045810709
 30
0.0
  0
VERTEX
  5
385CD
  8
0
 10
700.88142777386258
 20
247.95572024693769
 30
0.0
  0
VERTEX
  5
385CE
  8
0
 10
701.04614472147227
 20
248.0657644364037
 30
0.0
  0
VERTEX
  5
385CF
  8
0
 10
701.21361634511845
 20
248.17441387114519
 30
0.0
  0
VERTEX
  5
385D0
  8
0
 10
701.29837411229414
 20
248.22820836155961
 30
0.0
  0
VERTEX
  5
385D1
  8
0
 10
701.38380721849944
 20
248.281645567879
 30
0.0
  0
VERTEX
  5
385D2
  8
0
 10
701.55668134009375
 20
248.38743684322569
 30
0.0
  0
VERTEX
  5
385D3
  8
0
 10
701.73220214077583
 20
248.49176531850659
 30
0.0
  0
VERTEX
  5
385D4
  8
0
 10
701.82094346462031
 20
248.5433740972685
 30
0.0
  0
SEQEND
  5
385D5
  8
0
  0
LINE
  5
2C557
  8
0
 10
708.78514249370085
 20
350.5239930911066
 30
0.0
 11
708.78514249370085
 21
256.82847751804462
 31
0.0
  0
LINE
  5
2C559
  8
0
 10
697.53514249370085
 20
244.93905660056771
 30
0.0
 11
699.06839217853621
 21
246.47230628540319
 31
0.0
  0
LINE
  5
2C55B
  8
0
 10
703.06839217853621
 20
246.47230628540319
 30
0.0
 11
698.53514249370085
 21
241.93905660056771
 31
0.0
  0
POLYLINE
  5
2C55C
  8
0
 66
     1
 10
0.0
 20
0.0
 30
0.0
  0
VERTEX
  5
385D6
  8
0
 10
698.53514249370085
 20
241.93905660056771
 30
0.0
  0
VERTEX
  5
385D7
  8
0
 10
698.42525529886052
 20
241.82812572300961
 30
0.0
  0
VERTEX
  5
385D8
  8
0
 10
698.20707599435946
 20
241.60159737841789
 30
0.0
  0
VERTEX
  5
385D9
  8
0
 10
697.99107237927103
 20
241.3688979318195
 30
0.0
  0
VERTEX
  5
385DA
  8
0
 10
697.88390465885391
 20
241.25025356630979
 30
0.0
  0
VERTEX
  5
385DB
  8
0
 10
697.77730263048397
 20
241.1300900568408
 30
0.0
  0
VERTEX
  5
385DC
  8
0
 10
697.56582432323398
 20
240.8852380723097
 30
0.0
  0
VERTEX
  5
385DD
  8
0
 10
697.35669441559514
 20
240.6344079249306
 30
0.0
  0
VERTEX
  5
385DE
  8
0
 10
697.14996923314095
 20
240.3776671715255
 30
0.0
  0
VERTEX
  5
385DF
  8
0
 10
696.94570445377303
 20
240.11508496083661
 30
0.0
  0
VERTEX
  5
385E0
  8
0
 10
696.74395509272495
 20
239.84673201490301
 30
0.0
  0
VERTEX
  5
385E1
  8
0
 10
696.64404070148316
 20
239.71041404237619
 30
0.0
  0
VERTEX
  5
385E2
  8
0
 10
696.54477548774571
 20
239.57268061001329
 30
0.0
  0
VERTEX
  5
385E3
  8
0
 10
696.34821928446422
 20
239.29300455723839
 30
0.0
  0
VERTEX
  5
385E4
  8
0
 10
696.15433942194079
 20
239.00777918255241
 30
0.0
  0
VERTEX
  5
385E5
  8
0
 10
695.96318811840933
 20
238.717081306544
 30
0.0
  0
VERTEX
  5
385E6
  8
0
 10
695.77481685721239
 20
238.4209892237277
 30
0.0
  0
VERTEX
  5
385E7
  8
0
 10
695.58927637293618
 20
238.11958268145511
 30
0.0
  0
VERTEX
  5
385E8
  8
0
 10
695.4975833185963
 20
237.9669118010525
 30
0.0
  0
VERTEX
  5
385E9
  8
0
 10
695.40661663774506
 20
237.8129428584366
 30
0.0
  0
VERTEX
  5
385EA
  8
0
 10
695.22688684792274
 20
237.50115234287799
 30
0.0
  0
VERTEX
  5
385EB
  8
0
 10
695.05013541062215
 20
237.18429511023581
 30
0.0
  0
VERTEX
  5
385EC
  8
0
 10
694.96289148241203
 20
237.0239930911066
 30
0.0
  0
SEQEND
  5
385ED
  8
0
  0
POLYLINE
  5
2C55E
  8
0
 66
     1
 10
0.0
 20
0.0
 30
0.0
  0
VERTEX
  5
385EE
  8
0
 10
694.96289148241192
 20
237.0239930911066
 30
0.0
  0
VERTEX
  5
385EF
  8
0
 10
694.82698796698742
 20
236.77719655845749
 30
0.0
  0
VERTEX
  5
385F0
  8
0
 10
694.54963237116135
 20
236.30060838065131
 30
0.0
  0
VERTEX
  5
385F1
  8
0
 10
694.26862773722553
 20
235.8481503167709
 30
0.0
  0
VERTEX
  5
385F2
  8
0
 10
694.12810143091281
 20
235.6315006956429
 30
0.0
  0
VERTEX
  5
385F3
  8
0
 10
693.98824118344305
 20
235.4215102197291
 30
0.0
  0
VERTEX
  5
385F4
  8
0
 10
693.71243763477719
 20
235.02226248399981
 30
0.0
  0
VERTEX
  5
385F5
  8
0
 10
693.43823093830531
 20
234.64285534758889
 30
0.0
  0
VERTEX
  5
385F6
  8
0
 10
693.16314080037216
 20
234.2780695419078
 30
0.0
  0
VERTEX
  5
385F7
  8
0
 10
692.89070962019116
 20
233.93140311093379
 30
0.0
  0
VERTEX
  5
385F8
  8
0
 10
692.62435488778794
 20
233.6060735125489
 30
0.0
  0
VERTEX
  5
385F9
  8
0
 10
692.49447416065448
 20
233.4523378733729
 30
0.0
  0
VERTEX
  5
385FA
  8
0
 10
692.36731210723269
 20
233.3050211452441
 30
0.0
  0
VERTEX
  5
385FB
  8
0
 10
692.12262597953043
 20
233.03095006342619
 30
0.0
  0
VERTEX
  5
385FC
  8
0
 10
691.89307606728971
 20
232.78627518961909
 30
0.0
  0
VERTEX
  5
385FD
  8
0
 10
691.68099404697
 20
232.57296367304249
 30
0.0
  0
VERTEX
  5
385FE
  8
0
 10
691.48853874302665
 20
232.39284416506831
 30
0.0
  0
VERTEX
  5
385FF
  8
0
 10
691.31757809429814
 20
232.24745845802269
 30
0.0
  0
VERTEX
  5
38600
  8
0
 10
691.24062428811021
 20
232.18815446412231
 30
0.0
  0
VERTEX
  5
38601
  8
0
 10
691.2283665873947
 20
232.17914938394091
 30
0.0
  0
VERTEX
  5
38602
  8
0
 10
691.20434324352391
 20
232.16189613248659
 30
0.0
  0
VERTEX
  5
38603
  8
0
 10
691.18097952727965
 20
232.14565435463831
 30
0.0
  0
VERTEX
  5
38604
  8
0
 10
691.1695462869011
 20
232.13791353626311
 30
0.0
  0
VERTEX
  5
38605
  8
0
 10
691.15827942154851
 20
232.13042646361151
 30
0.0
  0
VERTEX
  5
38606
  8
0
 10
691.13624657948515
 20
232.11621451427069
 30
0.0
  0
VERTEX
  5
38607
  8
0
 10
691.11488431220823
 20
232.10302018821719
 30
0.0
  0
VERTEX
  5
38608
  8
0
 10
691.0941955774407
 20
232.09084478023351
 30
0.0
  0
VERTEX
  5
38609
  8
0
 10
691.07418296913727
 20
232.07968918614191
 30
0.0
  0
VERTEX
  5
3860A
  8
0
 10
691.05484870813609
 20
232.06955389211541
 30
0.0
  0
VERTEX
  5
3860B
  8
0
 10
691.04543654780014
 20
232.0648688952497
 30
0.0
  0
VERTEX
  5
3860C
  8
0
 10
691.0361946338727
 20
232.0604389654905
 30
0.0
  0
VERTEX
  5
3860D
  8
0
 10
691.01822219719122
 20
232.05234404713019
 30
0.0
  0
VERTEX
  5
3860E
  8
0
 10
691.00093245428491
 20
232.04526834537501
 30
0.0
  0
VERTEX
  5
3860F
  8
0
 10
690.98432606179915
 20
232.03921063163489
 30
0.0
  0
VERTEX
  5
38610
  8
0
 10
690.96840327312509
 20
232.03416923765869
 30
0.0
  0
VERTEX
  5
38611
  8
0
 10
690.95316393590929
 20
232.03014205452649
 30
0.0
  0
VERTEX
  5
38612
  8
0
 10
690.94580040270921
 20
232.02850801264319
 30
0.0
  0
VERTEX
  5
38613
  8
0
 10
690.93860749080682
 20
232.02712653340629
 30
0.0
  0
VERTEX
  5
38614
  8
0
 10
690.92473297149809
 20
232.02511968811311
 30
0.0
  0
VERTEX
  5
38615
  8
0
 10
690.91153900598806
 20
232.02411809950991
 30
0.0
  0
VERTEX
  5
38616
  8
0
 10
690.90519669184505
 20
232.0239930911066
 30
0.0
  0
SEQEND
  5
38617
  8
0
  0
LINE
  5
2C55F
  8
0
 10
690.90519669184505
 20
232.0239930911066
 30
0.0
 11
688.78514249370085
 21
232.0239930911066
 31
0.0
  0
POLYLINE
  5
2C560
  8
0
 66
     1
 10
0.0
 20
0.0
 30
0.0
  0
VERTEX
  5
38618
  8
0
 10
705.41662155281449
 20
248.5433740972685
 30
0.0
  0
VERTEX
  5
38619
  8
0
 10
705.55068900385902
 20
248.66433364252001
 30
0.0
  0
VERTEX
  5
3861A
  8
0
 10
705.81216313332004
 20
248.91341559818781
 30
0.0
  0
VERTEX
  5
3861B
  8
0
 10
706.06447328714762
 20
249.17177605818921
 30
0.0
  0
VERTEX
  5
3861C
  8
0
 10
706.18708856982983
 20
249.3043308976703
 30
0.0
  0
VERTEX
  5
3861D
  8
0
 10
706.30729042630503
 20
249.4390780932508
 30
0.0
  0
VERTEX
  5
3861E
  8
0
 10
706.54029789164736
 20
249.71497311334269
 30
0.0
  0
VERTEX
  5
3861F
  8
0
 10
706.76319181687859
 20
249.9991013222762
 30
0.0
  0
VERTEX
  5
38620
  8
0
 10
706.97568152482506
 20
250.2910921869165
 30
0.0
  0
VERTEX
  5
38621
  8
0
 10
707.17748990650875
 20
250.59056492039829
 30
0.0
  0
VERTEX
  5
38622
  8
0
 10
707.36835378252738
 20
250.89712897870871
 30
0.0
  0
VERTEX
  5
38623
  8
0
 10
707.45960318105983
 20
251.05294566678961
 30
0.0
  0
VERTEX
  5
38624
  8
0
 10
707.54802424626769
 20
251.2103845700012
 30
0.0
  0
VERTEX
  5
38625
  8
0
 10
707.71626698850571
 20
251.52992317596451
 30
0.0
  0
VERTEX
  5
38626
  8
0
 10
707.87286260297128
 20
251.85532808457361
 30
0.0
  0
VERTEX
  5
38627
  8
0
 10
708.01760687247622
 20
252.1861749335267
 30
0.0
  0
VERTEX
  5
38628
  8
0
 10
708.15031103523563
 20
252.5220322636583
 30
0.0
  0
VERTEX
  5
38629
  8
0
 10
708.27080203103276
 20
252.86246208160671
 30
0.0
  0
VERTEX
  5
3862A
  8
0
 10
708.32641785936585
 20
253.03425315429649
 30
0.0
  0
VERTEX
  5
3862B
  8
0
 10
708.37892272690851
 20
253.2070204310053
 30
0.0
  0
VERTEX
  5
3862C
  8
0
 10
708.47453212207802
 20
253.5552579714454
 30
0.0
  0
VERTEX
  5
3862D
  8
0
 10
708.55750553181201
 20
253.9067205644678
 30
0.0
  0
VERTEX
  5
3862E
  8
0
 10
708.59421928003906
 20
254.08351817109221
 30
0.0
  0
SEQEND
  5
3862F
  8
0
  0
POLYLINE
  5
2C561
  8
0
 66
     1
 10
0.0
 20
0.0
 30
0.0
  0
VERTEX
  5
38630
  8
0
 10
637.60739350499
 20
237.0239930911066
 30
0.0
  0
VERTEX
  5
38631
  8
0
 10
637.52014957677977
 20
237.18429511023581
 30
0.0
  0
VERTEX
  5
38632
  8
0
 10
637.34339813947906
 20
237.50115234287799
 30
0.0
  0
VERTEX
  5
38633
  8
0
 10
637.16366834965675
 20
237.8129428584366
 30
0.0
  0
VERTEX
  5
38634
  8
0
 10
637.07270166880562
 20
237.9669118010525
 30
0.0
  0
VERTEX
  5
38635
  8
0
 10
636.98100861446562
 20
238.11958268145511
 30
0.0
  0
VERTEX
  5
38636
  8
0
 10
636.79546813018942
 20
238.4209892237277
 30
0.0
  0
VERTEX
  5
38637
  8
0
 10
636.60709686899258
 20
238.717081306544
 30
0.0
  0
VERTEX
  5
38638
  8
0
 10
636.41594556546113
 20
239.00777918255241
 30
0.0
  0
VERTEX
  5
38639
  8
0
 10
636.2220657029377
 20
239.29300455723839
 30
0.0
  0
VERTEX
  5
3863A
  8
0
 10
636.02550949965621
 20
239.57268061001329
 30
0.0
  0
VERTEX
  5
3863B
  8
0
 10
635.92624428591876
 20
239.71041404237619
 30
0.0
  0
VERTEX
  5
3863C
  8
0
 10
635.82632989467686
 20
239.84673201490301
 30
0.0
  0
VERTEX
  5
3863D
  8
0
 10
635.62458053362877
 20
240.11508496083661
 30
0.0
  0
VERTEX
  5
3863E
  8
0
 10
635.42031575426086
 20
240.3776671715255
 30
0.0
  0
VERTEX
  5
3863F
  8
0
 10
635.21359057180655
 20
240.6344079249306
 30
0.0
  0
VERTEX
  5
38640
  8
0
 10
635.00446066416794
 20
240.8852380723097
 30
0.0
  0
VERTEX
  5
38641
  8
0
 10
634.79298235691783
 20
241.1300900568408
 30
0.0
  0
VERTEX
  5
38642
  8
0
 10
634.6863803285479
 20
241.25025356630979
 30
0.0
  0
VERTEX
  5
38643
  8
0
 10
634.57921260813089
 20
241.3688979318195
 30
0.0
  0
VERTEX
  5
38644
  8
0
 10
634.36320899304235
 20
241.60159737841789
 30
0.0
  0
VERTEX
  5
38645
  8
0
 10
634.1450296885414
 20
241.82812572300961
 30
0.0
  0
VERTEX
  5
38646
  8
0
 10
634.03514249370096
 20
241.93905660056771
 30
0.0
  0
SEQEND
  5
38647
  8
0
  0
POLYLINE
  5
2C562
  8
0
 66
     1
 10
0.0
 20
0.0
 30
0.0
  0
VERTEX
  5
38648
  8
0
 10
641.66508829555676
 20
232.0239930911066
 30
0.0
  0
VERTEX
  5
38649
  8
0
 10
641.65874598141374
 20
232.02411809950991
 30
0.0
  0
VERTEX
  5
3864A
  8
0
 10
641.64555201590383
 20
232.02511968811311
 30
0.0
  0
VERTEX
  5
3864B
  8
0
 10
641.6316774965951
 20
232.02712653340629
 30
0.0
  0
VERTEX
  5
3864C
  8
0
 10
641.62448458469271
 20
232.02850801264319
 30
0.0
  0
VERTEX
  5
3864D
  8
0
 10
641.61712105149263
 20
232.03014205452649
 30
0.0
  0
VERTEX
  5
3864E
  8
0
 10
641.60188171427671
 20
232.03416923765869
 30
0.0
  0
VERTEX
  5
3864F
  8
0
 10
641.58595892560265
 20
232.03921063163489
 30
0.0
  0
VERTEX
  5
38650
  8
0
 10
641.56935253311701
 20
232.04526834537501
 30
0.0
  0
VERTEX
  5
38651
  8
0
 10
641.5520627902107
 20
232.05234404713019
 30
0.0
  0
VERTEX
  5
38652
  8
0
 10
641.53409035352922
 20
232.0604389654905
 30
0.0
  0
VERTEX
  5
38653
  8
0
 10
641.52484843960167
 20
232.0648688952497
 30
0.0
  0
VERTEX
  5
38654
  8
0
 10
641.51543627926583
 20
232.06955389211541
 30
0.0
  0
VERTEX
  5
38655
  8
0
 10
641.49610201826465
 20
232.07968918614191
 30
0.0
  0
VERTEX
  5
38656
  8
0
 10
641.47608940996122
 20
232.09084478023351
 30
0.0
  0
VERTEX
  5
38657
  8
0
 10
641.45540067519357
 20
232.10302018821719
 30
0.0
  0
VERTEX
  5
38658
  8
0
 10
641.43403840791666
 20
232.11621451427069
 30
0.0
  0
VERTEX
  5
38659
  8
0
 10
641.41200556585341
 20
232.13042646361151
 30
0.0
  0
VERTEX
  5
3865A
  8
0
 10
641.40073870050082
 20
232.13791353626311
 30
0.0
  0
VERTEX
  5
3865B
  8
0
 10
641.38930546012216
 20
232.14565435463831
 30
0.0
  0
VERTEX
  5
3865C
  8
0
 10
641.36594174387801
 20
232.16189613248659
 30
0.0
  0
VERTEX
  5
3865D
  8
0
 10
641.34191840000733
 20
232.17914938394091
 30
0.0
  0
VERTEX
  5
3865E
  8
0
 10
641.32966069929171
 20
232.18815446412231
 30
0.0
  0
VERTEX
  5
3865F
  8
0
 10
641.25270689310366
 20
232.24745845802269
 30
0.0
  0
VERTEX
  5
38660
  8
0
 10
641.08174624437515
 20
232.39284416506831
 30
0.0
  0
VERTEX
  5
38661
  8
0
 10
640.88929094043169
 20
232.57296367304249
 30
0.0
  0
VERTEX
  5
38662
  8
0
 10
640.67720892011221
 20
232.78627518961909
 30
0.0
  0
VERTEX
  5
38663
  8
0
 10
640.44765900787149
 20
233.03095006342619
 30
0.0
  0
VERTEX
  5
38664
  8
0
 10
640.20297288016923
 20
233.3050211452441
 30
0.0
  0
VERTEX
  5
38665
  8
0
 10
640.07581082674744
 20
233.4523378733729
 30
0.0
  0
VERTEX
  5
38666
  8
0
 10
639.94593009961375
 20
233.6060735125489
 30
0.0
  0
VERTEX
  5
38667
  8
0
 10
639.67957536721065
 20
233.93140311093379
 30
0.0
  0
VERTEX
  5
38668
  8
0
 10
639.40714418702964
 20
234.2780695419078
 30
0.0
  0
VERTEX
  5
38669
  8
0
 10
639.13205404909661
 20
234.64285534758889
 30
0.0
  0
VERTEX
  5
3866A
  8
0
 10
638.85784735262473
 20
235.02226248399981
 30
0.0
  0
VERTEX
  5
3866B
  8
0
 10
638.58204380395875
 20
235.4215102197291
 30
0.0
  0
VERTEX
  5
3866C
  8
0
 10
638.44218355648911
 20
235.6315006956429
 30
0.0
  0
VERTEX
  5
3866D
  8
0
 10
638.30165725017628
 20
235.8481503167709
 30
0.0
  0
VERTEX
  5
3866E
  8
0
 10
638.02065261624045
 20
236.30060838065131
 30
0.0
  0
VERTEX
  5
3866F
  8
0
 10
637.7432970204145
 20
236.77719655845749
 30
0.0
  0
VERTEX
  5
38670
  8
0
 10
637.60739350499
 20
237.0239930911066
 30
0.0
  0
SEQEND
  5
38671
  8
0
  0
POLYLINE
  5
2C566
  8
0
 66
     1
 10
0.0
 20
0.0
 30
0.0
  0
VERTEX
  5
38672
  8
0
 10
692.34981444005848
 20
237.0239930911066
 30
0.0
  0
VERTEX
  5
38673
  8
0
 10
692.46756366986097
 20
237.28942074595261
 30
0.0
  0
VERTEX
  5
38674
  8
0
 10
692.70810294703961
 20
237.81343871987249
 30
0.0
  0
VERTEX
  5
38675
  8
0
 10
692.95526519305008
 20
238.3281276949142
 30
0.0
  0
VERTEX
  5
38676
  8
0
 10
693.08129237666935
 20
238.5818951677729
 30
0.0
  0
VERTEX
  5
38677
  8
0
 10
693.20892984052989
 20
238.83323660242331
 30
0.0
  0
VERTEX
  5
38678
  8
0
 10
693.46897315020215
 20
239.32851904696599
 30
0.0
  0
VERTEX
  5
38679
  8
0
 10
693.73526827123692
 20
239.81373342652159
 30
0.0
  0
VERTEX
  5
3867A
  8
0
 10
694.00768530312939
 20
240.28864305033721
 30
0.0
  0
VERTEX
  5
3867B
  8
0
 10
694.28609135906754
 20
240.75301625438669
 30
0.0
  0
VERTEX
  5
3867C
  8
0
 10
694.57035063075284
 20
241.20662651437991
 30
0.0
  0
VERTEX
  5
3867D
  8
0
 10
694.71463199983862
 20
241.4293261841558
 30
0.0
  0
VERTEX
  5
3867E
  8
0
 10
694.86032445465059
 20
241.64925255625991
 30
0.0
  0
VERTEX
  5
3867F
  8
0
 10
695.15587137963018
 20
242.0806784641436
 30
0.0
  0
VERTEX
  5
38680
  8
0
 10
695.45684723596526
 20
242.5006937856478
 30
0.0
  0
VERTEX
  5
38681
  8
0
 10
695.76310520566153
 20
242.90909363454699
 30
0.0
  0
VERTEX
  5
38682
  8
0
 10
696.07449589407508
 20
243.30567879071901
 30
0.0
  0
VERTEX
  5
38683
  8
0
 10
696.39086740278844
 20
243.6902557973271
 30
0.0
  0
VERTEX
  5
38684
  8
0
 10
696.55087283008663
 20
243.87798238846341
 30
0.0
  0
VERTEX
  5
38685
  8
0
 10
696.7120654037069
 20
244.06263705518819
 30
0.0
  0
VERTEX
  5
38686
  8
0
 10
697.03793321434159
 20
244.42264091428481
 30
0.0
  0
VERTEX
  5
38687
  8
0
 10
697.36831187423979
 20
244.77009176237701
 30
0.0
  0
VERTEX
  5
38688
  8
0
 10
697.53514249370085
 20
244.93905660056771
 30
0.0
  0
SEQEND
  5
38689
  8
0
  0
POLYLINE
  5
2C567
  8
0
 66
     1
 10
0.0
 20
0.0
 30
0.0
  0
VERTEX
  5
3868A
  8
0
 10
688.89138692257643
 20
232.0239930911066
 30
0.0
  0
VERTEX
  5
3868B
  8
0
 10
688.92658297118351
 20
232.02834606941221
 30
0.0
  0
VERTEX
  5
3868C
  8
0
 10
689.01279489618764
 20
232.0635084634896
 30
0.0
  0
VERTEX
  5
3868D
  8
0
 10
689.12006086522115
 20
232.1344061756599
 30
0.0
  0
VERTEX
  5
3868E
  8
0
 10
689.18146697195505
 20
232.18330020712531
 30
0.0
  0
VERTEX
  5
3868F
  8
0
 10
689.24793705702348
 20
232.24111864557611
 30
0.0
  0
VERTEX
  5
38690
  8
0
 10
689.3955693079107
 20
232.38324559417509
 30
0.0
  0
VERTEX
  5
38691
  8
0
 10
689.56169503295973
 20
232.5599333680411
 30
0.0
  0
VERTEX
  5
38692
  8
0
 10
689.74465197275799
 20
232.7698856943839
 30
0.0
  0
VERTEX
  5
38693
  8
0
 10
689.94250123037273
 20
233.01150230511391
 30
0.0
  0
VERTEX
  5
38694
  8
0
 10
690.15313131667335
 20
233.28302031157321
 30
0.0
  0
VERTEX
  5
38695
  8
0
 10
690.26246539546787
 20
233.4293096181959
 30
0.0
  0
VERTEX
  5
38696
  8
0
 10
690.37403338808952
 20
233.58221277898701
 30
0.0
  0
VERTEX
  5
38697
  8
0
 10
690.6024648770815
 20
233.9065387120859
 30
0.0
  0
VERTEX
  5
38698
  8
0
 10
690.83552343932195
 20
234.2531929565593
 30
0.0
  0
VERTEX
  5
38699
  8
0
 10
691.0701642883422
 20
234.6190610002941
 30
0.0
  0
VERTEX
  5
3869A
  8
0
 10
691.30326058285254
 20
235.00071187681709
 30
0.0
  0
VERTEX
  5
3869B
  8
0
 10
691.53665205897335
 20
235.4032042699323
 30
0.0
  0
VERTEX
  5
3869C
  8
0
 10
691.65452544063919
 20
235.61517848009271
 30
0.0
  0
VERTEX
  5
3869D
  8
0
 10
691.77260516013052
 20
235.8340476479743
 30
0.0
  0
VERTEX
  5
3869E
  8
0
 10
692.00755346676681
 20
236.29160621079151
 30
0.0
  0
VERTEX
  5
3869F
  8
0
 10
692.23773054074115
 20
236.7740517304496
 30
0.0
  0
VERTEX
  5
386A0
  8
0
 10
692.34981444005848
 20
237.0239930911066
 30
0.0
  0
SEQEND
  5
386A1
  8
0
  0
LINE
  5
2C568
  8
0
 10
688.78514249370085
 20
348.5239930911066
 30
0.0
 11
688.78514249370085
 21
232.0239930911066
 31
0.0
  0
LINE
  5
2C569
  8
0
 10
643.78514249370085
 20
348.5239930911066
 30
0.0
 11
643.78514249370085
 21
232.0239930911066
 31
0.0
  0
LINE
  5
2C570
  8
0
 10
659.27904201361218
 20
341.5239930911066
 30
0.0
 11
673.29124297378974
 21
341.5239930911066
 31
0.0
  0
POLYLINE
  5
2C571
  8
0
 66
     1
 10
0.0
 20
0.0
 30
0.0
  0
VERTEX
  5
386A2
  8
0
 10
656.10696475898385
 20
343.5448291750144
 30
0.0
  0
VERTEX
  5
386A3
  8
0
 10
656.11477726225553
 20
343.52818943309472
 30
0.0
  0
VERTEX
  5
386A4
  8
0
 10
656.13066390958818
 20
343.49503419234497
 30
0.0
  0
VERTEX
  5
386A5
  8
0
 10
656.14689794653282
 20
343.46204765574112
 30
0.0
  0
VERTEX
  5
386A6
  8
0
 10
656.15514467783544
 20
343.44561878964117
 30
0.0
  0
VERTEX
  5
386A7
  8
0
 10
656.16347758183815
 20
343.42923346299182
 30
0.0
  0
VERTEX
  5
386A8
  8
0
 10
656.18040098612016
 20
343.39659523479031
 30
0.0
  0
VERTEX
  5
386A9
  8
0
 10
656.19766629206345
 20
343.36413657241292
 30
0.0
  0
VERTEX
  5
386AA
  8
0
 10
656.21527159462744
 20
343.33186105732381
 30
0.0
  0
VERTEX
  5
386AB
  8
0
 10
656.23321495125674
 20
343.29977225077801
 30
0.0
  0
VERTEX
  5
386AC
  8
0
 10
656.25149438209485
 20
343.26787369343037
 30
0.0
  0
VERTEX
  5
386AD
  8
0
 10
656.2607594964918
 20
343.2519968589308
 30
0.0
  0
VERTEX
  5
386AE
  8
0
 10
656.27010787020413
 20
343.23616890494259
 30
0.0
  0
VERTEX
  5
386AF
  8
0
 10
656.28905336178605
 20
343.20466138359689
 30
0.0
  0
VERTEX
  5
386B0
  8
0
 10
656.30832876640989
 20
343.17335460590863
 30
0.0
  0
VERTEX
  5
386B1
  8
0
 10
656.37835971593324
 20
343.06541140837498
 30
0.0
  0
VERTEX
  5
386B2
  8
0
 10
656.44151022851645
 20
342.97499007291208
 30
0.0
  0
VERTEX
  5
386B3
  8
0
 10
656.50747835344555
 20
342.88660335649053
 30
0.0
  0
VERTEX
  5
386B4
  8
0
 10
656.64760268743566
 20
342.71628273825633
 30
0.0
  0
VERTEX
  5
386B5
  8
0
 10
656.79817629341665
 20
342.55512588561402
 30
0.0
  0
VERTEX
  5
386B6
  8
0
 10
656.95860125353079
 20
342.403772741794
 30
0.0
  0
VERTEX
  5
386B7
  8
0
 10
657.12824053084353
 20
342.2628243201475
 30
0.0
  0
VERTEX
  5
386B8
  8
0
 10
657.30642049897415
 20
342.1328403175599
 30
0.0
  0
VERTEX
  5
386B9
  8
0
 10
657.39849338439819
 20
342.07212303076182
 30
0.0
  0
VERTEX
  5
386BA
  8
0
 10
657.49243361702258
 20
342.01433689193118
 30
0.0
  0
VERTEX
  5
386BB
  8
0
 10
657.68554123916635
 20
341.90778461254791
 30
0.0
  0
VERTEX
  5
386BC
  8
0
 10
657.88497654777598
 20
341.81360659148368
 30
0.0
  0
VERTEX
  5
386BD
  8
0
 10
658.0899475983955
 20
341.73217680344709
 30
0.0
  0
VERTEX
  5
386BE
  8
0
 10
658.29964046450368
 20
341.6638186007558
 30
0.0
  0
VERTEX
  5
386BF
  8
0
 10
658.51322246956045
 20
341.60880342932393
 30
0.0
  0
VERTEX
  5
386C0
  8
0
 10
658.62120737321175
 20
341.58636984445963
 30
0.0
  0
VERTEX
  5
386C1
  8
0
 10
658.72984549351213
 20
341.56734975076779
 30
0.0
  0
VERTEX
  5
386C2
  8
0
 10
658.94864934061934
 20
341.53962217491062
 30
0.0
  0
VERTEX
  5
386C3
  8
0
 10
659.16876515523757
 20
341.52573080612768
 30
0.0
  0
VERTEX
  5
386C4
  8
0
 10
659.27904201361218
 20
341.5239930911066
 30
0.0
  0
SEQEND
  5
386C5
  8
0
  0
LINE
  5
2C572
  8
0
 10
654.18899878304467
 20
347.65792048371759
 30
0.0
 11
656.10696475898385
 21
343.5448291750144
 31
0.0
  0
POLYLINE
  5
2C573
  8
0
 66
     1
 10
0.0
 20
0.0
 30
0.0
  0
VERTEX
  5
386C6
  8
0
 10
652.82953710248955
 20
348.5239930911066
 30
0.0
  0
VERTEX
  5
386C7
  8
0
 10
652.8428136038209
 20
348.52393433479352
 30
0.0
  0
VERTEX
  5
386C8
  8
0
 10
652.87469045652836
 20
348.52331332862059
 30
0.0
  0
VERTEX
  5
386C9
  8
0
 10
652.91365916656014
 20
348.52163239292031
 30
0.0
  0
VERTEX
  5
386CA
  8
0
 10
652.93578444846764
 20
348.52022552675049
 30
0.0
  0
VERTEX
  5
386CB
  8
0
 10
652.95965184031661
 20
348.51833915377119
 30
0.0
  0
VERTEX
  5
386CC
  8
0
 10
653.01253184982738
 20
348.51278888719389
 30
0.0
  0
VERTEX
  5
386CD
  8
0
 10
653.07209501972602
 20
348.50425173633948
 30
0.0
  0
VERTEX
  5
386CE
  8
0
 10
653.13806509696178
 20
348.4919203633608
 30
0.0
  0
VERTEX
  5
386CF
  8
0
 10
653.21010301095885
 20
348.47491334712049
 30
0.0
  0
VERTEX
  5
386D0
  8
0
 10
653.28781705973199
 20
348.45227159363679
 30
0.0
  0
VERTEX
  5
386D1
  8
0
 10
653.32866312701867
 20
348.43851534672422
 30
0.0
  0
VERTEX
  5
386D2
  8
0
 10
653.3707528230068
 20
348.42295182669022
 30
0.0
  0
VERTEX
  5
386D3
  8
0
 10
653.45838871394903
 20
348.38581013122803
 30
0.0
  0
VERTEX
  5
386D4
  8
0
 10
653.55011823531845
 20
348.33957768778282
 30
0.0
  0
VERTEX
  5
386D5
  8
0
 10
653.64528541381185
 20
348.28278405571342
 30
0.0
  0
VERTEX
  5
386D6
  8
0
 10
653.70209546578212
 20
348.24409222750859
 30
0.0
  0
VERTEX
  5
386D7
  8
0
 10
653.71847225129443
 20
348.23221256670701
 30
0.0
  0
VERTEX
  5
386D8
  8
0
 10
653.73490616155129
 20
348.21994746602832
 30
0.0
  0
VERTEX
  5
386D9
  8
0
 10
653.74314321964414
 20
348.21366693830078
 30
0.0
  0
VERTEX
  5
386DA
  8
0
 10
653.75139296115196
 20
348.2072858595497
 30
0.0
  0
VERTEX
  5
386DB
  8
0
 10
653.76792828569035
 20
348.19421614133722
 30
0.0
  0
VERTEX
  5
386DC
  8
0
 10
653.78450761479371
 20
348.18072612885999
 30
0.0
  0
VERTEX
  5
386DD
  8
0
 10
653.80112623988987
 20
348.16680302634808
 30
0.0
  0
VERTEX
  5
386DE
  8
0
 10
653.81777922621995
 20
348.1524333885464
 30
0.0
  0
VERTEX
  5
386DF
  8
0
 10
653.83446136861676
 20
348.13760308538173
 30
0.0
  0
VERTEX
  5
386E0
  8
0
 10
653.84281166039875
 20
348.13001057301841
 30
0.0
  0
VERTEX
  5
386E1
  8
0
 10
653.85116714058347
 20
348.12229726812888
 30
0.0
  0
VERTEX
  5
386E2
  8
0
 10
653.86789063622984
 20
348.10650033771941
 30
0.0
  0
VERTEX
  5
386E3
  8
0
 10
653.88467215474645
 20
348.09014975009222
 30
0.0
  0
VERTEX
  5
386E4
  8
0
 10
653.89314532740582
 20
348.08169699291062
 30
0.0
  0
VERTEX
  5
386E5
  8
0
 10
653.90167265286982
 20
348.07305236570068
 30
0.0
  0
VERTEX
  5
386E6
  8
0
 10
653.91886726912787
 20
348.05518647163808
 30
0.0
  0
VERTEX
  5
386E7
  8
0
 10
653.9362103377531
 20
348.0365514105884
 30
0.0
  0
VERTEX
  5
386E8
  8
0
 10
653.94492300241041
 20
348.0269458787584
 30
0.0
  0
VERTEX
  5
386E9
  8
0
 10
653.95365522913994
 20
348.01714888821829
 30
0.0
  0
VERTEX
  5
386EA
  8
0
 10
653.97115454698815
 20
347.99698312724098
 30
0.0
  0
VERTEX
  5
386EB
  8
0
 10
653.9886603558366
 20
347.97606098970982
 30
0.0
  0
VERTEX
  5
386EC
  8
0
 10
654.00612444205274
 20
347.95439205519688
 30
0.0
  0
VERTEX
  5
386ED
  8
0
 10
654.02349861055291
 20
347.93198864024947
 30
0.0
  0
VERTEX
  5
386EE
  8
0
 10
654.04073501852247
 20
347.90886574194252
 30
0.0
  0
VERTEX
  5
386EF
  8
0
 10
654.04928679823058
 20
347.89703987091889
 30
0.0
  0
VERTEX
  5
386F0
  8
0
 10
654.05778654605251
 20
347.88504088559188
 30
0.0
  0
VERTEX
  5
386F1
  8
0
 10
654.07460758108755
 20
347.860533289378
 30
0.0
  0
VERTEX
  5
386F2
  8
0
 10
654.09115460148928
 20
347.83536309684911
 30
0.0
  0
VERTEX
  5
386F3
  8
0
 10
654.10738233648487
 20
347.80955757474612
 30
0.0
  0
VERTEX
  5
386F4
  8
0
 10
654.12324590130652
 20
347.78314890111142
 30
0.0
  0
VERTEX
  5
386F5
  8
0
 10
654.13870157355939
 20
347.7561736615184
 30
0.0
  0
VERTEX
  5
386F6
  8
0
 10
654.14626323303264
 20
347.74248616493918
 30
0.0
  0
VERTEX
  5
386F7
  8
0
 10
654.1537073159576
 20
347.72867262519588
 30
0.0
  0
VERTEX
  5
386F8
  8
0
 10
654.16822330625973
 20
347.70069039997952
 30
0.0
  0
VERTEX
  5
386F9
  8
0
 10
654.18221246850442
 20
347.67227493889908
 30
0.0
  0
VERTEX
  5
386FA
  8
0
 10
654.18899878304467
 20
347.65792048371759
 30
0.0
  0
SEQEND
  5
386FB
  8
0
  0
POLYLINE
  5
2C574
  8
0
 66
     1
 10
0.0
 20
0.0
 30
0.0
  0
VERTEX
  5
386FC
  8
0
 10
673.29124297378974
 20
341.5239930911066
 30
0.0
  0
VERTEX
  5
386FD
  8
0
 10
673.40151983216424
 20
341.52573080612768
 30
0.0
  0
VERTEX
  5
386FE
  8
0
 10
673.62163564678247
 20
341.53962217491062
 30
0.0
  0
VERTEX
  5
386FF
  8
0
 10
673.84043949388968
 20
341.56734975076779
 30
0.0
  0
VERTEX
  5
38700
  8
0
 10
673.94907761419006
 20
341.58636984445963
 30
0.0
  0
VERTEX
  5
38701
  8
0
 10
674.05706251784125
 20
341.60880342932393
 30
0.0
  0
VERTEX
  5
38702
  8
0
 10
674.27064452289824
 20
341.6638186007558
 30
0.0
  0
VERTEX
  5
38703
  8
0
 10
674.48033738900631
 20
341.73217680344709
 30
0.0
  0
VERTEX
  5
38704
  8
0
 10
674.68530843962594
 20
341.81360659148368
 30
0.0
  0
VERTEX
  5
38705
  8
0
 10
674.88474374823545
 20
341.90778461254791
 30
0.0
  0
VERTEX
  5
38706
  8
0
 10
675.07785137037934
 20
342.01433689193118
 30
0.0
  0
VERTEX
  5
38707
  8
0
 10
675.17179160300361
 20
342.07212303076182
 30
0.0
  0
VERTEX
  5
38708
  8
0
 10
675.26386448842754
 20
342.1328403175599
 30
0.0
  0
VERTEX
  5
38709
  8
0
 10
675.44204445655828
 20
342.2628243201475
 30
0.0
  0
VERTEX
  5
3870A
  8
0
 10
675.61168373387113
 20
342.403772741794
 30
0.0
  0
VERTEX
  5
3870B
  8
0
 10
675.77210869398516
 20
342.55512588561402
 30
0.0
  0
VERTEX
  5
3870C
  8
0
 10
675.92268229996614
 20
342.71628273825633
 30
0.0
  0
VERTEX
  5
3870D
  8
0
 10
676.06280663395626
 20
342.88660335649053
 30
0.0
  0
VERTEX
  5
3870E
  8
0
 10
676.12877475888547
 20
342.97499007291208
 30
0.0
  0
VERTEX
  5
3870F
  8
0
 10
676.19192527146868
 20
343.06541140837498
 30
0.0
  0
VERTEX
  5
38710
  8
0
 10
676.26195622099203
 20
343.17335460590863
 30
0.0
  0
VERTEX
  5
38711
  8
0
 10
676.28123162561587
 20
343.20466138359689
 30
0.0
  0
VERTEX
  5
38712
  8
0
 10
676.30017711719768
 20
343.23616890494259
 30
0.0
  0
VERTEX
  5
38713
  8
0
 10
676.30952549091012
 20
343.2519968589308
 30
0.0
  0
VERTEX
  5
38714
  8
0
 10
676.31879060530684
 20
343.26787369343037
 30
0.0
  0
VERTEX
  5
38715
  8
0
 10
676.33707003614506
 20
343.29977225077801
 30
0.0
  0
VERTEX
  5
38716
  8
0
 10
676.35501339277437
 20
343.33186105732381
 30
0.0
  0
VERTEX
  5
38717
  8
0
 10
676.37261869533836
 20
343.36413657241292
 30
0.0
  0
VERTEX
  5
38718
  8
0
 10
676.38988400128164
 20
343.39659523479031
 30
0.0
  0
VERTEX
  5
38719
  8
0
 10
676.40680740556377
 20
343.42923346299182
 30
0.0
  0
VERTEX
  5
3871A
  8
0
 10
676.41514030956648
 20
343.44561878964117
 30
0.0
  0
VERTEX
  5
3871B
  8
0
 10
676.42338704086899
 20
343.46204765574112
 30
0.0
  0
VERTEX
  5
3871C
  8
0
 10
676.43962107781374
 20
343.49503419234497
 30
0.0
  0
VERTEX
  5
3871D
  8
0
 10
676.45550772514639
 20
343.52818943309472
 30
0.0
  0
VERTEX
  5
3871E
  8
0
 10
676.46332022841796
 20
343.5448291750144
 30
0.0
  0
SEQEND
  5
3871F
  8
0
  0
LINE
  5
2C575
  8
0
 10
676.46332022841796
 20
343.5448291750144
 30
0.0
 11
678.38128620435725
 21
347.65792048371759
 31
0.0
  0
POLYLINE
  5
2C576
  8
0
 66
     1
 10
0.0
 20
0.0
 30
0.0
  0
VERTEX
  5
38720
  8
0
 10
678.38128620435725
 20
347.65792048371759
 30
0.0
  0
VERTEX
  5
38721
  8
0
 10
678.3880725188975
 20
347.67227493889908
 30
0.0
  0
VERTEX
  5
38722
  8
0
 10
678.40206168114219
 20
347.70069039997952
 30
0.0
  0
VERTEX
  5
38723
  8
0
 10
678.41657767144432
 20
347.72867262519588
 30
0.0
  0
VERTEX
  5
38724
  8
0
 10
678.42402175436916
 20
347.74248616493918
 30
0.0
  0
VERTEX
  5
38725
  8
0
 10
678.43158341384253
 20
347.7561736615184
 30
0.0
  0
VERTEX
  5
38726
  8
0
 10
678.44703908609529
 20
347.78314890111142
 30
0.0
  0
VERTEX
  5
38727
  8
0
 10
678.46290265091693
 20
347.80955757474612
 30
0.0
  0
VERTEX
  5
38728
  8
0
 10
678.47913038591264
 20
347.83536309684911
 30
0.0
  0
VERTEX
  5
38729
  8
0
 10
678.49567740631426
 20
347.860533289378
 30
0.0
  0
VERTEX
  5
3872A
  8
0
 10
678.51249844134941
 20
347.88504088559188
 30
0.0
  0
VERTEX
  5
3872B
  8
0
 10
678.52099818917134
 20
347.89703987091889
 30
0.0
  0
VERTEX
  5
3872C
  8
0
 10
678.52954996887934
 20
347.90886574194252
 30
0.0
  0
VERTEX
  5
3872D
  8
0
 10
678.54678637684901
 20
347.93198864024947
 30
0.0
  0
VERTEX
  5
3872E
  8
0
 10
678.56416054534907
 20
347.95439205519688
 30
0.0
  0
VERTEX
  5
3872F
  8
0
 10
678.58162463156532
 20
347.97606098970982
 30
0.0
  0
VERTEX
  5
38730
  8
0
 10
678.59913044041366
 20
347.99698312724098
 30
0.0
  0
VERTEX
  5
38731
  8
0
 10
678.61662975826187
 20
348.01714888821829
 30
0.0
  0
VERTEX
  5
38732
  8
0
 10
678.62536198499151
 20
348.0269458787584
 30
0.0
  0
VERTEX
  5
38733
  8
0
 10
678.63407464964894
 20
348.0365514105884
 30
0.0
  0
VERTEX
  5
38734
  8
0
 10
678.65141771827393
 20
348.05518647163808
 30
0.0
  0
VERTEX
  5
38735
  8
0
 10
678.6686123345321
 20
348.07305236570068
 30
0.0
  0
VERTEX
  5
38736
  8
0
 10
678.67713965999599
 20
348.08169699291062
 30
0.0
  0
VERTEX
  5
38737
  8
0
 10
678.68561283265535
 20
348.09014975009222
 30
0.0
  0
VERTEX
  5
38738
  8
0
 10
678.70239435117185
 20
348.10650033771941
 30
0.0
  0
VERTEX
  5
38739
  8
0
 10
678.71911784681834
 20
348.12229726812888
 30
0.0
  0
VERTEX
  5
3873A
  8
0
 10
678.72747332700305
 20
348.13001057301841
 30
0.0
  0
VERTEX
  5
3873B
  8
0
 10
678.73582361878505
 20
348.13760308538173
 30
0.0
  0
VERTEX
  5
3873C
  8
0
 10
678.75250576118185
 20
348.1524333885464
 30
0.0
  0
VERTEX
  5
3873D
  8
0
 10
678.76915874751205
 20
348.16680302634808
 30
0.0
  0
VERTEX
  5
3873E
  8
0
 10
678.78577737260821
 20
348.18072612885999
 30
0.0
  0
VERTEX
  5
3873F
  8
0
 10
678.80235670171135
 20
348.19421614133722
 30
0.0
  0
VERTEX
  5
38740
  8
0
 10
678.81889202624984
 20
348.2072858595497
 30
0.0
  0
VERTEX
  5
38741
  8
0
 10
678.82714176775767
 20
348.21366693830078
 30
0.0
  0
VERTEX
  5
38742
  8
0
 10
678.83537882585063
 20
348.21994746602832
 30
0.0
  0
VERTEX
  5
38743
  8
0
 10
678.85181273610749
 20
348.23221256670701
 30
0.0
  0
VERTEX
  5
38744
  8
0
 10
678.8681895216198
 20
348.24409222750859
 30
0.0
  0
VERTEX
  5
38745
  8
0
 10
678.92499957358996
 20
348.28278405571342
 30
0.0
  0
VERTEX
  5
38746
  8
0
 10
679.02016675208336
 20
348.33957768778282
 30
0.0
  0
VERTEX
  5
38747
  8
0
 10
679.11189627345288
 20
348.38581013122803
 30
0.0
  0
VERTEX
  5
38748
  8
0
 10
679.19953216439512
 20
348.42295182669022
 30
0.0
  0
VERTEX
  5
38749
  8
0
 10
679.24162186038325
 20
348.43851534672422
 30
0.0
  0
VERTEX
  5
3874A
  8
0
 10
679.28246792767004
 20
348.45227159363679
 30
0.0
  0
VERTEX
  5
3874B
  8
0
 10
679.36018197644307
 20
348.47491334712049
 30
0.0
  0
VERTEX
  5
3874C
  8
0
 10
679.43221989044014
 20
348.4919203633608
 30
0.0
  0
VERTEX
  5
3874D
  8
0
 10
679.49818996767578
 20
348.50425173633948
 30
0.0
  0
VERTEX
  5
3874E
  8
0
 10
679.55775313757442
 20
348.51278888719389
 30
0.0
  0
VERTEX
  5
3874F
  8
0
 10
679.61063314708531
 20
348.51833915377119
 30
0.0
  0
VERTEX
  5
38750
  8
0
 10
679.63450053893405
 20
348.52022552675049
 30
0.0
  0
VERTEX
  5
38751
  8
0
 10
679.65662582084167
 20
348.52163239292031
 30
0.0
  0
VERTEX
  5
38752
  8
0
 10
679.69559453087345
 20
348.52331332862059
 30
0.0
  0
VERTEX
  5
38753
  8
0
 10
679.72747138358102
 20
348.52393433479352
 30
0.0
  0
VERTEX
  5
38754
  8
0
 10
679.74074788491225
 20
348.5239930911066
 30
0.0
  0
SEQEND
  5
38755
  8
0
  0
LINE
  5
2C577
  8
0
 10
623.78514249370096
 20
350.5239930911066
 30
0.0
 11
708.78514249370085
 21
350.5239930911066
 31
0.0
  0
LINE
  5
2C5A1
  8
0
 10
668.78514249370085
 20
318.5239930911066
 30
0.0
 11
663.78514249370085
 21
318.5239930911066
 31
0.0
  0
LINE
  5
2C5A2
  8
0
 10
663.78514249370085
 20
168.5239930911066
 30
0.0
 11
668.78514249370085
 21
168.5239930911066
 31
0.0
  0
ARC
  5
2C5A3
  8
0
 10
668.78514249370085
 20
168.7739930911066
 30
0.0
 40
0.25
 50
270.0
 51
0.0
  0
ARC
  5
2C5A4
  8
0
 10
668.78514249370085
 20
318.2739930911066
 30
0.0
 40
0.2499999999999951
 50
0.0
 51
90.0
  0
LINE
  5
2C5A5
  8
0
 10
671.03514249370085
 20
318.2739930911066
 30
0.0
 11
669.03514249370085
 21
318.2739930911066
 31
0.0
  0
LINE
  5
2C5A6
  8
0
 10
669.03514249370085
 20
168.7739930911066
 30
0.0
 11
671.03514249370085
 21
168.7739930911066
 31
0.0
  0
ARC
  5
2C5A7
  8
0
 10
671.28514249370085
 20
168.7739930911066
 30
0.0
 40
0.2499999999999956
 50
180.0
 51
270.0
  0
ARC
  5
2C5A8
  8
0
 10
671.28514249370085
 20
318.2739930911066
 30
0.0
 40
0.25
 50
90.0
 51
180.0
  0
LINE
  5
2C5A9
  8
0
 10
675.36090320509675
 20
318.5239930911066
 30
0.0
 11
671.28514249370085
 21
318.5239930911066
 31
0.0
  0
LINE
  5
2C5AA
  8
0
 10
671.28514249370085
 20
168.5239930911066
 30
0.0
 11
675.36090320509675
 21
168.5239930911066
 31
0.0
  0
ARC
  5
2C5AB
  8
0
 10
675.36090320509675
 20
169.35732642444009
 30
0.0
 40
0.8333333333333001
 50
270.0
 51
341.00000000001188
  0
ARC
  5
2C5AC
  8
0
 10
675.36090320509675
 20
317.69065975777357
 30
0.0
 40
0.8333333333332944
 50
18.999999999988141
 51
90.0
  0
LINE
  5
2C5AD
  8
0
 10
678.31735806668758
 20
311.66411929501459
 30
0.0
 11
676.14883535142963
 21
317.96196655315453
 31
0.0
  0
LINE
  5
2C5AE
  8
0
 10
676.14883535142963
 20
169.08601962905911
 30
0.0
 11
678.31735806668758
 21
175.38386688719851
 31
0.0
  0
ARC
  5
2C5AF
  8
0
 10
675.95356162768894
 20
176.19778727334139
 30
0.0
 40
2.5000000000003242
 50
341.00000000001188
 51
0.0000008537736463
  0
ARC
  5
2C5B0
  8
0
 10
675.95356162768894
 20
310.85019890887179
 30
0.0
 40
2.5000000000003122
 50
0.0000008537736463
 51
18.999999999988141
  0
ARC
  5
2C5B1
  8
0
 10
679.12022829435591
 20
177.7155713357551
 30
0.0
 40
0.6666666666666661
 50
180.0
 51
0.0
  0
ARC
  5
2C5B2
  8
0
 10
679.12022829435591
 20
309.33241484645851
 30
0.0
 40
0.6666666666666661
 50
0.0
 51
180.0
  0
ARC
  5
2C5B3
  8
0
 10
680.45356162768928
 20
181.5878525059893
 30
0.0
 40
0.6666666666666661
 50
180.0
 51
0.0
  0
ARC
  5
2C5B4
  8
0
 10
680.45356162768928
 20
305.4601336762239
 30
0.0
 40
0.6666666666666661
 50
0.0
 51
180.0
  0
LINE
  5
2C5B5
  8
0
 10
686.14893893269925
 20
288.9195569545459
 30
0.0
 11
681.12022829435591
 21
303.5239930911066
 31
0.0
  0
LINE
  5
2C5B6
  8
0
 10
681.12022829435591
 20
183.5239930911066
 30
0.0
 11
686.14893893269925
 21
198.12842922766731
 31
0.0
  0
ARC
  5
2C5B7
  8
0
 10
683.78514249370085
 20
198.94234961381011
 30
0.0
 40
2.500000000000131
 50
341.00000000001182
 51
0.0
  0
ARC
  5
2C5B8
  8
0
 10
683.78514249370073
 20
288.1056365684031
 30
0.0
 40
2.5000000000002158
 50
0.0
 51
18.999999999988141
  0
ARC
  5
2C5B9
  8
0
 10
648.78514249370085
 20
198.94234961381011
 30
0.0
 40
2.4999999999998819
 50
180.0
 51
198.9999999999882
  0
ARC
  5
2C5BA
  8
0
 10
648.78514249370085
 20
288.1056365684031
 30
0.0
 40
2.4999999999998881
 50
161.0000000000118
 51
180.0
  0
LINE
  5
2C5BB
  8
0
 10
651.45005669304589
 20
303.5239930911066
 30
0.0
 11
646.42134605470267
 21
288.9195569545459
 31
0.0
  0
LINE
  5
2C5BC
  8
0
 10
646.42134605470267
 20
198.12842922766731
 30
0.0
 11
651.45005669304589
 21
183.5239930911066
 31
0.0
  0
ARC
  5
2C5BD
  8
0
 10
652.11672335971264
 20
181.5878525059893
 30
0.0
 40
0.6666666666666661
 50
180.0
 51
0.0
  0
ARC
  5
2C5BE
  8
0
 10
652.11672335971264
 20
305.4601336762239
 30
0.0
 40
0.6666666666666661
 50
0.0
 51
180.0
  0
ARC
  5
2C5BF
  8
0
 10
653.45005669304601
 20
177.7155713357551
 30
0.0
 40
0.6666666666666679
 50
180.0
 51
0.0
  0
ARC
  5
2C5C0
  8
0
 10
653.45005669304601
 20
309.33241484645851
 30
0.0
 40
0.6666666666666679
 50
0.0
 51
180.0
  0
ARC
  5
2C5C1
  8
0
 10
656.61672335971298
 20
176.19778727334139
 30
0.0
 40
2.5000000000004441
 50
180.0
 51
198.99999999998809
  0
ARC
  5
2C5C2
  8
0
 10
656.61672335971275
 20
310.85019890887179
 30
0.0
 40
2.5000000000002771
 50
161.00000000001191
 51
180.0
  0
LINE
  5
2C5C3
  8
0
 10
656.42144963597218
 20
317.96196655315453
 30
0.0
 11
654.25292692071434
 21
311.66411929501459
 31
0.0
  0
LINE
  5
2C5C4
  8
0
 10
654.25292692071434
 20
175.38386688719851
 30
0.0
 11
656.42144963597218
 21
169.08601962905911
 31
0.0
  0
ARC
  5
2C5C5
  8
0
 10
657.20938178230506
 20
169.35732642444009
 30
0.0
 40
0.8333333333333454
 50
198.9999999999882
 51
270.0
  0
ARC
  5
2C5C6
  8
0
 10
657.20938178230506
 20
317.69065975777357
 30
0.0
 40
0.8333333333333428
 50
90.0
 51
161.0000000000118
  0
LINE
  5
2C5C7
  8
0
 10
661.28514249370096
 20
318.5239930911066
 30
0.0
 11
657.20938178230494
 21
318.5239930911066
 31
0.0
  0
LINE
  5
2C5C8
  8
0
 10
657.20938178230494
 20
168.5239930911066
 30
0.0
 11
661.28514249370096
 21
168.5239930911066
 31
0.0
  0
ARC
  5
2C5C9
  8
0
 10
661.28514249370096
 20
168.7739930911066
 30
0.0
 40
0.25
 50
270.0
 51
0.0
  0
ARC
  5
2C5CA
  8
0
 10
661.28514249370096
 20
318.2739930911066
 30
0.0
 40
0.2499999999999956
 50
0.0
 51
90.0
  0
LINE
  5
2C5CB
  8
0
 10
663.53514249370096
 20
318.2739930911066
 30
0.0
 11
661.53514249370085
 21
318.2739930911066
 31
0.0
  0
LINE
  5
2C5CC
  8
0
 10
661.53514249370085
 20
168.7739930911066
 30
0.0
 11
663.53514249370096
 21
168.7739930911066
 31
0.0
  0
ARC
  5
2C5CD
  8
0
 10
663.78514249370085
 20
168.7739930911066
 30
0.0
 40
0.2499999999999978
 50
180.0
 51
270.0
  0
ARC
  5
2C5CE
  8
0
 10
663.78514249370085
 20
318.2739930911066
 30
0.0
 40
0.25
 50
90.0
 51
180.0
  0
LINE
  5
2C5D0
  8
0
 10
669.03514249370085
 20
168.7739930911066
 30
0.0
 11
669.03514249370085
 21
318.2739930911066
 31
0.0
  0
LINE
  5
2C5D1
  8
0
 10
671.03514249370085
 20
168.7739930911066
 30
0.0
 11
671.03514249370085
 21
318.2739930911066
 31
0.0
  0
LINE
  5
2C5D6
  8
0
 10
678.45356162768917
 20
176.19778727334139
 30
0.0
 11
678.45356162768917
 21
310.85019890887179
 31
0.0
  0
LINE
  5
2C5D7
  8
0
 10
679.78689496102265
 20
177.7155713357551
 30
0.0
 11
679.78689496102265
 21
309.33241484645851
 31
0.0
  0
LINE
  5
2C5D8
  8
0
 10
681.12022829435591
 20
181.5878525059893
 30
0.0
 11
681.12022829435591
 21
305.4601336762239
 31
0.0
  0
LINE
  5
2C5DA
  8
0
 10
686.28514249370096
 20
198.94234961381011
 30
0.0
 11
686.28514249370096
 21
288.1056365684031
 31
0.0
  0
LINE
  5
2C5DB
  8
0
 10
646.28514249370085
 20
198.94234961381011
 30
0.0
 11
646.28514249370085
 21
288.1056365684031
 31
0.0
  0
LINE
  5
2C5DD
  8
0
 10
651.45005669304589
 20
181.5878525059893
 30
0.0
 11
651.45005669304589
 21
305.4601336762239
 31
0.0
  0
LINE
  5
2C5DE
  8
0
 10
652.78339002637915
 20
177.7155713357551
 30
0.0
 11
652.78339002637915
 21
309.33241484645851
 31
0.0
  0
LINE
  5
2C5DF
  8
0
 10
654.11672335971264
 20
176.19778727334139
 30
0.0
 11
654.11672335971264
 21
310.85019890887179
 31
0.0
  0
LINE
  5
2C5E4
  8
0
 10
661.53514249370085
 20
168.7739930911066
 30
0.0
 11
661.53514249370085
 21
318.2739930911066
 31
0.0
  0
LINE
  5
2C5E6
  8
0
 10
663.53514249370096
 20
168.7739930911066
 30
0.0
 11
663.53514249370096
 21
318.2739930911066
 31
0.0
  0
LINE
  5
2C5E9
  8
0
 10
401.81441243995619
 20
240.39482642444091
 30
0.0
 11
403.62103765729529
 21
237.2656597577743
 31
0.0
  0
LINE
  5
2C5EF
  8
0
 10
403.62103765729529
 20
249.7823264244407
 30
0.0
 11
400.00778722261691
 21
243.52399309110751
 31
0.0
  0
LINE
  5
2C5F0
  8
0
 10
400.00778722261691
 20
243.52399309110751
 30
0.0
 11
403.62103765729529
 21
237.2656597577743
 31
0.0
  0
LINE
  5
2C5F1
  8
0
 10
403.62103765729529
 20
237.2656597577743
 30
0.0
 11
410.84753852665222
 21
237.2656597577743
 31
0.0
  0
LINE
  5
2C5F2
  8
0
 10
414.46078896133059
 20
243.52399309110751
 30
0.0
 11
410.84753852665222
 21
249.7823264244407
 31
0.0
  0
LINE
  5
2C5F3
  8
0
 10
410.84753852665222
 20
237.2656597577743
 30
0.0
 11
414.46078896133059
 21
243.52399309110751
 31
0.0
  0
LINE
  5
2C5F4
  8
0
 10
410.84753852665222
 20
249.7823264244407
 30
0.0
 11
403.62103765729529
 21
249.7823264244407
 31
0.0
  0
CIRCLE
  5
2C5F6
  8
0
 10
407.23428809197372
 20
243.52399309110751
 30
0.0
 40
6.2583333333333391
  0
POLYLINE
  5
2C608
  8
0
 66
     1
 10
0.0
 20
0.0
 30
0.0
  0
VERTEX
  5
38756
  8
0
 10
429.57602560403677
 20
246.47230628540319
 30
0.0
  0
VERTEX
  5
38757
  8
0
 10
429.61261530725159
 20
246.53515266304839
 30
0.0
  0
VERTEX
  5
38758
  8
0
 10
429.68716093515172
 20
246.6600388670081
 30
0.0
  0
VERTEX
  5
38759
  8
0
 10
429.7635150106729
 20
246.7838276780121
 30
0.0
  0
VERTEX
  5
3875A
  8
0
 10
429.80236518375227
 20
246.84530236887119
 30
0.0
  0
VERTEX
  5
3875B
  8
0
 10
429.8416613821683
 20
246.90649291025289
 30
0.0
  0
VERTEX
  5
3875C
  8
0
 10
429.9215835188557
 20
247.02800861559899
 30
0.0
  0
VERTEX
  5
3875D
  8
0
 10
430.00326451431442
 20
247.1483490890873
 30
0.0
  0
VERTEX
  5
3875E
  8
0
 10
430.08668709006128
 20
247.2674888743577
 30
0.0
  0
VERTEX
  5
3875F
  8
0
 10
430.17183359920631
 20
247.3854027690391
 30
0.0
  0
VERTEX
  5
38760
  8
0
 10
430.25868603018512
 20
247.50206583008051
 30
0.0
  0
VERTEX
  5
38761
  8
0
 10
430.30274623896878
 20
247.5599205754902
 30
0.0
  0
VERTEX
  5
38762
  8
0
 10
430.34722601056922
 20
247.61745337902769
 30
0.0
  0
VERTEX
  5
38763
  8
0
 10
430.43743481095231
 20
247.73154100724381
 30
0.0
  0
VERTEX
  5
38764
  8
0
 10
430.52929334891257
 20
247.8443045810709
 30
0.0
  0
VERTEX
  5
38765
  8
0
 10
430.62278219304892
 20
247.95572024693769
 30
0.0
  0
VERTEX
  5
38766
  8
0
 10
430.71788156709152
 20
248.0657644364037
 30
0.0
  0
VERTEX
  5
38767
  8
0
 10
430.8145713540851
 20
248.17441387114519
 30
0.0
  0
VERTEX
  5
38768
  8
0
 10
430.86350627377988
 20
248.22820836155961
 30
0.0
  0
VERTEX
  5
38769
  8
0
 10
430.91283110064518
 20
248.281645567879
 30
0.0
  0
VERTEX
  5
3876A
  8
0
 10
431.01264002128357
 20
248.38743684322569
 30
0.0
  0
VERTEX
  5
3876B
  8
0
 10
431.11397700280583
 20
248.49176531850659
 30
0.0
  0
VERTEX
  5
3876C
  8
0
 10
431.16521183001572
 20
248.5433740972685
 30
0.0
  0
SEQEND
  5
3876D
  8
0
  0
POLYLINE
  5
2C609
  8
0
 66
     1
 10
0.0
 20
0.0
 30
0.0
  0
VERTEX
  5
3876E
  8
0
 10
390.3475367460257
 20
237.0239930911066
 30
0.0
  0
VERTEX
  5
3876F
  8
0
 10
390.49663213474702
 20
236.77421419581421
 30
0.0
  0
VERTEX
  5
38770
  8
0
 10
390.81371683311352
 20
236.29187724357419
 30
0.0
  0
VERTEX
  5
38771
  8
0
 10
391.15378640895619
 20
235.8341130212803
 30
0.0
  0
VERTEX
  5
38772
  8
0
 10
391.33153031940469
 20
235.61501304107651
 30
0.0
  0
VERTEX
  5
38773
  8
0
 10
391.51387787860563
 20
235.40271909222159
 30
0.0
  0
VERTEX
  5
38774
  8
0
 10
391.89062725753092
 20
234.99932346618149
 30
0.0
  0
VERTEX
  5
38775
  8
0
 10
392.2874306986177
 20
234.61880839897731
 30
0.0
  0
VERTEX
  5
38776
  8
0
 10
392.71311465484831
 20
234.2537258865168
 30
0.0
  0
VERTEX
  5
38777
  8
0
 10
393.16635874425418
 20
233.9074869630644
 30
0.0
  0
VERTEX
  5
38778
  8
0
 10
393.645440553838
 20
233.58330591466941
 30
0.0
  0
VERTEX
  5
38779
  8
0
 10
393.89406787982921
 20
233.43040024173979
 30
0.0
  0
VERTEX
  5
3877A
  8
0
 10
394.14839260945968
 20
233.2840703578936
 30
0.0
  0
VERTEX
  5
3877B
  8
0
 10
394.67292987908661
 20
233.0123905179689
 30
0.0
  0
VERTEX
  5
3877C
  8
0
 10
395.21649012159702
 20
232.77055917237979
 30
0.0
  0
VERTEX
  5
3877D
  8
0
 10
395.77664764157458
 20
232.5603936704847
 30
0.0
  0
VERTEX
  5
3877E
  8
0
 10
396.35050651629382
 20
232.38351383324331
 30
0.0
  0
VERTEX
  5
3877F
  8
0
 10
396.93468727032348
 20
232.24124082898109
 30
0.0
  0
VERTEX
  5
38780
  8
0
 10
397.22954558742242
 20
232.1833709552198
 30
0.0
  0
VERTEX
  5
38781
  8
0
 10
397.52564985667209
 20
232.13444010465039
 30
0.0
  0
VERTEX
  5
38782
  8
0
 10
398.1196884777022
 20
232.0635074456286
 30
0.0
  0
VERTEX
  5
38783
  8
0
 10
398.71282994883597
 20
232.02834413239501
 30
0.0
  0
VERTEX
  5
38784
  8
0
 10
399.00779078387012
 20
232.0239930911066
 30
0.0
  0
SEQEND
  5
38785
  8
0
  0
POLYLINE
  5
2C60A
  8
0
 66
     1
 10
0.0
 20
0.0
 30
0.0
  0
VERTEX
  5
38786
  8
0
 10
383.3033643539319
 20
248.5433740972685
 30
0.0
  0
VERTEX
  5
38787
  8
0
 10
383.35459918114168
 20
248.49176531850659
 30
0.0
  0
VERTEX
  5
38788
  8
0
 10
383.45593616266387
 20
248.38743684322569
 30
0.0
  0
VERTEX
  5
38789
  8
0
 10
383.55574508330233
 20
248.281645567879
 30
0.0
  0
VERTEX
  5
3878A
  8
0
 10
383.60506991016757
 20
248.22820836155961
 30
0.0
  0
VERTEX
  5
3878B
  8
0
 10
383.6540048298624
 20
248.17441387114519
 30
0.0
  0
VERTEX
  5
3878C
  8
0
 10
383.75069461685609
 20
248.0657644364037
 30
0.0
  0
VERTEX
  5
3878D
  8
0
 10
383.8457939908987
 20
247.95572024693769
 30
0.0
  0
VERTEX
  5
3878E
  8
0
 10
383.93928283503499
 20
247.8443045810709
 30
0.0
  0
VERTEX
  5
3878F
  8
0
 10
384.03114137299519
 20
247.73154100724381
 30
0.0
  0
VERTEX
  5
38790
  8
0
 10
384.1213501733784
 20
247.61745337902769
 30
0.0
  0
VERTEX
  5
38791
  8
0
 10
384.16582994497873
 20
247.5599205754902
 30
0.0
  0
VERTEX
  5
38792
  8
0
 10
384.20989015376239
 20
247.50206583008051
 30
0.0
  0
VERTEX
  5
38793
  8
0
 10
384.2967425847412
 20
247.3854027690391
 30
0.0
  0
VERTEX
  5
38794
  8
0
 10
384.38188909388617
 20
247.2674888743577
 30
0.0
  0
VERTEX
  5
38795
  8
0
 10
384.46531166963319
 20
247.1483490890873
 30
0.0
  0
VERTEX
  5
38796
  8
0
 10
384.54699266509181
 20
247.02800861559899
 30
0.0
  0
VERTEX
  5
38797
  8
0
 10
384.62691480177921
 20
246.90649291025289
 30
0.0
  0
VERTEX
  5
38798
  8
0
 10
384.66621100019518
 20
246.84530236887119
 30
0.0
  0
VERTEX
  5
38799
  8
0
 10
384.70506117327471
 20
246.7838276780121
 30
0.0
  0
VERTEX
  5
3879A
  8
0
 10
384.78141524879578
 20
246.6600388670081
 30
0.0
  0
VERTEX
  5
3879B
  8
0
 10
384.85596087669592
 20
246.53515266304839
 30
0.0
  0
VERTEX
  5
3879C
  8
0
 10
384.89255057991079
 20
246.47230628540319
 30
0.0
  0
SEQEND
  5
3879D
  8
0
  0
POLYLINE
  5
2C60E
  8
0
 66
     1
 10
0.0
 20
0.0
 30
0.0
  0
VERTEX
  5
3879E
  8
0
 10
415.4607854000775
 20
232.0239930911066
 30
0.0
  0
VERTEX
  5
3879F
  8
0
 10
415.75581186954707
 20
232.02834606941221
 30
0.0
  0
VERTEX
  5
387A0
  8
0
 10
416.34889912196252
 20
232.0635084634896
 30
0.0
  0
VERTEX
  5
387A1
  8
0
 10
416.94269991914513
 20
232.1344061756599
 30
0.0
  0
VERTEX
  5
387A2
  8
0
 10
417.23863903948688
 20
232.18330020712531
 30
0.0
  0
VERTEX
  5
387A3
  8
0
 10
417.53331225948892
 20
232.24111864557611
 30
0.0
  0
VERTEX
  5
387A4
  8
0
 10
418.11709631945621
 20
232.38324559417509
 30
0.0
  0
VERTEX
  5
387A5
  8
0
 10
418.69058006201021
 20
232.5599333680411
 30
0.0
  0
VERTEX
  5
387A6
  8
0
 10
419.25044188713821
 20
232.7698856943839
 30
0.0
  0
VERTEX
  5
387A7
  8
0
 10
419.79379934332712
 20
233.01150230511391
 30
0.0
  0
VERTEX
  5
387A8
  8
0
 10
420.3182945217834
 20
233.28302031157321
 30
0.0
  0
VERTEX
  5
387A9
  8
0
 10
420.57267507029508
 20
233.4293096181959
 30
0.0
  0
VERTEX
  5
387AA
  8
0
 10
420.82141457601489
 20
233.58221277898701
 30
0.0
  0
VERTEX
  5
387AB
  8
0
 10
421.3008996459219
 20
233.9065387120859
 30
0.0
  0
VERTEX
  5
387AC
  8
0
 10
421.75480361334292
 20
234.2531929565593
 30
0.0
  0
VERTEX
  5
387AD
  8
0
 10
422.18142381695799
 20
234.6190610002941
 30
0.0
  0
VERTEX
  5
387AE
  8
0
 10
422.57931902611369
 20
235.00071187681709
 30
0.0
  0
VERTEX
  5
387AF
  8
0
 10
422.95512695790728
 20
235.4032042699323
 30
0.0
  0
VERTEX
  5
387B0
  8
0
 10
423.13718398806481
 20
235.61517848009271
 30
0.0
  0
VERTEX
  5
387B1
  8
0
 10
423.31473825268893
 20
235.8340476479743
 30
0.0
  0
VERTEX
  5
387B2
  8
0
 10
423.65466974478198
 20
236.29160621079151
 30
0.0
  0
VERTEX
  5
387B3
  8
0
 10
423.97184383658589
 20
236.7740517304496
 30
0.0
  0
VERTEX
  5
387B4
  8
0
 10
424.12103943792192
 20
237.0239930911066
 30
0.0
  0
SEQEND
  5
387B5
  8
0
  0
LINE
  5
2C641
  8
0
 10
457.23428809197372
 20
350.5239930911066
 30
0.0
 11
457.23428809197372
 21
348.5239930911066
 31
0.0
  0
LINE
  5
2C642
  8
0
 10
452.5451772244291
 20
350.5239930911066
 30
0.0
 11
452.5451772244291
 21
348.30812451634478
 31
0.0
  0
LINE
  5
2C644
  8
0
 10
429.98984159143879
 20
350.5239930911066
 30
0.0
 11
429.98984159143879
 21
247.1288299068701
 31
0.0
  0
LINE
  5
2C646
  8
0
 10
387.50982350575418
 20
350.5239930911066
 30
0.0
 11
387.50982350575418
 21
241.93905660056771
 31
0.0
  0
LINE
  5
2C647
  8
0
 10
384.4787345925086
 20
350.5239930911066
 30
0.0
 11
384.4787345925086
 21
247.1288299068701
 31
0.0
  0
LINE
  5
2C649
  8
0
 10
361.92339895951841
 20
350.5239930911066
 30
0.0
 11
361.92339895951841
 21
348.30812451634478
 31
0.0
  0
LINE
  5
2C64A
  8
0
 10
357.23428809197378
 20
350.5239930911066
 30
0.0
 11
357.23428809197378
 21
348.5239930911066
 31
0.0
  0
LINE
  5
2C64B
  8
0
 10
357.23428809197378
 20
348.5239930911066
 30
0.0
 11
361.92339895951841
 21
348.5239930911066
 31
0.0
  0
LINE
  5
2C64C
  8
0
 10
452.5451772244291
 20
348.5239930911066
 30
0.0
 11
457.23428809197372
 21
348.5239930911066
 31
0.0
  0
LINE
  5
2C64D
  8
0
 10
442.31378001628502
 20
331.23724601866212
 30
0.0
 11
451.71693782278408
 21
347.5239930911066
 31
0.0
  0
ARC
  5
2C64E
  8
0
 10
459.63428809197347
 20
321.23724601866252
 30
0.0
 40
19.999999999999719
 50
149.99999999999989
 51
180.0
  0
LINE
  5
2C64F
  8
0
 10
439.6342880919737
 20
261.15458598295749
 30
0.0
 11
439.6342880919737
 21
321.23724601866212
 31
0.0
  0
POLYLINE
  5
2C650
  8
0
 66
     1
 10
0.0
 20
0.0
 30
0.0
  0
VERTEX
  5
387B6
  8
0
 10
436.70535590383918
 20
254.08351817109221
 30
0.0
  0
VERTEX
  5
387B7
  8
0
 10
436.76894310371489
 20
254.1476823969619
 30
0.0
  0
VERTEX
  5
387B8
  8
0
 10
436.8949694456083
 20
254.2783583630353
 30
0.0
  0
VERTEX
  5
387B9
  8
0
 10
437.01935359444298
 20
254.41212296680081
 30
0.0
  0
VERTEX
  5
387BA
  8
0
 10
437.08088858201398
 20
254.4801465951337
 30
0.0
  0
VERTEX
  5
387BB
  8
0
 10
437.1419638503034
 20
254.5489213905193
 30
0.0
  0
VERTEX
  5
387BC
  8
0
 10
437.26267148253748
 20
254.68869340369429
 30
0.0
  0
VERTEX
  5
387BD
  8
0
 10
437.3813513540826
 20
254.8313739184382
 30
0.0
  0
VERTEX
  5
387BE
  8
0
 10
437.49788245725267
 20
254.97689356115831
 30
0.0
  0
VERTEX
  5
387BF
  8
0
 10
437.6121483661633
 20
255.1251792587841
 30
0.0
  0
VERTEX
  5
387C0
  8
0
 10
437.7240376109313
 20
255.276154838466
 30
0.0
  0
VERTEX
  5
387C1
  8
0
 10
437.77905758055232
 20
255.3526268329874
 30
0.0
  0
VERTEX
  5
387C2
  8
0
 10
437.83344397854592
 20
255.42974164029741
 30
0.0
  0
VERTEX
  5
387C3
  8
0
 10
437.940266918497
 20
255.58585940201061
 30
0.0
  0
VERTEX
  5
387C4
  8
0
 10
438.04441208311277
 20
255.74442753299809
 30
0.0
  0
VERTEX
  5
387C5
  8
0
 10
438.14578715645621
 20
255.9053590231743
 30
0.0
  0
VERTEX
  5
387C6
  8
0
 10
438.24430336775168
 20
256.06856229535327
 30
0.0
  0
VERTEX
  5
387C7
  8
0
 10
438.33987629190392
 20
256.23394231639941
 30
0.0
  0
VERTEX
  5
387C8
  8
0
 10
438.38653389853312
 20
256.3174180779161
 30
0.0
  0
VERTEX
  5
387C9
  8
0
 10
438.43242613715933
 20
256.40140105726192
 30
0.0
  0
VERTEX
  5
387CA
  8
0
 10
438.52187798427099
 20
256.57083796345017
 30
0.0
  0
VERTEX
  5
387CB
  8
0
 10
438.60816198057762
 20
256.74215043878979
 30
0.0
  0
VERTEX
  5
387CC
  8
0
 10
438.65009562928333
 20
256.82847751804462
 30
0.0
  0
SEQEND
  5
387CD
  8
0
  0
ARC
  5
2C651
  8
0
 10
429.63428809197359
 20
261.15458598295749
 30
0.0
 40
10.00000000000019
 50
334.36663451367372
 51
0.0
  0
LINE
  5
2C652
  8
0
 10
431.16521183001572
 20
248.5433740972685
 30
0.0
 11
436.70535590383918
 21
254.08351817109181
 31
0.0
  0
POLYLINE
  5
2C653
  8
0
 66
     1
 10
0.0
 20
0.0
 30
0.0
  0
VERTEX
  5
387CE
  8
0
 10
429.57602560403677
 20
246.47230628540319
 30
0.0
  0
VERTEX
  5
387CF
  8
0
 10
429.64143635701612
 20
246.5839272522403
 30
0.0
  0
VERTEX
  5
387D0
  8
0
 10
429.7765624386634
 20
246.80458392648461
 30
0.0
  0
VERTEX
  5
387D1
  8
0
 10
429.91735216780791
 20
247.02167072478781
 30
0.0
  0
VERTEX
  5
387D2
  8
0
 10
429.98984159143879
 20
247.1288299068701
 30
0.0
  0
SEQEND
  5
387D3
  8
0
  0
LINE
  5
2C655
  8
0
 10
424.12103943792192
 20
237.0239930911066
 30
0.0
 11
429.57602560403677
 21
246.47230628540319
 31
0.0
  0
LINE
  5
2C657
  8
0
 10
384.89255057991079
 20
246.47230628540319
 30
0.0
 11
390.3475367460257
 21
237.0239930911066
 31
0.0
  0
POLYLINE
  5
2C659
  8
0
 66
     1
 10
0.0
 20
0.0
 30
0.0
  0
VERTEX
  5
387D4
  8
0
 10
384.4787345925086
 20
247.1288299068701
 30
0.0
  0
VERTEX
  5
387D5
  8
0
 10
384.55122401613971
 20
247.02167072478781
 30
0.0
  0
VERTEX
  5
387D6
  8
0
 10
384.69201374528421
 20
246.80458392648461
 30
0.0
  0
VERTEX
  5
387D7
  8
0
 10
384.82713982693161
 20
246.5839272522403
 30
0.0
  0
VERTEX
  5
387D8
  8
0
 10
384.89255057991079
 20
246.47230628540319
 30
0.0
  0
SEQEND
  5
387D9
  8
0
  0
LINE
  5
2C65A
  8
0
 10
377.76322028010833
 20
254.08351817109221
 30
0.0
 11
383.3033643539319
 21
248.5433740972685
 31
0.0
  0
ARC
  5
2C65B
  8
0
 10
384.8342880919738
 20
261.15458598295749
 30
0.0
 40
9.9999999999999964
 50
180.0
 51
205.63336548632631
  0
POLYLINE
  5
2C65C
  8
0
 66
     1
 10
0.0
 20
0.0
 30
0.0
  0
VERTEX
  5
387DA
  8
0
 10
375.81848055466418
 20
256.82847751804462
 30
0.0
  0
VERTEX
  5
387DB
  8
0
 10
375.86041420336988
 20
256.74215043878979
 30
0.0
  0
VERTEX
  5
387DC
  8
0
 10
375.94669819967652
 20
256.57083796345017
 30
0.0
  0
VERTEX
  5
387DD
  8
0
 10
376.03615004678818
 20
256.40140105726192
 30
0.0
  0
VERTEX
  5
387DE
  8
0
 10
376.08204228541439
 20
256.3174180779161
 30
0.0
  0
VERTEX
  5
387DF
  8
0
 10
376.12869989204358
 20
256.23394231639941
 30
0.0
  0
VERTEX
  5
387E0
  8
0
 10
376.22427281619582
 20
256.06856229535327
 30
0.0
  0
VERTEX
  5
387E1
  8
0
 10
376.3227890274913
 20
255.9053590231743
 30
0.0
  0
VERTEX
  5
387E2
  8
0
 10
376.42416410083467
 20
255.74442753299809
 30
0.0
  0
VERTEX
  5
387E3
  8
0
 10
376.5283092654505
 20
255.58585940201061
 30
0.0
  0
VERTEX
  5
387E4
  8
0
 10
376.6351322054017
 20
255.42974164029741
 30
0.0
  0
VERTEX
  5
387E5
  8
0
 10
376.6895186033953
 20
255.3526268329874
 30
0.0
  0
VERTEX
  5
387E6
  8
0
 10
376.74453857301609
 20
255.276154838466
 30
0.0
  0
VERTEX
  5
387E7
  8
0
 10
376.85642781778421
 20
255.1251792587841
 30
0.0
  0
VERTEX
  5
387E8
  8
0
 10
376.97069372669489
 20
254.97689356115831
 30
0.0
  0
VERTEX
  5
387E9
  8
0
 10
377.08722482986491
 20
254.8313739184382
 30
0.0
  0
VERTEX
  5
387EA
  8
0
 10
377.20590470141002
 20
254.68869340369429
 30
0.0
  0
VERTEX
  5
387EB
  8
0
 10
377.32661233364411
 20
254.5489213905193
 30
0.0
  0
VERTEX
  5
387EC
  8
0
 10
377.38768760193352
 20
254.4801465951341
 30
0.0
  0
VERTEX
  5
387ED
  8
0
 10
377.44922258950447
 20
254.41212296680121
 30
0.0
  0
VERTEX
  5
387EE
  8
0
 10
377.57360673833921
 20
254.2783583630353
 30
0.0
  0
VERTEX
  5
387EF
  8
0
 10
377.69963308023262
 20
254.1476823969619
 30
0.0
  0
VERTEX
  5
387F0
  8
0
 10
377.76322028010833
 20
254.08351817109221
 30
0.0
  0
SEQEND
  5
387F1
  8
0
  0
LINE
  5
2C65D
  8
0
 10
374.8342880919738
 20
321.23724601866212
 30
0.0
 11
374.8342880919738
 21
261.15458598295749
 31
0.0
  0
ARC
  5
2C65E
  8
0
 10
354.83428809197369
 20
321.23724601866212
 30
0.0
 40
20.000000000000028
 50
0.0
 51
30.000000000000121
  0
LINE
  5
2C65F
  8
0
 10
362.75163836116337
 20
347.5239930911066
 30
0.0
 11
372.1547961676626
 21
331.23724601866212
 31
0.0
  0
ARC
  5
2C660
  8
0
 10
361.01958755359431
 20
346.5239930911066
 30
0.0
 40
2.0000000000002811
 50
30.000000000000121
 51
63.13398223538438
  0
ARC
  5
2C661
  8
0
 10
453.44898863035303
 20
346.5239930911066
 30
0.0
 40
1.9999999999999969
 50
116.86601776461561
 51
149.99999999999989
  0
LINE
  5
2C664
  8
0
 10
426.95875267819338
 20
350.5239930911066
 30
0.0
 11
426.95875267819338
 21
241.93905660056771
 31
0.0
  0
LINE
  5
2C666
  8
0
 10
399.00779078387012
 20
232.0239930911066
 30
0.0
 11
415.4607854000775
 21
232.0239930911066
 31
0.0
  0
LINE
  5
2C66E
  8
0
 10
357.23428809197378
 20
350.5239930911066
 30
0.0
 11
457.23428809197372
 21
350.5239930911066
 31
0.0
  0
ARC
  5
2C684
  8
0
 10
407.23428809197372
 20
243.5239930911066
 30
0.0
 40
62.602807251783879
 50
121.1679646984487
 51
58.832035301551272
  0
ARC
  5
2C685
  8
0
 10
407.23428809197372
 20
243.5239930911066
 30
0.0
 40
66.475088422018331
 50
119.16987526132949
 51
60.830124738670499
  0
ARC
  5
2C688
  8
0
 10
407.23428809197372
 20
243.5239930911066
 30
0.0
 40
37.5
 50
149.7687137448728
 51
30.231286255127142
  0
ARC
  5
2C68B
  8
0
 10
407.23428809197372
 20
243.5239930911066
 30
0.0
 40
60.000000000000028
 50
122.6836388462615
 51
57.31636115373847
  0
ARC
  5
2C691
  8
0
 10
407.23428809197372
 20
243.5239930911066
 30
0.0
 40
75.000000000000014
 50
115.5945522783823
 51
64.405447721617662
  0
LINE
  5
33D23
  8
3
 10
404.00128809197372
 20
547.41714282356861
 30
0.0
 11
404.00128809197372
 21
544.9171428235685
 31
0.0
  0
LINE
  5
33D24
  8
3
 10
410.46728809197373
 20
547.41714282356861
 30
0.0
 11
410.46728809197373
 21
544.9171428235685
 31
0.0
  0
LINE
  5
33D25
  8
3
 10
701.28514249370085
 20
240.29099309110691
 30
0.0
 11
698.78514249370096
 21
240.29099309110691
 31
0.0
  0
LINE
  5
33D27
  8
1
 10
319.5453804373812
 20
243.52399309110751
 30
0.0
 11
494.92319574656727
 21
243.52399309110751
 31
0.0
  0
LINE
  5
33D28
  8
1
 10
407.23428809197418
 20
155.83508543651439
 30
0.0
 11
407.23428809197412
 21
363.45623483041391
 31
0.0
  0
LINE
  5
33D2A
  8
1
 10
624.51105004826195
 20
243.5239930911066
 30
0.0
 11
708.05923493914088
 21
243.5239930911066
 31
0.0
  0
LINE
  5
33D2B
  8
1
 10
666.28514249370141
 20
155.59404064850469
 30
0.0
 11
666.28514249370141
 21
363.21519004240417
 31
0.0
  0
LINE
  5
33D2D
  8
1
 10
319.54576778898007
 20
512.41714282356861
 30
0.0
 11
494.9235830981662
 21
512.41714282356861
 31
0.0
  0
LINE
  5
33D2E
  8
1
 10
407.23467544357322
 20
469.54452701797658
 30
0.0
 11
407.23467544357322
 21
555.28975862916059
 31
0.0
  0
ARC
  5
34659
  8
0
 10
407.23428809197418
 20
243.52399309110751
 30
0.0
 40
44.98860367036832
 50
136.06954073707891
 51
43.930459262922049
  0
LINE
  5
380CE
  8
0
 10
115.6834336902474
 20
239.5239930911066
 30
0.0
 11
113.95043369024739
 21
239.5239930911066
 31
0.0
  0
LINE
  5
380CF
  8
0
 10
113.95043369024739
 20
239.5239930911066
 30
0.0
 11
113.1834336902474
 21
240.29099309110691
 31
0.0
  0
LINE
  5
380D0
  8
0
 10
125.6834336902474
 20
247.5239930911066
 30
0.0
 11
127.6834336902474
 21
247.5239930911066
 31
0.0
  0
LINE
  5
380D1
  8
0
 10
127.6834336902474
 20
239.5239930911066
 30
0.0
 11
125.6834336902474
 21
239.5239930911066
 31
0.0
  0
LINE
  5
380D2
  8
0
 10
118.1834336902474
 20
237.70899309110649
 30
0.0
 11
115.6834336902474
 21
237.70899309110649
 31
0.0
  0
LINE
  5
380D3
  8
0
 10
168.1834336902474
 20
247.5239930911066
 30
0.0
 11
170.6834336902474
 21
247.5239930911066
 31
0.0
  0
LINE
  5
380D4
  8
0
 10
170.6834336902474
 20
239.5239930911066
 30
0.0
 11
168.1834336902474
 21
239.5239930911066
 31
0.0
  0
LINE
  5
380D5
  8
0
 10
127.6834336902474
 20
251.0239930911066
 30
0.0
 11
128.1834336902474
 21
251.0239930911066
 31
0.0
  0
LINE
  5
380D6
  8
0
 10
128.1834336902474
 20
236.0239930911066
 30
0.0
 11
127.6834336902474
 21
236.0239930911066
 31
0.0
  0
LINE
  5
380D7
  8
0
 10
113.95043369024739
 20
239.5239930911066
 30
0.0
 11
113.95043369024739
 21
243.92209498378321
 31
0.0
  0
LINE
  5
380D8
  8
0
 10
113.1834336902474
 20
240.29099309110691
 30
0.0
 11
113.1834336902474
 21
244.69004064396859
 31
0.0
  0
LINE
  5
380D9
  8
0
 10
178.4834336902473
 20
237.26565975777339
 30
0.0
 11
178.4834336902473
 21
239.6401240813739
 31
0.0
  0
LINE
  5
380DA
  8
0
 10
178.4834336902473
 20
237.26565975777339
 30
0.0
 11
176.99304397560539
 21
237.26565975777339
 31
0.0
  0
POLYLINE
  5
380DB
  8
0
 66
     1
 10
0.0
 20
0.0
 30
0.0
  0
VERTEX
  5
387F2
  8
0
 10
178.22401398083181
 20
237.26565975777339
 30
0.0
  0
VERTEX
  5
387F3
  8
0
 10
178.2852531060683
 20
237.6830998240639
 30
0.0
  0
VERTEX
  5
387F4
  8
0
 10
178.38150712095259
 20
238.47662813533
 30
0.0
  0
VERTEX
  5
387F5
  8
0
 10
178.4453743209346
 20
239.23356537681909
 30
0.0
  0
VERTEX
  5
387F6
  8
0
 10
178.46571009262911
 20
239.60474982180131
 30
0.0
  0
SEQEND
  5
387F7
  8
0
  0
LINE
  5
380DC
  8
0
 10
115.6834336902474
 20
237.70899309110649
 30
0.0
 11
115.6834336902474
 21
242.18751231674329
 31
0.0
  0
LINE
  5
380DD
  8
0
 10
118.1834336902474
 20
237.26565975777339
 30
0.0
 11
118.1834336902474
 21
239.196810789681
 31
0.0
  0
LINE
  5
380DE
  8
0
 10
119.37382340488929
 20
237.26565975777339
 30
0.0
 11
118.1834336902474
 21
237.26565975777339
 31
0.0
  0
POLYLINE
  5
380DF
  8
0
 66
     1
 10
0.0
 20
0.0
 30
0.0
  0
VERTEX
  5
387F8
  8
0
 10
118.2279099981459
 20
239.1382935645106
 30
0.0
  0
VERTEX
  5
387F9
  8
0
 10
118.2509901649773
 20
238.84096322315369
 30
0.0
  0
VERTEX
  5
387FA
  8
0
 10
118.31195830172049
 20
238.23256663945361
 30
0.0
  0
VERTEX
  5
387FB
  8
0
 10
118.3936711078871
 20
237.59709394040371
 30
0.0
  0
VERTEX
  5
387FC
  8
0
 10
118.44285339966289
 20
237.26565975777339
 30
0.0
  0
SEQEND
  5
387FD
  8
0
  0
LINE
  5
380E0
  8
0
 10
127.6834336902474
 20
236.0239930911066
 30
0.0
 11
127.6834336902474
 21
251.0239930911066
 31
0.0
  0
POLYLINE
  5
380E1
  8
0
 66
     1
 10
0.0
 20
0.0
 30
0.0
  0
VERTEX
  5
387FE
  8
0
 10
174.65984760684529
 20
233.77197833339599
 30
0.0
  0
VERTEX
  5
387FF
  8
0
 10
174.5691559274606
 20
233.6619130882905
 30
0.0
  0
VERTEX
  5
38800
  8
0
 10
174.39090758986731
 20
233.45016262652419
 30
0.0
  0
VERTEX
  5
38801
  8
0
 10
174.2176834752168
 20
233.25035073817389
 30
0.0
  0
VERTEX
  5
38802
  8
0
 10
174.1332611766091
 20
233.15519562060581
 30
0.0
  0
SEQEND
  5
38803
  8
0
  0
POLYLINE
  5
380E2
  8
0
 66
     1
 10
0.0
 20
0.0
 30
0.0
  0
VERTEX
  5
38804
  8
0
 10
172.95162867257849
 20
232.068790247572
 30
0.0
  0
VERTEX
  5
38805
  8
0
 10
172.9227212321704
 20
232.05505910367171
 30
0.0
  0
VERTEX
  5
38806
  8
0
 10
172.86996772011079
 20
232.0351395492344
 30
0.0
  0
VERTEX
  5
38807
  8
0
 10
172.82396560967879
 20
232.02522652292831
 30
0.0
  0
VERTEX
  5
38808
  8
0
 10
172.8034878919521
 20
232.0239930911066
 30
0.0
  0
SEQEND
  5
38809
  8
0
  0
POLYLINE
  5
380E3
  8
0
 66
     1
 10
0.0
 20
0.0
 30
0.0
  0
VERTEX
  5
3880A
  8
0
 10
180.4334336902474
 20
241.93905660056771
 30
0.0
  0
VERTEX
  5
3880B
  8
0
 10
180.3235464954069
 20
241.82812572300961
 30
0.0
  0
VERTEX
  5
3880C
  8
0
 10
180.10536719090589
 20
241.60159737841789
 30
0.0
  0
VERTEX
  5
3880D
  8
0
 10
179.88936357581741
 20
241.3688979318195
 30
0.0
  0
VERTEX
  5
3880E
  8
0
 10
179.78219585540029
 20
241.25025356630979
 30
0.0
  0
VERTEX
  5
3880F
  8
0
 10
179.6755938270305
 20
241.1300900568408
 30
0.0
  0
VERTEX
  5
38810
  8
0
 10
179.46411551978039
 20
240.8852380723097
 30
0.0
  0
VERTEX
  5
38811
  8
0
 10
179.2549856121417
 20
240.6344079249306
 30
0.0
  0
VERTEX
  5
38812
  8
0
 10
179.0482604296875
 20
240.3776671715255
 30
0.0
  0
VERTEX
  5
38813
  8
0
 10
178.8439956503195
 20
240.11508496083661
 30
0.0
  0
VERTEX
  5
38814
  8
0
 10
178.64224628927141
 20
239.84673201490301
 30
0.0
  0
VERTEX
  5
38815
  8
0
 10
178.5423318980296
 20
239.71041404237619
 30
0.0
  0
VERTEX
  5
38816
  8
0
 10
178.44306668429209
 20
239.57268061001329
 30
0.0
  0
VERTEX
  5
38817
  8
0
 10
178.2465104810106
 20
239.29300455723839
 30
0.0
  0
VERTEX
  5
38818
  8
0
 10
178.0526306184872
 20
239.00777918255241
 30
0.0
  0
VERTEX
  5
38819
  8
0
 10
177.86147931495569
 20
238.717081306544
 30
0.0
  0
VERTEX
  5
3881A
  8
0
 10
177.67310805375891
 20
238.4209892237277
 30
0.0
  0
VERTEX
  5
3881B
  8
0
 10
177.48756756948271
 20
238.11958268145511
 30
0.0
  0
VERTEX
  5
3881C
  8
0
 10
177.39587451514271
 20
237.9669118010525
 30
0.0
  0
VERTEX
  5
3881D
  8
0
 10
177.30490783429161
 20
237.8129428584366
 30
0.0
  0
VERTEX
  5
3881E
  8
0
 10
177.12517804446921
 20
237.50115234287799
 30
0.0
  0
VERTEX
  5
3881F
  8
0
 10
176.94842660716861
 20
237.18429511023581
 30
0.0
  0
VERTEX
  5
38820
  8
0
 10
176.8611826789583
 20
237.0239930911066
 30
0.0
  0
SEQEND
  5
38821
  8
0
  0
POLYLINE
  5
380E4
  8
0
 66
     1
 10
0.0
 20
0.0
 30
0.0
  0
VERTEX
  5
38822
  8
0
 10
180.9666833750826
 20
246.47230628540319
 30
0.0
  0
VERTEX
  5
38823
  8
0
 10
181.03005860008449
 20
246.53515266304839
 30
0.0
  0
VERTEX
  5
38824
  8
0
 10
181.15917541508969
 20
246.6600388670081
 30
0.0
  0
VERTEX
  5
38825
  8
0
 10
181.29142455325729
 20
246.7838276780121
 30
0.0
  0
VERTEX
  5
38826
  8
0
 10
181.3587150269137
 20
246.84530236887119
 30
0.0
  0
VERTEX
  5
38827
  8
0
 10
181.42677803911451
 20
246.90649291025289
 30
0.0
  0
VERTEX
  5
38828
  8
0
 10
181.5652072405066
 20
247.02800861559899
 30
0.0
  0
VERTEX
  5
38829
  8
0
 10
181.70668287465389
 20
247.1483490890873
 30
0.0
  0
VERTEX
  5
3882A
  8
0
 10
181.85117501434581
 20
247.2674888743577
 30
0.0
  0
VERTEX
  5
3882B
  8
0
 10
181.9986530942721
 20
247.3854027690391
 30
0.0
  0
VERTEX
  5
3882C
  8
0
 10
182.14908591748821
 20
247.50206583008051
 30
0.0
  0
VERTEX
  5
3882D
  8
0
 10
182.22540043769371
 20
247.5599205754902
 30
0.0
  0
VERTEX
  5
3882E
  8
0
 10
182.30244166201459
 20
247.61745337902769
 30
0.0
  0
VERTEX
  5
3882F
  8
0
 10
182.45868788756809
 20
247.73154100724381
 30
0.0
  0
VERTEX
  5
38830
  8
0
 10
182.61779154242419
 20
247.8443045810709
 30
0.0
  0
VERTEX
  5
38831
  8
0
 10
182.77971897040911
 20
247.95572024693769
 30
0.0
  0
VERTEX
  5
38832
  8
0
 10
182.94443591801871
 20
248.0657644364037
 30
0.0
  0
VERTEX
  5
38833
  8
0
 10
183.11190754166489
 20
248.17441387114519
 30
0.0
  0
VERTEX
  5
38834
  8
0
 10
183.19666530884061
 20
248.22820836155961
 30
0.0
  0
VERTEX
  5
38835
  8
0
 10
183.28209841504579
 20
248.281645567879
 30
0.0
  0
VERTEX
  5
38836
  8
0
 10
183.45497253664021
 20
248.38743684322569
 30
0.0
  0
VERTEX
  5
38837
  8
0
 10
183.63049333732241
 20
248.49176531850659
 30
0.0
  0
VERTEX
  5
38838
  8
0
 10
183.71923466116669
 20
248.5433740972685
 30
0.0
  0
SEQEND
  5
38839
  8
0
  0
POLYLINE
  5
380E5
  8
0
 66
     1
 10
0.0
 20
0.0
 30
0.0
  0
VERTEX
  5
3883A
  8
0
 10
190.6834336902474
 20
256.82847751804462
 30
0.0
  0
VERTEX
  5
3883B
  8
0
 10
190.68334576831609
 20
256.74215043878979
 30
0.0
  0
VERTEX
  5
3883C
  8
0
 10
190.68261166823669
 20
256.57083796345069
 30
0.0
  0
VERTEX
  5
3883D
  8
0
 10
190.68106440918271
 20
256.40140105726232
 30
0.0
  0
VERTEX
  5
3883E
  8
0
 10
190.67995984757249
 20
256.3174180779161
 30
0.0
  0
VERTEX
  5
3883F
  8
0
 10
190.67862073015391
 20
256.23394231639992
 30
0.0
  0
VERTEX
  5
38840
  8
0
 10
190.67519693006051
 20
256.06856229535379
 30
0.0
  0
VERTEX
  5
38841
  8
0
 10
190.67070924288109
 20
255.90535902317509
 30
0.0
  0
VERTEX
  5
38842
  8
0
 10
190.66507420881439
 20
255.74442753299849
 30
0.0
  0
VERTEX
  5
38843
  8
0
 10
190.65820903615591
 20
255.58585940201101
 30
0.0
  0
VERTEX
  5
38844
  8
0
 10
190.6500319103699
 20
255.42974164029781
 30
0.0
  0
VERTEX
  5
38845
  8
0
 10
190.64542609727451
 20
255.35262683298831
 30
0.0
  0
VERTEX
  5
38846
  8
0
 10
190.64046219008841
 20
255.27615483846691
 30
0.0
  0
VERTEX
  5
38847
  8
0
 10
190.62942109618061
 20
255.12517925878501
 30
0.0
  0
VERTEX
  5
38848
  8
0
 10
190.6168321422476
 20
254.97689356115919
 30
0.0
  0
VERTEX
  5
38849
  8
0
 10
190.60262155842219
 20
254.83137391843911
 30
0.0
  0
VERTEX
  5
3884A
  8
0
 10
190.5867187127553
 20
254.6886934036952
 30
0.0
  0
VERTEX
  5
3884B
  8
0
 10
190.5690565101427
 20
254.54892139052069
 30
0.0
  0
VERTEX
  5
3884C
  8
0
 10
190.5595457411915
 20
254.48014659513501
 30
0.0
  0
VERTEX
  5
3884D
  8
0
 10
190.54957176022231
 20
254.4121229668022
 30
0.0
  0
VERTEX
  5
3884E
  8
0
 10
190.52820550473771
 20
254.2783583630362
 30
0.0
  0
VERTEX
  5
3884F
  8
0
 10
190.50490329390399
 20
254.14768239696329
 30
0.0
  0
VERTEX
  5
38850
  8
0
 10
190.49251047658581
 20
254.0835181710932
 30
0.0
  0
SEQEND
  5
38851
  8
0
  0
POLYLINE
  5
380E6
  8
0
 66
     1
 10
0.0
 20
0.0
 30
0.0
  0
VERTEX
  5
38852
  8
0
 10
122.11876174388981
 20
237.0239930911066
 30
0.0
  0
VERTEX
  5
38853
  8
0
 10
122.23077118997431
 20
236.77421419581421
 30
0.0
  0
VERTEX
  5
38854
  8
0
 10
122.4608883310765
 20
236.29187724357419
 30
0.0
  0
VERTEX
  5
38855
  8
0
 10
122.69593630500481
 20
235.8341130212803
 30
0.0
  0
VERTEX
  5
38856
  8
0
 10
122.814141390494
 20
235.61501304107651
 30
0.0
  0
VERTEX
  5
38857
  8
0
 10
122.9321978939011
 20
235.40271909222159
 30
0.0
  0
VERTEX
  5
38858
  8
0
 10
123.1661425897567
 20
234.99932346618149
 30
0.0
  0
VERTEX
  5
38859
  8
0
 10
123.3985700569945
 20
234.61880839897731
 30
0.0
  0
VERTEX
  5
3885A
  8
0
 10
123.63270270493641
 20
234.2537258865168
 30
0.0
  0
VERTEX
  5
3885B
  8
0
 10
123.86545871024521
 20
233.9074869630644
 30
0.0
  0
VERTEX
  5
3885C
  8
0
 10
124.0937545737746
 20
233.58330591466941
 30
0.0
  0
VERTEX
  5
3885D
  8
0
 10
124.20530548918261
 20
233.43040024173979
 30
0.0
  0
VERTEX
  5
3885E
  8
0
 10
124.31465045779279
 20
233.2840703578936
 30
0.0
  0
VERTEX
  5
3885F
  8
0
 10
124.5253675370454
 20
233.0123905179689
 30
0.0
  0
VERTEX
  5
38860
  8
0
 10
124.7233560230333
 20
232.77055917237979
 30
0.0
  0
VERTEX
  5
38861
  8
0
 10
124.90646540476671
 20
232.5603936704847
 30
0.0
  0
VERTEX
  5
38862
  8
0
 10
125.0727427998313
 20
232.38351383324331
 30
0.0
  0
VERTEX
  5
38863
  8
0
 10
125.2205037988772
 20
232.24124082898109
 30
0.0
  0
VERTEX
  5
38864
  8
0
 10
125.28702442754749
 20
232.1833709552198
 30
0.0
  0
VERTEX
  5
38865
  8
0
 10
125.34847037420769
 20
232.13444010465039
 30
0.0
  0
VERTEX
  5
38866
  8
0
 10
125.4557831472943
 20
232.0635074456286
 30
0.0
  0
VERTEX
  5
38867
  8
0
 10
125.5420016083916
 20
232.02834413239501
 30
0.0
  0
VERTEX
  5
38868
  8
0
 10
125.5771892613719
 20
232.0239930911066
 30
0.0
  0
SEQEND
  5
38869
  8
0
  0
POLYLINE
  5
380E7
  8
0
 66
     1
 10
0.0
 20
0.0
 30
0.0
  0
VERTEX
  5
3886A
  8
0
 10
116.9334336902474
 20
244.93905660056771
 30
0.0
  0
VERTEX
  5
3886B
  8
0
 10
117.10026430970851
 20
244.77009176237701
 30
0.0
  0
VERTEX
  5
3886C
  8
0
 10
117.43064296960669
 20
244.42264091428481
 30
0.0
  0
VERTEX
  5
3886D
  8
0
 10
117.7565107802414
 20
244.06263705518819
 30
0.0
  0
VERTEX
  5
3886E
  8
0
 10
117.9177033538617
 20
243.87798238846341
 30
0.0
  0
VERTEX
  5
3886F
  8
0
 10
118.0777087811599
 20
243.6902557973271
 30
0.0
  0
VERTEX
  5
38870
  8
0
 10
118.3940802898731
 20
243.30567879071901
 30
0.0
  0
VERTEX
  5
38871
  8
0
 10
118.7054709782868
 20
242.90909363454699
 30
0.0
  0
VERTEX
  5
38872
  8
0
 10
119.0117289479831
 20
242.5006937856478
 30
0.0
  0
VERTEX
  5
38873
  8
0
 10
119.3127048043181
 20
242.080678464144
 30
0.0
  0
VERTEX
  5
38874
  8
0
 10
119.60825172929761
 20
241.64925255625991
 30
0.0
  0
VERTEX
  5
38875
  8
0
 10
119.7539441841097
 20
241.4293261841558
 30
0.0
  0
VERTEX
  5
38876
  8
0
 10
119.8982255531955
 20
241.20662651437991
 30
0.0
  0
VERTEX
  5
38877
  8
0
 10
120.1824848248808
 20
240.75301625438669
 30
0.0
  0
VERTEX
  5
38878
  8
0
 10
120.46089088081879
 20
240.28864305033721
 30
0.0
  0
VERTEX
  5
38879
  8
0
 10
120.7333079127114
 20
239.81373342652159
 30
0.0
  0
VERTEX
  5
3887A
  8
0
 10
120.9996030337462
 20
239.32851904696599
 30
0.0
  0
VERTEX
  5
3887B
  8
0
 10
121.2596463434184
 20
238.83323660242331
 30
0.0
  0
VERTEX
  5
3887C
  8
0
 10
121.387283807279
 20
238.58189516777341
 30
0.0
  0
VERTEX
  5
3887D
  8
0
 10
121.51331099089811
 20
238.3281276949142
 30
0.0
  0
VERTEX
  5
3887E
  8
0
 10
121.76047323690869
 20
237.81343871987249
 30
0.0
  0
VERTEX
  5
3887F
  8
0
 10
122.00101251408741
 20
237.28942074595261
 30
0.0
  0
VERTEX
  5
38880
  8
0
 10
122.11876174388981
 20
237.0239930911066
 30
0.0
  0
SEQEND
  5
38881
  8
0
  0
POLYLINE
  5
380E8
  8
0
 66
     1
 10
0.0
 20
0.0
 30
0.0
  0
VERTEX
  5
38882
  8
0
 10
112.647632719328
 20
248.5433740972685
 30
0.0
  0
VERTEX
  5
38883
  8
0
 10
112.7363740431725
 20
248.49176531850659
 30
0.0
  0
VERTEX
  5
38884
  8
0
 10
112.9118948438547
 20
248.38743684322569
 30
0.0
  0
VERTEX
  5
38885
  8
0
 10
113.0847689654489
 20
248.281645567879
 30
0.0
  0
VERTEX
  5
38886
  8
0
 10
113.1702020716542
 20
248.22820836155961
 30
0.0
  0
VERTEX
  5
38887
  8
0
 10
113.2549598388299
 20
248.17441387114519
 30
0.0
  0
VERTEX
  5
38888
  8
0
 10
113.4224314624761
 20
248.0657644364037
 30
0.0
  0
VERTEX
  5
38889
  8
0
 10
113.5871484100857
 20
247.95572024693769
 30
0.0
  0
VERTEX
  5
3888A
  8
0
 10
113.74907583807069
 20
247.8443045810709
 30
0.0
  0
VERTEX
  5
3888B
  8
0
 10
113.90817949292671
 20
247.73154100724381
 30
0.0
  0
VERTEX
  5
3888C
  8
0
 10
114.06442571848029
 20
247.61745337902769
 30
0.0
  0
VERTEX
  5
3888D
  8
0
 10
114.1414669428012
 20
247.5599205754902
 30
0.0
  0
VERTEX
  5
3888E
  8
0
 10
114.2177814630065
 20
247.50206583008051
 30
0.0
  0
VERTEX
  5
3888F
  8
0
 10
114.3682142862227
 20
247.3854027690391
 30
0.0
  0
VERTEX
  5
38890
  8
0
 10
114.5156923661491
 20
247.2674888743577
 30
0.0
  0
VERTEX
  5
38891
  8
0
 10
114.660184505841
 20
247.1483490890873
 30
0.0
  0
VERTEX
  5
38892
  8
0
 10
114.8016601399882
 20
247.02800861559899
 30
0.0
  0
VERTEX
  5
38893
  8
0
 10
114.9400893413802
 20
246.90649291025289
 30
0.0
  0
VERTEX
  5
38894
  8
0
 10
115.008152353581
 20
246.84530236887119
 30
0.0
  0
VERTEX
  5
38895
  8
0
 10
115.0754428272374
 20
246.7838276780121
 30
0.0
  0
VERTEX
  5
38896
  8
0
 10
115.2076919654051
 20
246.6600388670081
 30
0.0
  0
VERTEX
  5
38897
  8
0
 10
115.33680878041019
 20
246.53515266304839
 30
0.0
  0
VERTEX
  5
38898
  8
0
 10
115.4001840054121
 20
246.47230628540319
 30
0.0
  0
SEQEND
  5
38899
  8
0
  0
POLYLINE
  5
380E9
  8
0
 66
     1
 10
0.0
 20
0.0
 30
0.0
  0
VERTEX
  5
3889A
  8
0
 10
107.9234087289293
 20
254.08351817109221
 30
0.0
  0
VERTEX
  5
3889B
  8
0
 10
107.9686343084697
 20
253.91121502995969
 30
0.0
  0
VERTEX
  5
3889C
  8
0
 10
108.07053705208401
 20
253.56984280208189
 30
0.0
  0
VERTEX
  5
3889D
  8
0
 10
108.1875370222718
 20
253.23334588664511
 30
0.0
  0
VERTEX
  5
3889E
  8
0
 10
108.251627117149
 20
253.06713461979601
 30
0.0
  0
VERTEX
  5
3889F
  8
0
 10
108.31940219498981
 20
252.90239159471591
 30
0.0
  0
VERTEX
  5
388A0
  8
0
 10
108.4658710668335
 20
252.57763624571729
 30
0.0
  0
VERTEX
  5
388A1
  8
0
 10
108.6266531736274
 20
252.25972386587449
 30
0.0
  0
VERTEX
  5
388A2
  8
0
 10
108.8014296664485
 20
251.9492849110388
 30
0.0
  0
VERTEX
  5
388A3
  8
0
 10
108.9898539439388
 20
251.6469350164225
 30
0.0
  0
VERTEX
  5
388A4
  8
0
 10
109.1915523396551
 20
251.35327377572551
 30
0.0
  0
VERTEX
  5
388A5
  8
0
 10
109.2972553417589
 20
251.20988409396571
 30
0.0
  0
VERTEX
  5
388A6
  8
0
 10
109.40612486309131
 20
251.06888355207411
 30
0.0
  0
VERTEX
  5
388A7
  8
0
 10
109.6331459929043
 20
250.7943283231298
 30
0.0
  0
VERTEX
  5
388A8
  8
0
 10
109.87216552077049
 20
250.53015256265741
 30
0.0
  0
VERTEX
  5
388A9
  8
0
 10
110.122709444199
 20
250.27688016077491
 30
0.0
  0
VERTEX
  5
388AA
  8
0
 10
110.3842809065323
 20
250.03501338501789
 30
0.0
  0
VERTEX
  5
388AB
  8
0
 10
110.6563611822681
 20
249.80503188428841
 30
0.0
  0
VERTEX
  5
388AC
  8
0
 10
110.79617429597791
 20
249.6946415825237
 30
0.0
  0
VERTEX
  5
388AD
  8
0
 10
110.9384107057505
 20
249.5873917376571
 30
0.0
  0
VERTEX
  5
388AE
  8
0
 10
111.2298701411886
 20
249.3825245499074
 30
0.0
  0
VERTEX
  5
388AF
  8
0
 10
111.5301614918825
 20
249.19083659561511
 30
0.0
  0
VERTEX
  5
388B0
  8
0
 10
111.6834336902474
 20
249.1000546662608
 30
0.0
  0
SEQEND
  5
388B1
  8
0
  0
POLYLINE
  5
380EA
  8
0
 66
     1
 10
0.0
 20
0.0
 30
0.0
  0
VERTEX
  5
388B2
  8
0
 10
107.6834336902474
 20
256.82847751804462
 30
0.0
  0
VERTEX
  5
388B3
  8
0
 10
107.68354494400759
 20
256.74162787220439
 30
0.0
  0
VERTEX
  5
388B4
  8
0
 10
107.6844733173875
 20
256.56938180016141
 30
0.0
  0
VERTEX
  5
388B5
  8
0
 10
107.68642841423529
 20
256.39916886208721
 30
0.0
  0
VERTEX
  5
388B6
  8
0
 10
107.6878231610654
 20
256.31486007003878
 30
0.0
  0
VERTEX
  5
388B7
  8
0
 10
107.6895132026205
 20
256.23110151082619
 30
0.0
  0
VERTEX
  5
388B8
  8
0
 10
107.6938305048733
 20
256.06528920143728
 30
0.0
  0
VERTEX
  5
388B9
  8
0
 10
107.6994824812522
 20
255.90183780918099
 30
0.0
  0
VERTEX
  5
388BA
  8
0
 10
107.7065702024893
 20
255.74084757324911
 30
0.0
  0
VERTEX
  5
388BB
  8
0
 10
107.7151932372807
 20
255.58241283060491
 30
0.0
  0
VERTEX
  5
388BC
  8
0
 10
107.7254488856928
 20
255.4266271826055
 30
0.0
  0
VERTEX
  5
388BD
  8
0
 10
107.7312185828001
 20
255.34975643655159
 30
0.0
  0
VERTEX
  5
388BE
  8
0
 10
107.737431596042
 20
255.27358202078361
 30
0.0
  0
VERTEX
  5
388BF
  8
0
 10
107.7512323729723
 20
255.123365758011
 30
0.0
  0
VERTEX
  5
388C0
  8
0
 10
107.7669382065212
 20
254.97606308405099
 30
0.0
  0
VERTEX
  5
388C1
  8
0
 10
107.7846315347865
 20
254.8317542265481
 30
0.0
  0
VERTEX
  5
388C2
  8
0
 10
107.8043897538475
 20
254.6905142166743
 30
0.0
  0
VERTEX
  5
388C3
  8
0
 10
107.8262847904621
 20
254.55241215973871
 30
0.0
  0
VERTEX
  5
388C4
  8
0
 10
107.8380545095887
 20
254.48455766061849
 30
0.0
  0
VERTEX
  5
388C5
  8
0
 10
107.8503965271214
 20
254.41743773190501
 30
0.0
  0
VERTEX
  5
388C6
  8
0
 10
107.87724692503831
 20
254.2834887474705
 30
0.0
  0
VERTEX
  5
388C7
  8
0
 10
107.90720807437521
 20
254.1499631824345
 30
0.0
  0
VERTEX
  5
388C8
  8
0
 10
107.9234087289293
 20
254.08351817109221
 30
0.0
  0
SEQEND
  5
388C9
  8
0
  0
LINE
  5
380EB
  8
0
 10
188.6834336902474
 20
348.5239930911066
 30
0.0
 11
107.6834336902474
 21
348.5239930911066
 31
0.0
  0
LINE
  5
380EC
  8
0
 10
107.6834336902474
 20
348.5239930911066
 30
0.0
 11
107.6834336902474
 21
256.82847751804462
 31
0.0
  0
LINE
  5
380ED
  8
0
 10
188.6834336902474
 20
348.5239930911066
 30
0.0
 11
188.6834336902474
 21
256.82847751804462
 31
0.0
  0
POLYLINE
  5
380EE
  8
0
 66
     1
 10
0.0
 20
0.0
 30
0.0
  0
VERTEX
  5
388CA
  8
0
 10
188.6834336902474
 20
256.82847751804462
 30
0.0
  0
VERTEX
  5
388CB
  8
0
 10
188.68332243648709
 20
256.74162787220439
 30
0.0
  0
VERTEX
  5
388CC
  8
0
 10
188.68239406310721
 20
256.56938180016141
 30
0.0
  0
VERTEX
  5
388CD
  8
0
 10
188.6804389662594
 20
256.39916886208681
 30
0.0
  0
VERTEX
  5
388CE
  8
0
 10
188.6790442194293
 20
256.31486007003878
 30
0.0
  0
VERTEX
  5
388CF
  8
0
 10
188.67735417787421
 20
256.23110151082619
 30
0.0
  0
VERTEX
  5
388D0
  8
0
 10
188.67303687562151
 20
256.06528920143728
 30
0.0
  0
VERTEX
  5
388D1
  8
0
 10
188.66738489924259
 20
255.90183780918099
 30
0.0
  0
VERTEX
  5
388D2
  8
0
 10
188.66029717800541
 20
255.7408475732486
 30
0.0
  0
VERTEX
  5
388D3
  8
0
 10
188.65167414321411
 20
255.58241283060491
 30
0.0
  0
VERTEX
  5
388D4
  8
0
 10
188.641418494802
 20
255.4266271826055
 30
0.0
  0
VERTEX
  5
388D5
  8
0
 10
188.63564879769461
 20
255.34975643655159
 30
0.0
  0
VERTEX
  5
388D6
  8
0
 10
188.62943578445271
 20
255.27358202078361
 30
0.0
  0
VERTEX
  5
388D7
  8
0
 10
188.6156350075224
 20
255.123365758011
 30
0.0
  0
VERTEX
  5
388D8
  8
0
 10
188.59992917397361
 20
254.97606308405099
 30
0.0
  0
VERTEX
  5
388D9
  8
0
 10
188.5822358457082
 20
254.8317542265481
 30
0.0
  0
VERTEX
  5
388DA
  8
0
 10
188.56247762664719
 20
254.6905142166743
 30
0.0
  0
VERTEX
  5
388DB
  8
0
 10
188.5405825900327
 20
254.5524121597382
 30
0.0
  0
VERTEX
  5
388DC
  8
0
 10
188.52881287090611
 20
254.48455766061849
 30
0.0
  0
VERTEX
  5
388DD
  8
0
 10
188.51647085337331
 20
254.41743773190501
 30
0.0
  0
VERTEX
  5
388DE
  8
0
 10
188.48962045545639
 20
254.2834887474705
 30
0.0
  0
VERTEX
  5
388DF
  8
0
 10
188.45965930611951
 20
254.1499631824345
 30
0.0
  0
VERTEX
  5
388E0
  8
0
 10
188.44345865156549
 20
254.08351817109221
 30
0.0
  0
SEQEND
  5
388E1
  8
0
  0
POLYLINE
  5
380EF
  8
0
 66
     1
 10
0.0
 20
0.0
 30
0.0
  0
VERTEX
  5
388E2
  8
0
 10
190.49251047658561
 20
254.08351817109221
 30
0.0
  0
VERTEX
  5
388E3
  8
0
 10
190.50490329390379
 20
254.1476823969619
 30
0.0
  0
VERTEX
  5
388E4
  8
0
 10
190.5282055047374
 20
254.2783583630353
 30
0.0
  0
VERTEX
  5
388E5
  8
0
 10
190.54957176022219
 20
254.41212296680081
 30
0.0
  0
VERTEX
  5
388E6
  8
0
 10
190.5595457411913
 20
254.4801465951337
 30
0.0
  0
VERTEX
  5
388E7
  8
0
 10
190.5690565101425
 20
254.5489213905193
 30
0.0
  0
VERTEX
  5
388E8
  8
0
 10
190.58671871275519
 20
254.68869340369429
 30
0.0
  0
VERTEX
  5
388E9
  8
0
 10
190.6026215584221
 20
254.8313739184382
 30
0.0
  0
VERTEX
  5
388EA
  8
0
 10
190.61683214224749
 20
254.97689356115831
 30
0.0
  0
VERTEX
  5
388EB
  8
0
 10
190.62942109618061
 20
255.1251792587841
 30
0.0
  0
VERTEX
  5
388EC
  8
0
 10
190.64046219008841
 20
255.276154838466
 30
0.0
  0
VERTEX
  5
388ED
  8
0
 10
190.64542609727431
 20
255.3526268329874
 30
0.0
  0
VERTEX
  5
388EE
  8
0
 10
190.6500319103699
 20
255.42974164029741
 30
0.0
  0
VERTEX
  5
388EF
  8
0
 10
190.65820903615591
 20
255.58585940201061
 30
0.0
  0
VERTEX
  5
388F0
  8
0
 10
190.66507420881439
 20
255.74442753299809
 30
0.0
  0
VERTEX
  5
388F1
  8
0
 10
190.67070924288109
 20
255.9053590231743
 30
0.0
  0
VERTEX
  5
388F2
  8
0
 10
190.67519693006051
 20
256.06856229535327
 30
0.0
  0
VERTEX
  5
388F3
  8
0
 10
190.67862073015391
 20
256.23394231639941
 30
0.0
  0
VERTEX
  5
388F4
  8
0
 10
190.67995984757249
 20
256.3174180779161
 30
0.0
  0
VERTEX
  5
388F5
  8
0
 10
190.68106440918271
 20
256.40140105726192
 30
0.0
  0
VERTEX
  5
388F6
  8
0
 10
190.68261166823669
 20
256.57083796345017
 30
0.0
  0
VERTEX
  5
388F7
  8
0
 10
190.68334576831609
 20
256.74215043878979
 30
0.0
  0
VERTEX
  5
388F8
  8
0
 10
190.6834336902474
 20
256.82847751804462
 30
0.0
  0
SEQEND
  5
388F9
  8
0
  0
LINE
  5
380F0
  8
0
 10
190.6834336902474
 20
256.82847751804462
 30
0.0
 11
190.6834336902474
 21
350.5239930911066
 31
0.0
  0
POLYLINE
  5
380F1
  8
0
 66
     1
 10
0.0
 20
0.0
 30
0.0
  0
VERTEX
  5
388FA
  8
0
 10
188.44345865156549
 20
254.08351817109181
 30
0.0
  0
VERTEX
  5
388FB
  8
0
 10
188.39823307202499
 20
253.91121502995929
 30
0.0
  0
VERTEX
  5
388FC
  8
0
 10
188.29633032841079
 20
253.56984280208189
 30
0.0
  0
VERTEX
  5
388FD
  8
0
 10
188.1793303582229
 20
253.23334588664511
 30
0.0
  0
VERTEX
  5
388FE
  8
0
 10
188.1152402633457
 20
253.06713461979601
 30
0.0
  0
VERTEX
  5
388FF
  8
0
 10
188.0474651855049
 20
252.90239159471591
 30
0.0
  0
VERTEX
  5
38900
  8
0
 10
187.90099631366121
 20
252.57763624571729
 30
0.0
  0
VERTEX
  5
38901
  8
0
 10
187.74021420686731
 20
252.25972386587449
 30
0.0
  0
VERTEX
  5
38902
  8
0
 10
187.56543771404631
 20
251.9492849110388
 30
0.0
  0
VERTEX
  5
38903
  8
0
 10
187.37701343655601
 20
251.6469350164225
 30
0.0
  0
VERTEX
  5
38904
  8
0
 10
187.17531504083971
 20
251.35327377572551
 30
0.0
  0
VERTEX
  5
38905
  8
0
 10
187.06961203873581
 20
251.20988409396571
 30
0.0
  0
VERTEX
  5
38906
  8
0
 10
186.96074251740339
 20
251.06888355207411
 30
0.0
  0
VERTEX
  5
38907
  8
0
 10
186.73372138759041
 20
250.79432832312929
 30
0.0
  0
VERTEX
  5
38908
  8
0
 10
186.49470185972419
 20
250.53015256265741
 30
0.0
  0
VERTEX
  5
38909
  8
0
 10
186.24415793629581
 20
250.27688016077491
 30
0.0
  0
VERTEX
  5
3890A
  8
0
 10
185.98258647396241
 20
250.03501338501789
 30
0.0
  0
VERTEX
  5
3890B
  8
0
 10
185.7105061982266
 20
249.8050318842879
 30
0.0
  0
VERTEX
  5
3890C
  8
0
 10
185.57069308451679
 20
249.6946415825237
 30
0.0
  0
VERTEX
  5
3890D
  8
0
 10
185.4284566747443
 20
249.58739173765659
 30
0.0
  0
VERTEX
  5
3890E
  8
0
 10
185.1369972393062
 20
249.3825245499074
 30
0.0
  0
VERTEX
  5
3890F
  8
0
 10
184.8367058886123
 20
249.19083659561511
 30
0.0
  0
VERTEX
  5
38910
  8
0
 10
184.6834336902474
 20
249.1000546662608
 30
0.0
  0
SEQEND
  5
38911
  8
0
  0
LINE
  5
380F2
  8
0
 10
184.6834336902474
 20
249.1000546662608
 30
0.0
 11
183.71923466116669
 21
248.5433740972685
 31
0.0
  0
POLYLINE
  5
380F3
  8
0
 66
     1
 10
0.0
 20
0.0
 30
0.0
  0
VERTEX
  5
38912
  8
0
 10
187.31491274936101
 20
248.5433740972685
 30
0.0
  0
VERTEX
  5
38913
  8
0
 10
187.44898020040549
 20
248.66433364252001
 30
0.0
  0
VERTEX
  5
38914
  8
0
 10
187.71045432986659
 20
248.91341559818781
 30
0.0
  0
VERTEX
  5
38915
  8
0
 10
187.962764483694
 20
249.17177605818921
 30
0.0
  0
VERTEX
  5
38916
  8
0
 10
188.08537976637641
 20
249.3043308976703
 30
0.0
  0
VERTEX
  5
38917
  8
0
 10
188.2055816228515
 20
249.4390780932508
 30
0.0
  0
VERTEX
  5
38918
  8
0
 10
188.43858908819391
 20
249.71497311334269
 30
0.0
  0
VERTEX
  5
38919
  8
0
 10
188.66148301342511
 20
249.9991013222762
 30
0.0
  0
VERTEX
  5
3891A
  8
0
 10
188.8739727213715
 20
250.2910921869165
 30
0.0
  0
VERTEX
  5
3891B
  8
0
 10
189.07578110305519
 20
250.59056492039829
 30
0.0
  0
VERTEX
  5
3891C
  8
0
 10
189.26664497907379
 20
250.89712897870871
 30
0.0
  0
VERTEX
  5
3891D
  8
0
 10
189.35789437760641
 20
251.05294566678961
 30
0.0
  0
VERTEX
  5
3891E
  8
0
 10
189.4463154428141
 20
251.2103845700012
 30
0.0
  0
VERTEX
  5
3891F
  8
0
 10
189.61455818505209
 20
251.52992317596451
 30
0.0
  0
VERTEX
  5
38920
  8
0
 10
189.77115379951769
 20
251.85532808457361
 30
0.0
  0
VERTEX
  5
38921
  8
0
 10
189.9158980690226
 20
252.1861749335267
 30
0.0
  0
VERTEX
  5
38922
  8
0
 10
190.0486022317821
 20
252.5220322636583
 30
0.0
  0
VERTEX
  5
38923
  8
0
 10
190.16909322757931
 20
252.86246208160671
 30
0.0
  0
VERTEX
  5
38924
  8
0
 10
190.2247090559124
 20
253.03425315429649
 30
0.0
  0
VERTEX
  5
38925
  8
0
 10
190.27721392345489
 20
253.2070204310053
 30
0.0
  0
VERTEX
  5
38926
  8
0
 10
190.3728233186244
 20
253.5552579714454
 30
0.0
  0
VERTEX
  5
38927
  8
0
 10
190.45579672835839
 20
253.9067205644678
 30
0.0
  0
VERTEX
  5
38928
  8
0
 10
190.49251047658561
 20
254.08351817109221
 30
0.0
  0
SEQEND
  5
38929
  8
0
  0
POLYLINE
  5
380F4
  8
0
 66
     1
 10
0.0
 20
0.0
 30
0.0
  0
VERTEX
  5
3892A
  8
0
 10
183.71923466116669
 20
248.5433740972685
 30
0.0
  0
VERTEX
  5
3892B
  8
0
 10
183.63049333732241
 20
248.49176531850659
 30
0.0
  0
VERTEX
  5
3892C
  8
0
 10
183.45497253664021
 20
248.38743684322569
 30
0.0
  0
VERTEX
  5
3892D
  8
0
 10
183.28209841504579
 20
248.281645567879
 30
0.0
  0
VERTEX
  5
3892E
  8
0
 10
183.19666530884061
 20
248.22820836155961
 30
0.0
  0
VERTEX
  5
3892F
  8
0
 10
183.111907541665
 20
248.17441387114519
 30
0.0
  0
VERTEX
  5
38930
  8
0
 10
182.94443591801871
 20
248.0657644364037
 30
0.0
  0
VERTEX
  5
38931
  8
0
 10
182.77971897040911
 20
247.95572024693769
 30
0.0
  0
VERTEX
  5
38932
  8
0
 10
182.61779154242419
 20
247.8443045810709
 30
0.0
  0
VERTEX
  5
38933
  8
0
 10
182.45868788756809
 20
247.73154100724381
 30
0.0
  0
VERTEX
  5
38934
  8
0
 10
182.30244166201459
 20
247.61745337902769
 30
0.0
  0
VERTEX
  5
38935
  8
0
 10
182.22540043769371
 20
247.5599205754902
 30
0.0
  0
VERTEX
  5
38936
  8
0
 10
182.14908591748821
 20
247.50206583008051
 30
0.0
  0
VERTEX
  5
38937
  8
0
 10
181.9986530942721
 20
247.3854027690391
 30
0.0
  0
VERTEX
  5
38938
  8
0
 10
181.85117501434581
 20
247.2674888743577
 30
0.0
  0
VERTEX
  5
38939
  8
0
 10
181.70668287465381
 20
247.1483490890873
 30
0.0
  0
VERTEX
  5
3893A
  8
0
 10
181.5652072405066
 20
247.02800861559899
 30
0.0
  0
VERTEX
  5
3893B
  8
0
 10
181.42677803911451
 20
246.90649291025289
 30
0.0
  0
VERTEX
  5
3893C
  8
0
 10
181.3587150269137
 20
246.84530236887119
 30
0.0
  0
VERTEX
  5
3893D
  8
0
 10
181.29142455325729
 20
246.7838276780121
 30
0.0
  0
VERTEX
  5
3893E
  8
0
 10
181.15917541508961
 20
246.6600388670081
 30
0.0
  0
VERTEX
  5
3893F
  8
0
 10
181.03005860008449
 20
246.53515266304839
 30
0.0
  0
VERTEX
  5
38940
  8
0
 10
180.9666833750826
 20
246.47230628540319
 30
0.0
  0
SEQEND
  5
38941
  8
0
  0
POLYLINE
  5
380F5
  8
0
 66
     1
 10
0.0
 20
0.0
 30
0.0
  0
VERTEX
  5
38942
  8
0
 10
184.9666833750826
 20
246.47230628540319
 30
0.0
  0
VERTEX
  5
38943
  8
0
 10
185.07997812260399
 20
246.5839272522403
 30
0.0
  0
VERTEX
  5
38944
  8
0
 10
185.3140233614449
 20
246.80458392648461
 30
0.0
  0
VERTEX
  5
38945
  8
0
 10
185.55787832550709
 20
247.02167072478781
 30
0.0
  0
VERTEX
  5
38946
  8
0
 10
185.6834336902474
 20
247.1288299068701
 30
0.0
  0
SEQEND
  5
38947
  8
0
  0
LINE
  5
380F6
  8
0
 10
185.6834336902474
 20
247.1288299068701
 30
0.0
 11
187.31491274936101
 21
248.5433740972685
 31
0.0
  0
LINE
  5
380F7
  8
0
 10
180.9666833750826
 20
246.47230628540319
 30
0.0
 11
179.4334336902474
 21
244.93905660056771
 31
0.0
  0
POLYLINE
  5
380F8
  8
0
 66
     1
 10
0.0
 20
0.0
 30
0.0
  0
VERTEX
  5
38948
  8
0
 10
179.4334336902474
 20
244.93905660056771
 30
0.0
  0
VERTEX
  5
38949
  8
0
 10
179.26660307078629
 20
244.77009176237701
 30
0.0
  0
VERTEX
  5
3894A
  8
0
 10
178.936224410888
 20
244.42264091428481
 30
0.0
  0
VERTEX
  5
3894B
  8
0
 10
178.61035660025331
 20
244.06263705518819
 30
0.0
  0
VERTEX
  5
3894C
  8
0
 10
178.44916402663301
 20
243.87798238846341
 30
0.0
  0
VERTEX
  5
3894D
  8
0
 10
178.28915859933491
 20
243.6902557973271
 30
0.0
  0
VERTEX
  5
3894E
  8
0
 10
177.97278709062161
 20
243.30567879071901
 30
0.0
  0
VERTEX
  5
3894F
  8
0
 10
177.66139640220791
 20
242.90909363454699
 30
0.0
  0
VERTEX
  5
38950
  8
0
 10
177.35513843251181
 20
242.5006937856478
 30
0.0
  0
VERTEX
  5
38951
  8
0
 10
177.05416257617659
 20
242.0806784641436
 30
0.0
  0
VERTEX
  5
38952
  8
0
 10
176.75861565119709
 20
241.64925255625991
 30
0.0
  0
VERTEX
  5
38953
  8
0
 10
176.612923196385
 20
241.4293261841558
 30
0.0
  0
VERTEX
  5
38954
  8
0
 10
176.46864182729931
 20
241.20662651437991
 30
0.0
  0
VERTEX
  5
38955
  8
0
 10
176.18438255561389
 20
240.75301625438669
 30
0.0
  0
VERTEX
  5
38956
  8
0
 10
175.905976499676
 20
240.28864305033721
 30
0.0
  0
VERTEX
  5
38957
  8
0
 10
175.6335594677833
 20
239.81373342652159
 30
0.0
  0
VERTEX
  5
38958
  8
0
 10
175.36726434674861
 20
239.32851904696599
 30
0.0
  0
VERTEX
  5
38959
  8
0
 10
175.10722103707641
 20
238.83323660242331
 30
0.0
  0
VERTEX
  5
3895A
  8
0
 10
174.97958357321579
 20
238.5818951677729
 30
0.0
  0
VERTEX
  5
3895B
  8
0
 10
174.8535563895966
 20
238.3281276949142
 30
0.0
  0
VERTEX
  5
3895C
  8
0
 10
174.6063941435861
 20
237.81343871987249
 30
0.0
  0
VERTEX
  5
3895D
  8
0
 10
174.36585486640749
 20
237.28942074595261
 30
0.0
  0
VERTEX
  5
3895E
  8
0
 10
174.24810563660489
 20
237.0239930911066
 30
0.0
  0
SEQEND
  5
3895F
  8
0
  0
LINE
  5
380F9
  8
0
 10
180.4334336902474
 20
241.93905660056771
 30
0.0
 11
184.9666833750826
 21
246.47230628540319
 31
0.0
  0
POLYLINE
  5
380FA
  8
0
 66
     1
 10
0.0
 20
0.0
 30
0.0
  0
VERTEX
  5
38960
  8
0
 10
174.24810563660489
 20
237.0239930911066
 30
0.0
  0
VERTEX
  5
38961
  8
0
 10
174.13602173728759
 20
236.7740517304496
 30
0.0
  0
VERTEX
  5
38962
  8
0
 10
173.90584466331319
 20
236.29160621079151
 30
0.0
  0
VERTEX
  5
38963
  8
0
 10
173.67089635667699
 20
235.8340476479743
 30
0.0
  0
VERTEX
  5
38964
  8
0
 10
173.5528166371856
 20
235.61517848009271
 30
0.0
  0
VERTEX
  5
38965
  8
0
 10
173.4349432555199
 20
235.4032042699323
 30
0.0
  0
VERTEX
  5
38966
  8
0
 10
173.2015517793991
 20
235.00071187681709
 30
0.0
  0
VERTEX
  5
38967
  8
0
 10
172.96845548488861
 20
234.6190610002941
 30
0.0
  0
VERTEX
  5
38968
  8
0
 10
172.7338146358685
 20
234.2531929565593
 30
0.0
  0
VERTEX
  5
38969
  8
0
 10
172.50075607362791
 20
233.9065387120859
 30
0.0
  0
VERTEX
  5
3896A
  8
0
 10
172.2723245846359
 20
233.58221277898701
 30
0.0
  0
VERTEX
  5
3896B
  8
0
 10
172.16075659201431
 20
233.4293096181959
 30
0.0
  0
VERTEX
  5
3896C
  8
0
 10
172.05142251321979
 20
233.28302031157321
 30
0.0
  0
VERTEX
  5
3896D
  8
0
 10
171.84079242691911
 20
233.01150230511391
 30
0.0
  0
VERTEX
  5
3896E
  8
0
 10
171.6429431693044
 20
232.7698856943839
 30
0.0
  0
VERTEX
  5
3896F
  8
0
 10
171.45998622950609
 20
232.5599333680411
 30
0.0
  0
VERTEX
  5
38970
  8
0
 10
171.2938605044574
 20
232.38324559417509
 30
0.0
  0
VERTEX
  5
38971
  8
0
 10
171.14622825357
 20
232.24111864557611
 30
0.0
  0
VERTEX
  5
38972
  8
0
 10
171.0797581685016
 20
232.18330020712531
 30
0.0
  0
VERTEX
  5
38973
  8
0
 10
171.0183520617677
 20
232.1344061756599
 30
0.0
  0
VERTEX
  5
38974
  8
0
 10
170.91108609273419
 20
232.0635084634896
 30
0.0
  0
VERTEX
  5
38975
  8
0
 10
170.82487416772989
 20
232.02834606941221
 30
0.0
  0
VERTEX
  5
38976
  8
0
 10
170.78967811912281
 20
232.0239930911066
 30
0.0
  0
SEQEND
  5
38977
  8
0
  0
LINE
  5
380FB
  8
0
 10
170.6834336902474
 20
232.0239930911066
 30
0.0
 11
172.80348788839149
 21
232.0239930911066
 31
0.0
  0
POLYLINE
  5
380FC
  8
0
 66
     1
 10
0.0
 20
0.0
 30
0.0
  0
VERTEX
  5
38978
  8
0
 10
176.8611826789583
 20
237.0239930911066
 30
0.0
  0
VERTEX
  5
38979
  8
0
 10
176.80124512624951
 20
236.91394729082231
 30
0.0
  0
VERTEX
  5
3897A
  8
0
 10
176.67999849483471
 20
236.6970475536173
 30
0.0
  0
VERTEX
  5
3897B
  8
0
 10
176.5572565638281
 20
236.48453155143079
 30
0.0
  0
VERTEX
  5
3897C
  8
0
 10
176.49544778750061
 20
236.37996489364241
 30
0.0
  0
VERTEX
  5
3897D
  8
0
 10
176.43341128574781
 20
236.2765504223353
 30
0.0
  0
VERTEX
  5
3897E
  8
0
 10
176.3088434106796
 20
236.07325037992271
 30
0.0
  0
VERTEX
  5
3897F
  8
0
 10
176.18392408664599
 20
235.87477615217591
 30
0.0
  0
VERTEX
  5
38980
  8
0
 10
176.05901469854791
 20
235.68127092640091
 30
0.0
  0
VERTEX
  5
38981
  8
0
 10
175.9344658284374
 20
235.49287476703381
 30
0.0
  0
VERTEX
  5
38982
  8
0
 10
175.81061621966739
 20
235.3097230504909
 30
0.0
  0
VERTEX
  5
38983
  8
0
 10
175.74905599130651
 20
235.2201544802401
 30
0.0
  0
VERTEX
  5
38984
  8
0
 10
175.68779168627449
 20
235.13194482839751
 30
0.0
  0
VERTEX
  5
38985
  8
0
 10
175.56630395883539
 20
234.9596611165816
 30
0.0
  0
VERTEX
  5
38986
  8
0
 10
175.4453082849021
 20
234.7914113152506
 30
0.0
  0
VERTEX
  5
38987
  8
0
 10
175.32377857343531
 20
234.62561658301911
 30
0.0
  0
VERTEX
  5
38988
  8
0
 10
175.20202968035821
 20
234.46260792041949
 30
0.0
  0
VERTEX
  5
38989
  8
0
 10
175.08037780951591
 20
234.30270927369969
 30
0.0
  0
VERTEX
  5
3898A
  8
0
 10
175.0196864507501
 20
234.22402458855279
 30
0.0
  0
VERTEX
  5
3898B
  8
0
 10
174.95913671809021
 20
234.14623409575549
 30
0.0
  0
VERTEX
  5
3898C
  8
0
 10
174.83861595391991
 20
233.9934846766491
 30
0.0
  0
VERTEX
  5
3898D
  8
0
 10
174.71911915433139
 20
233.8447514777408
 30
0.0
  0
VERTEX
  5
3898E
  8
0
 10
174.65984760684529
 20
233.77197833339599
 30
0.0
  0
SEQEND
  5
3898F
  8
0
  0
POLYLINE
  5
380FD
  8
0
 66
     1
 10
0.0
 20
0.0
 30
0.0
  0
VERTEX
  5
38990
  8
0
 10
174.1332611766091
 20
233.15519562060581
 30
0.0
  0
VERTEX
  5
38991
  8
0
 10
174.09009082605161
 20
233.1071233989592
 30
0.0
  0
VERTEX
  5
38992
  8
0
 10
174.00511795977201
 20
233.01370333040001
 30
0.0
  0
VERTEX
  5
38993
  8
0
 10
173.92207028301559
 20
232.92400406994781
 30
0.0
  0
VERTEX
  5
38994
  8
0
 10
173.88130512471901
 20
232.88058150989451
 30
0.0
  0
VERTEX
  5
38995
  8
0
 10
173.84106461597071
 20
232.83812652612909
 30
0.0
  0
VERTEX
  5
38996
  8
0
 10
173.76220202631981
 20
232.75615547431559
 30
0.0
  0
VERTEX
  5
38997
  8
0
 10
173.68557237585969
 20
232.67816537124651
 30
0.0
  0
VERTEX
  5
38998
  8
0
 10
173.6112797413341
 20
232.6042461998932
 30
0.0
  0
VERTEX
  5
38999
  8
0
 10
173.53942360885921
 20
232.53448327183739
 30
0.0
  0
VERTEX
  5
3899A
  8
0
 10
173.4700979207046
 20
232.46895619946099
 30
0.0
  0
VERTEX
  5
3899B
  8
0
 10
173.43641169709221
 20
232.43780428379881
 30
0.0
  0
VERTEX
  5
3899C
  8
0
 10
173.4033905210859
 20
232.40773830876881
 30
0.0
  0
VERTEX
  5
3899D
  8
0
 10
173.33938264424401
 20
232.35089612022099
 30
0.0
  0
VERTEX
  5
3899E
  8
0
 10
173.2781484531325
 20
232.29848890890341
 30
0.0
  0
VERTEX
  5
3899F
  8
0
 10
173.21975463793871
 20
232.25056835701031
 30
0.0
  0
VERTEX
  5
389A0
  8
0
 10
173.16426008550371
 20
232.20717831384849
 30
0.0
  0
VERTEX
  5
389A1
  8
0
 10
173.1117159661346
 20
232.1683549189824
 30
0.0
  0
VERTEX
  5
389A2
  8
0
 10
173.086564493494
 20
232.15066511299031
 30
0.0
  0
VERTEX
  5
389A3
  8
0
 10
173.0621668398324
 20
232.13412737735831
 30
0.0
  0
VERTEX
  5
389A4
  8
0
 10
173.01565069414411
 20
232.1045177065503
 30
0.0
  0
VERTEX
  5
389A5
  8
0
 10
172.9721983598333
 20
232.07954001165581
 30
0.0
  0
VERTEX
  5
389A6
  8
0
 10
172.95162867257849
 20
232.068790247572
 30
0.0
  0
SEQEND
  5
389A7
  8
0
  0
POLYLINE
  5
380FE
  8
0
 66
     1
 10
0.0
 20
0.0
 30
0.0
  0
VERTEX
  5
389A8
  8
0
 10
105.6834336902474
 20
256.82847751804462
 30
0.0
  0
VERTEX
  5
389A9
  8
0
 10
105.68352161217859
 20
256.74215043878979
 30
0.0
  0
VERTEX
  5
389AA
  8
0
 10
105.68425571225799
 20
256.57083796345017
 30
0.0
  0
VERTEX
  5
389AB
  8
0
 10
105.6858029713121
 20
256.40140105726192
 30
0.0
  0
VERTEX
  5
389AC
  8
0
 10
105.6869075329224
 20
256.3174180779161
 30
0.0
  0
VERTEX
  5
389AD
  8
0
 10
105.6882466503408
 20
256.23394231639941
 30
0.0
  0
VERTEX
  5
389AE
  8
0
 10
105.6916704504342
 20
256.06856229535327
 30
0.0
  0
VERTEX
  5
389AF
  8
0
 10
105.69615813761369
 20
255.9053590231743
 30
0.0
  0
VERTEX
  5
389B0
  8
0
 10
105.70179317168039
 20
255.74442753299809
 30
0.0
  0
VERTEX
  5
389B1
  8
0
 10
105.7086583443389
 20
255.58585940201061
 30
0.0
  0
VERTEX
  5
389B2
  8
0
 10
105.71683547012491
 20
255.42974164029741
 30
0.0
  0
VERTEX
  5
389B3
  8
0
 10
105.7214412832204
 20
255.3526268329874
 30
0.0
  0
VERTEX
  5
389B4
  8
0
 10
105.7264051904063
 20
255.276154838466
 30
0.0
  0
VERTEX
  5
389B5
  8
0
 10
105.7374462843141
 20
255.1251792587841
 30
0.0
  0
VERTEX
  5
389B6
  8
0
 10
105.75003523824731
 20
254.97689356115831
 30
0.0
  0
VERTEX
  5
389B7
  8
0
 10
105.7642458220726
 20
254.8313739184382
 30
0.0
  0
VERTEX
  5
389B8
  8
0
 10
105.7801486677396
 20
254.68869340369429
 30
0.0
  0
VERTEX
  5
389B9
  8
0
 10
105.79781087035219
 20
254.5489213905193
 30
0.0
  0
VERTEX
  5
389BA
  8
0
 10
105.8073216393035
 20
254.4801465951337
 30
0.0
  0
VERTEX
  5
389BB
  8
0
 10
105.8172956202726
 20
254.41212296680081
 30
0.0
  0
VERTEX
  5
389BC
  8
0
 10
105.8386618757573
 20
254.2783583630353
 30
0.0
  0
VERTEX
  5
389BD
  8
0
 10
105.861964086591
 20
254.1476823969619
 30
0.0
  0
VERTEX
  5
389BE
  8
0
 10
105.8743569039092
 20
254.08351817109221
 30
0.0
  0
SEQEND
  5
389BF
  8
0
  0
POLYLINE
  5
380FF
  8
0
 66
     1
 10
0.0
 20
0.0
 30
0.0
  0
VERTEX
  5
389C0
  8
0
 10
107.9234087289293
 20
254.08351817109221
 30
0.0
  0
VERTEX
  5
389C1
  8
0
 10
107.90720807437521
 20
254.1499631824345
 30
0.0
  0
VERTEX
  5
389C2
  8
0
 10
107.87724692503831
 20
254.2834887474705
 30
0.0
  0
VERTEX
  5
389C3
  8
0
 10
107.8503965271214
 20
254.41743773190501
 30
0.0
  0
VERTEX
  5
389C4
  8
0
 10
107.8380545095887
 20
254.48455766061849
 30
0.0
  0
VERTEX
  5
389C5
  8
0
 10
107.8262847904621
 20
254.5524121597382
 30
0.0
  0
VERTEX
  5
389C6
  8
0
 10
107.8043897538475
 20
254.6905142166743
 30
0.0
  0
VERTEX
  5
389C7
  8
0
 10
107.7846315347865
 20
254.8317542265481
 30
0.0
  0
VERTEX
  5
389C8
  8
0
 10
107.7669382065212
 20
254.97606308405099
 30
0.0
  0
VERTEX
  5
389C9
  8
0
 10
107.7512323729723
 20
255.123365758011
 30
0.0
  0
VERTEX
  5
389CA
  8
0
 10
107.737431596042
 20
255.27358202078361
 30
0.0
  0
VERTEX
  5
389CB
  8
0
 10
107.7312185828001
 20
255.34975643655159
 30
0.0
  0
VERTEX
  5
389CC
  8
0
 10
107.7254488856928
 20
255.4266271826055
 30
0.0
  0
VERTEX
  5
389CD
  8
0
 10
107.7151932372807
 20
255.58241283060491
 30
0.0
  0
VERTEX
  5
389CE
  8
0
 10
107.7065702024893
 20
255.7408475732486
 30
0.0
  0
VERTEX
  5
389CF
  8
0
 10
107.6994824812522
 20
255.90183780918099
 30
0.0
  0
VERTEX
  5
389D0
  8
0
 10
107.6938305048733
 20
256.06528920143728
 30
0.0
  0
VERTEX
  5
389D1
  8
0
 10
107.6895132026205
 20
256.23110151082619
 30
0.0
  0
VERTEX
  5
389D2
  8
0
 10
107.6878231610654
 20
256.31486007003878
 30
0.0
  0
VERTEX
  5
389D3
  8
0
 10
107.68642841423529
 20
256.39916886208681
 30
0.0
  0
VERTEX
  5
389D4
  8
0
 10
107.6844733173875
 20
256.56938180016141
 30
0.0
  0
VERTEX
  5
389D5
  8
0
 10
107.68354494400759
 20
256.74162787220439
 30
0.0
  0
VERTEX
  5
389D6
  8
0
 10
107.6834336902474
 20
256.82847751804462
 30
0.0
  0
SEQEND
  5
389D7
  8
0
  0
POLYLINE
  5
38100
  8
0
 66
     1
 10
0.0
 20
0.0
 30
0.0
  0
VERTEX
  5
389D8
  8
0
 10
111.6834336902474
 20
249.1000546662608
 30
0.0
  0
VERTEX
  5
389D9
  8
0
 10
111.5301614918825
 20
249.19083659561511
 30
0.0
  0
VERTEX
  5
389DA
  8
0
 10
111.2298701411886
 20
249.3825245499074
 30
0.0
  0
VERTEX
  5
389DB
  8
0
 10
110.9384107057505
 20
249.58739173765659
 30
0.0
  0
VERTEX
  5
389DC
  8
0
 10
110.79617429597791
 20
249.6946415825237
 30
0.0
  0
VERTEX
  5
389DD
  8
0
 10
110.6563611822681
 20
249.80503188428841
 30
0.0
  0
VERTEX
  5
389DE
  8
0
 10
110.3842809065323
 20
250.03501338501789
 30
0.0
  0
VERTEX
  5
389DF
  8
0
 10
110.122709444199
 20
250.27688016077491
 30
0.0
  0
VERTEX
  5
389E0
  8
0
 10
109.87216552077049
 20
250.53015256265741
 30
0.0
  0
VERTEX
  5
389E1
  8
0
 10
109.6331459929043
 20
250.79432832312929
 30
0.0
  0
VERTEX
  5
389E2
  8
0
 10
109.40612486309131
 20
251.06888355207411
 30
0.0
  0
VERTEX
  5
389E3
  8
0
 10
109.2972553417589
 20
251.20988409396571
 30
0.0
  0
VERTEX
  5
389E4
  8
0
 10
109.1915523396551
 20
251.35327377572551
 30
0.0
  0
VERTEX
  5
389E5
  8
0
 10
108.9898539439388
 20
251.6469350164225
 30
0.0
  0
VERTEX
  5
389E6
  8
0
 10
108.8014296664485
 20
251.9492849110388
 30
0.0
  0
VERTEX
  5
389E7
  8
0
 10
108.6266531736274
 20
252.25972386587449
 30
0.0
  0
VERTEX
  5
389E8
  8
0
 10
108.4658710668335
 20
252.57763624571729
 30
0.0
  0
VERTEX
  5
389E9
  8
0
 10
108.31940219498981
 20
252.90239159471591
 30
0.0
  0
VERTEX
  5
389EA
  8
0
 10
108.251627117149
 20
253.06713461979601
 30
0.0
  0
VERTEX
  5
389EB
  8
0
 10
108.1875370222718
 20
253.23334588664511
 30
0.0
  0
VERTEX
  5
389EC
  8
0
 10
108.07053705208401
 20
253.56984280208189
 30
0.0
  0
VERTEX
  5
389ED
  8
0
 10
107.9686343084697
 20
253.91121502995929
 30
0.0
  0
VERTEX
  5
389EE
  8
0
 10
107.9234087289293
 20
254.08351817109181
 30
0.0
  0
SEQEND
  5
389EF
  8
0
  0
POLYLINE
  5
38101
  8
0
 66
     1
 10
0.0
 20
0.0
 30
0.0
  0
VERTEX
  5
389F0
  8
0
 10
105.8743569039092
 20
254.08351817109221
 30
0.0
  0
VERTEX
  5
389F1
  8
0
 10
105.9110706521363
 20
253.9067205644678
 30
0.0
  0
VERTEX
  5
389F2
  8
0
 10
105.9940440618703
 20
253.5552579714454
 30
0.0
  0
VERTEX
  5
389F3
  8
0
 10
106.0896534570398
 20
253.2070204310053
 30
0.0
  0
VERTEX
  5
389F4
  8
0
 10
106.1421583245824
 20
253.03425315429649
 30
0.0
  0
VERTEX
  5
389F5
  8
0
 10
106.1977741529155
 20
252.86246208160671
 30
0.0
  0
VERTEX
  5
389F6
  8
0
 10
106.3182651487127
 20
252.5220322636583
 30
0.0
  0
VERTEX
  5
389F7
  8
0
 10
106.45096931147209
 20
252.1861749335267
 30
0.0
  0
VERTEX
  5
389F8
  8
0
 10
106.5957135809771
 20
251.85532808457361
 30
0.0
  0
VERTEX
  5
389F9
  8
0
 10
106.75230919544261
 20
251.52992317596451
 30
0.0
  0
VERTEX
  5
389FA
  8
0
 10
106.9205519376806
 20
251.2103845700012
 30
0.0
  0
VERTEX
  5
389FB
  8
0
 10
107.0089730028885
 20
251.05294566678961
 30
0.0
  0
VERTEX
  5
389FC
  8
0
 10
107.10022240142099
 20
250.89712897870871
 30
0.0
  0
VERTEX
  5
389FD
  8
0
 10
107.2910862774396
 20
250.59056492039829
 30
0.0
  0
VERTEX
  5
389FE
  8
0
 10
107.49289465912329
 20
250.2910921869165
 30
0.0
  0
VERTEX
  5
389FF
  8
0
 10
107.7053843670696
 20
249.9991013222762
 30
0.0
  0
VERTEX
  5
38A00
  8
0
 10
107.9282782923009
 20
249.71497311334269
 30
0.0
  0
VERTEX
  5
38A01
  8
0
 10
108.1612857576433
 20
249.4390780932508
 30
0.0
  0
VERTEX
  5
38A02
  8
0
 10
108.2814876141184
 20
249.3043308976703
 30
0.0
  0
VERTEX
  5
38A03
  8
0
 10
108.40410289680069
 20
249.17177605818921
 30
0.0
  0
VERTEX
  5
38A04
  8
0
 10
108.6564130506282
 20
248.91341559818781
 30
0.0
  0
VERTEX
  5
38A05
  8
0
 10
108.91788718008929
 20
248.66433364252001
 30
0.0
  0
VERTEX
  5
38A06
  8
0
 10
109.0519546311338
 20
248.5433740972685
 30
0.0
  0
SEQEND
  5
38A07
  8
0
  0
LINE
  5
38102
  8
0
 10
112.647632719328
 20
248.5433740972685
 30
0.0
 11
111.6834336902474
 21
249.1000546662608
 31
0.0
  0
LINE
  5
38103
  8
0
 10
109.0519546311338
 20
248.5433740972685
 30
0.0
 11
110.6834336902474
 21
247.1288299068701
 31
0.0
  0
POLYLINE
  5
38104
  8
0
 66
     1
 10
0.0
 20
0.0
 30
0.0
  0
VERTEX
  5
38A08
  8
0
 10
110.6834336902474
 20
247.1288299068701
 30
0.0
  0
VERTEX
  5
38A09
  8
0
 10
110.80898905498771
 20
247.02167072478781
 30
0.0
  0
VERTEX
  5
38A0A
  8
0
 10
111.05284401905
 20
246.80458392648461
 30
0.0
  0
VERTEX
  5
38A0B
  8
0
 10
111.28688925789071
 20
246.5839272522403
 30
0.0
  0
VERTEX
  5
38A0C
  8
0
 10
111.4001840054121
 20
246.47230628540319
 30
0.0
  0
SEQEND
  5
38A0D
  8
0
  0
POLYLINE
  5
38105
  8
0
 66
     1
 10
0.0
 20
0.0
 30
0.0
  0
VERTEX
  5
38A0E
  8
0
 10
115.4001840054121
 20
246.47230628540319
 30
0.0
  0
VERTEX
  5
38A0F
  8
0
 10
115.33680878041019
 20
246.53515266304839
 30
0.0
  0
VERTEX
  5
38A10
  8
0
 10
115.2076919654051
 20
246.6600388670081
 30
0.0
  0
VERTEX
  5
38A11
  8
0
 10
115.0754428272374
 20
246.7838276780121
 30
0.0
  0
VERTEX
  5
38A12
  8
0
 10
115.008152353581
 20
246.84530236887119
 30
0.0
  0
VERTEX
  5
38A13
  8
0
 10
114.9400893413802
 20
246.90649291025289
 30
0.0
  0
VERTEX
  5
38A14
  8
0
 10
114.8016601399882
 20
247.02800861559899
 30
0.0
  0
VERTEX
  5
38A15
  8
0
 10
114.660184505841
 20
247.1483490890873
 30
0.0
  0
VERTEX
  5
38A16
  8
0
 10
114.5156923661491
 20
247.2674888743577
 30
0.0
  0
VERTEX
  5
38A17
  8
0
 10
114.3682142862227
 20
247.3854027690391
 30
0.0
  0
VERTEX
  5
38A18
  8
0
 10
114.2177814630065
 20
247.50206583008051
 30
0.0
  0
VERTEX
  5
38A19
  8
0
 10
114.1414669428011
 20
247.5599205754902
 30
0.0
  0
VERTEX
  5
38A1A
  8
0
 10
114.06442571848009
 20
247.61745337902769
 30
0.0
  0
VERTEX
  5
38A1B
  8
0
 10
113.90817949292671
 20
247.73154100724381
 30
0.0
  0
VERTEX
  5
38A1C
  8
0
 10
113.74907583807069
 20
247.8443045810709
 30
0.0
  0
VERTEX
  5
38A1D
  8
0
 10
113.5871484100856
 20
247.95572024693769
 30
0.0
  0
VERTEX
  5
38A1E
  8
0
 10
113.4224314624761
 20
248.0657644364037
 30
0.0
  0
VERTEX
  5
38A1F
  8
0
 10
113.2549598388299
 20
248.17441387114519
 30
0.0
  0
VERTEX
  5
38A20
  8
0
 10
113.1702020716542
 20
248.22820836155961
 30
0.0
  0
VERTEX
  5
38A21
  8
0
 10
113.0847689654489
 20
248.281645567879
 30
0.0
  0
VERTEX
  5
38A22
  8
0
 10
112.9118948438546
 20
248.38743684322569
 30
0.0
  0
VERTEX
  5
38A23
  8
0
 10
112.7363740431725
 20
248.49176531850659
 30
0.0
  0
VERTEX
  5
38A24
  8
0
 10
112.647632719328
 20
248.5433740972685
 30
0.0
  0
SEQEND
  5
38A25
  8
0
  0
LINE
  5
38106
  8
0
 10
105.6834336902474
 20
350.5239930911066
 30
0.0
 11
105.6834336902474
 21
256.82847751804462
 31
0.0
  0
LINE
  5
38107
  8
0
 10
116.9334336902474
 20
244.93905660056771
 30
0.0
 11
115.4001840054121
 21
246.47230628540319
 31
0.0
  0
LINE
  5
38108
  8
0
 10
111.4001840054121
 20
246.47230628540319
 30
0.0
 11
115.9334336902474
 21
241.93905660056771
 31
0.0
  0
POLYLINE
  5
38109
  8
0
 66
     1
 10
0.0
 20
0.0
 30
0.0
  0
VERTEX
  5
38A26
  8
0
 10
115.9334336902474
 20
241.93905660056771
 30
0.0
  0
VERTEX
  5
38A27
  8
0
 10
116.04332088508779
 20
241.82812572300961
 30
0.0
  0
VERTEX
  5
38A28
  8
0
 10
116.2615001895889
 20
241.60159737841789
 30
0.0
  0
VERTEX
  5
38A29
  8
0
 10
116.4775038046773
 20
241.3688979318195
 30
0.0
  0
VERTEX
  5
38A2A
  8
0
 10
116.58467152509439
 20
241.25025356630979
 30
0.0
  0
VERTEX
  5
38A2B
  8
0
 10
116.6912735534642
 20
241.1300900568408
 30
0.0
  0
VERTEX
  5
38A2C
  8
0
 10
116.9027518607143
 20
240.8852380723097
 30
0.0
  0
VERTEX
  5
38A2D
  8
0
 10
117.1118817683531
 20
240.6344079249306
 30
0.0
  0
VERTEX
  5
38A2E
  8
0
 10
117.31860695080729
 20
240.3776671715255
 30
0.0
  0
VERTEX
  5
38A2F
  8
0
 10
117.5228717301753
 20
240.11508496083661
 30
0.0
  0
VERTEX
  5
38A30
  8
0
 10
117.7246210912234
 20
239.84673201490301
 30
0.0
  0
VERTEX
  5
38A31
  8
0
 10
117.82453548246519
 20
239.71041404237619
 30
0.0
  0
VERTEX
  5
38A32
  8
0
 10
117.9238006962026
 20
239.57268061001329
 30
0.0
  0
VERTEX
  5
38A33
  8
0
 10
118.12035689948409
 20
239.29300455723839
 30
0.0
  0
VERTEX
  5
38A34
  8
0
 10
118.3142367620075
 20
239.00777918255241
 30
0.0
  0
VERTEX
  5
38A35
  8
0
 10
118.50538806553899
 20
238.717081306544
 30
0.0
  0
VERTEX
  5
38A36
  8
0
 10
118.6937593267358
 20
238.4209892237277
 30
0.0
  0
VERTEX
  5
38A37
  8
0
 10
118.879299811012
 20
238.11958268145511
 30
0.0
  0
VERTEX
  5
38A38
  8
0
 10
118.970992865352
 20
237.9669118010525
 30
0.0
  0
VERTEX
  5
38A39
  8
0
 10
119.0619595462031
 20
237.8129428584366
 30
0.0
  0
VERTEX
  5
38A3A
  8
0
 10
119.2416893360256
 20
237.50115234287799
 30
0.0
  0
VERTEX
  5
38A3B
  8
0
 10
119.4184407733262
 20
237.18429511023581
 30
0.0
  0
VERTEX
  5
38A3C
  8
0
 10
119.5056847015363
 20
237.0239930911066
 30
0.0
  0
SEQEND
  5
38A3D
  8
0
  0
POLYLINE
  5
3810A
  8
0
 66
     1
 10
0.0
 20
0.0
 30
0.0
  0
VERTEX
  5
38A3E
  8
0
 10
119.5056847015364
 20
237.0239930911066
 30
0.0
  0
VERTEX
  5
38A3F
  8
0
 10
119.6415882169609
 20
236.77719655845749
 30
0.0
  0
VERTEX
  5
38A40
  8
0
 10
119.91894381278701
 20
236.30060838065131
 30
0.0
  0
VERTEX
  5
38A41
  8
0
 10
120.1999484467228
 20
235.8481503167709
 30
0.0
  0
VERTEX
  5
38A42
  8
0
 10
120.34047475303549
 20
235.6315006956429
 30
0.0
  0
VERTEX
  5
38A43
  8
0
 10
120.48033500050531
 20
235.4215102197291
 30
0.0
  0
VERTEX
  5
38A44
  8
0
 10
120.7561385491711
 20
235.02226248399981
 30
0.0
  0
VERTEX
  5
38A45
  8
0
 10
121.03034524564301
 20
234.64285534758889
 30
0.0
  0
VERTEX
  5
38A46
  8
0
 10
121.305435383576
 20
234.2780695419078
 30
0.0
  0
VERTEX
  5
38A47
  8
0
 10
121.5778665637571
 20
233.93140311093379
 30
0.0
  0
VERTEX
  5
38A48
  8
0
 10
121.8442212961603
 20
233.6060735125489
 30
0.0
  0
VERTEX
  5
38A49
  8
0
 10
121.9741020232939
 20
233.4523378733729
 30
0.0
  0
VERTEX
  5
38A4A
  8
0
 10
122.10126407671559
 20
233.3050211452441
 30
0.0
  0
VERTEX
  5
38A4B
  8
0
 10
122.3459502044179
 20
233.03095006342619
 30
0.0
  0
VERTEX
  5
38A4C
  8
0
 10
122.5755001166586
 20
232.78627518961909
 30
0.0
  0
VERTEX
  5
38A4D
  8
0
 10
122.7875821369782
 20
232.57296367304249
 30
0.0
  0
VERTEX
  5
38A4E
  8
0
 10
122.98003744092171
 20
232.39284416506831
 30
0.0
  0
VERTEX
  5
38A4F
  8
0
 10
123.1509980896502
 20
232.24745845802269
 30
0.0
  0
VERTEX
  5
38A50
  8
0
 10
123.2279518958381
 20
232.18815446412231
 30
0.0
  0
VERTEX
  5
38A51
  8
0
 10
123.2402095965536
 20
232.17914938394091
 30
0.0
  0
VERTEX
  5
38A52
  8
0
 10
123.26423294042441
 20
232.16189613248659
 30
0.0
  0
VERTEX
  5
38A53
  8
0
 10
123.2875966566686
 20
232.14565435463831
 30
0.0
  0
VERTEX
  5
38A54
  8
0
 10
123.29902989704721
 20
232.13791353626311
 30
0.0
  0
VERTEX
  5
38A55
  8
0
 10
123.3102967623998
 20
232.13042646361151
 30
0.0
  0
VERTEX
  5
38A56
  8
0
 10
123.3323296044632
 20
232.11621451427069
 30
0.0
  0
VERTEX
  5
38A57
  8
0
 10
123.3536918717401
 20
232.10302018821719
 30
0.0
  0
VERTEX
  5
38A58
  8
0
 10
123.3743806065076
 20
232.09084478023351
 30
0.0
  0
VERTEX
  5
38A59
  8
0
 10
123.3943932148111
 20
232.07968918614191
 30
0.0
  0
VERTEX
  5
38A5A
  8
0
 10
123.41372747581219
 20
232.06955389211541
 30
0.0
  0
VERTEX
  5
38A5B
  8
0
 10
123.42313963614821
 20
232.0648688952497
 30
0.0
  0
VERTEX
  5
38A5C
  8
0
 10
123.4323815500756
 20
232.0604389654905
 30
0.0
  0
VERTEX
  5
38A5D
  8
0
 10
123.45035398675709
 20
232.05234404713019
 30
0.0
  0
VERTEX
  5
38A5E
  8
0
 10
123.46764372966339
 20
232.04526834537501
 30
0.0
  0
VERTEX
  5
38A5F
  8
0
 10
123.48425012214911
 20
232.03921063163489
 30
0.0
  0
VERTEX
  5
38A60
  8
0
 10
123.5001729108231
 20
232.03416923765869
 30
0.0
  0
VERTEX
  5
38A61
  8
0
 10
123.5154122480391
 20
232.03014205452649
 30
0.0
  0
VERTEX
  5
38A62
  8
0
 10
123.5227757812391
 20
232.02850801264319
 30
0.0
  0
VERTEX
  5
38A63
  8
0
 10
123.5299686931415
 20
232.02712653340629
 30
0.0
  0
VERTEX
  5
38A64
  8
0
 10
123.5438432124502
 20
232.02511968811311
 30
0.0
  0
VERTEX
  5
38A65
  8
0
 10
123.5570371779603
 20
232.02411809950991
 30
0.0
  0
VERTEX
  5
38A66
  8
0
 10
123.56337949210329
 20
232.0239930911066
 30
0.0
  0
SEQEND
  5
38A67
  8
0
  0
LINE
  5
3810B
  8
0
 10
123.56337949210329
 20
232.0239930911066
 30
0.0
 11
125.6834336902474
 21
232.0239930911066
 31
0.0
  0
POLYLINE
  5
3810C
  8
0
 66
     1
 10
0.0
 20
0.0
 30
0.0
  0
VERTEX
  5
38A68
  8
0
 10
109.0519546311338
 20
248.5433740972685
 30
0.0
  0
VERTEX
  5
38A69
  8
0
 10
108.91788718008929
 20
248.66433364252001
 30
0.0
  0
VERTEX
  5
38A6A
  8
0
 10
108.6564130506283
 20
248.91341559818781
 30
0.0
  0
VERTEX
  5
38A6B
  8
0
 10
108.40410289680069
 20
249.17177605818921
 30
0.0
  0
VERTEX
  5
38A6C
  8
0
 10
108.2814876141185
 20
249.3043308976703
 30
0.0
  0
VERTEX
  5
38A6D
  8
0
 10
108.1612857576433
 20
249.4390780932508
 30
0.0
  0
VERTEX
  5
38A6E
  8
0
 10
107.9282782923009
 20
249.71497311334269
 30
0.0
  0
VERTEX
  5
38A6F
  8
0
 10
107.7053843670696
 20
249.9991013222762
 30
0.0
  0
VERTEX
  5
38A70
  8
0
 10
107.49289465912329
 20
250.2910921869165
 30
0.0
  0
VERTEX
  5
38A71
  8
0
 10
107.2910862774396
 20
250.59056492039829
 30
0.0
  0
VERTEX
  5
38A72
  8
0
 10
107.10022240142099
 20
250.89712897870871
 30
0.0
  0
VERTEX
  5
38A73
  8
0
 10
107.0089730028885
 20
251.05294566678961
 30
0.0
  0
VERTEX
  5
38A74
  8
0
 10
106.9205519376806
 20
251.2103845700012
 30
0.0
  0
VERTEX
  5
38A75
  8
0
 10
106.75230919544261
 20
251.52992317596451
 30
0.0
  0
VERTEX
  5
38A76
  8
0
 10
106.5957135809771
 20
251.85532808457361
 30
0.0
  0
VERTEX
  5
38A77
  8
0
 10
106.45096931147209
 20
252.1861749335267
 30
0.0
  0
VERTEX
  5
38A78
  8
0
 10
106.3182651487127
 20
252.5220322636583
 30
0.0
  0
VERTEX
  5
38A79
  8
0
 10
106.1977741529155
 20
252.86246208160671
 30
0.0
  0
VERTEX
  5
38A7A
  8
0
 10
106.1421583245824
 20
253.03425315429649
 30
0.0
  0
VERTEX
  5
38A7B
  8
0
 10
106.0896534570398
 20
253.2070204310053
 30
0.0
  0
VERTEX
  5
38A7C
  8
0
 10
105.9940440618703
 20
253.5552579714454
 30
0.0
  0
VERTEX
  5
38A7D
  8
0
 10
105.9110706521363
 20
253.9067205644678
 30
0.0
  0
VERTEX
  5
38A7E
  8
0
 10
105.8743569039092
 20
254.08351817109221
 30
0.0
  0
SEQEND
  5
38A7F
  8
0
  0
POLYLINE
  5
3810D
  8
0
 66
     1
 10
0.0
 20
0.0
 30
0.0
  0
VERTEX
  5
38A80
  8
0
 10
176.8611826789583
 20
237.0239930911066
 30
0.0
  0
VERTEX
  5
38A81
  8
0
 10
176.94842660716861
 20
237.18429511023581
 30
0.0
  0
VERTEX
  5
38A82
  8
0
 10
177.12517804446921
 20
237.50115234287799
 30
0.0
  0
VERTEX
  5
38A83
  8
0
 10
177.30490783429161
 20
237.8129428584366
 30
0.0
  0
VERTEX
  5
38A84
  8
0
 10
177.39587451514271
 20
237.9669118010525
 30
0.0
  0
VERTEX
  5
38A85
  8
0
 10
177.48756756948271
 20
238.11958268145511
 30
0.0
  0
VERTEX
  5
38A86
  8
0
 10
177.67310805375891
 20
238.4209892237277
 30
0.0
  0
VERTEX
  5
38A87
  8
0
 10
177.86147931495569
 20
238.717081306544
 30
0.0
  0
VERTEX
  5
38A88
  8
0
 10
178.0526306184872
 20
239.00777918255241
 30
0.0
  0
VERTEX
  5
38A89
  8
0
 10
178.2465104810106
 20
239.29300455723839
 30
0.0
  0
VERTEX
  5
38A8A
  8
0
 10
178.44306668429209
 20
239.57268061001329
 30
0.0
  0
VERTEX
  5
38A8B
  8
0
 10
178.5423318980296
 20
239.71041404237619
 30
0.0
  0
VERTEX
  5
38A8C
  8
0
 10
178.64224628927141
 20
239.84673201490301
 30
0.0
  0
VERTEX
  5
38A8D
  8
0
 10
178.8439956503195
 20
240.11508496083661
 30
0.0
  0
VERTEX
  5
38A8E
  8
0
 10
179.0482604296875
 20
240.3776671715255
 30
0.0
  0
VERTEX
  5
38A8F
  8
0
 10
179.2549856121417
 20
240.6344079249306
 30
0.0
  0
VERTEX
  5
38A90
  8
0
 10
179.46411551978039
 20
240.8852380723097
 30
0.0
  0
VERTEX
  5
38A91
  8
0
 10
179.6755938270305
 20
241.1300900568408
 30
0.0
  0
VERTEX
  5
38A92
  8
0
 10
179.78219585540029
 20
241.25025356630979
 30
0.0
  0
VERTEX
  5
38A93
  8
0
 10
179.88936357581741
 20
241.3688979318195
 30
0.0
  0
VERTEX
  5
38A94
  8
0
 10
180.10536719090589
 20
241.60159737841789
 30
0.0
  0
VERTEX
  5
38A95
  8
0
 10
180.3235464954069
 20
241.82812572300961
 30
0.0
  0
VERTEX
  5
38A96
  8
0
 10
180.4334336902474
 20
241.93905660056771
 30
0.0
  0
SEQEND
  5
38A97
  8
0
  0
POLYLINE
  5
3810E
  8
0
 66
     1
 10
0.0
 20
0.0
 30
0.0
  0
VERTEX
  5
38A98
  8
0
 10
172.80348788839149
 20
232.0239930911066
 30
0.0
  0
VERTEX
  5
38A99
  8
0
 10
172.8098302025345
 20
232.02411809950991
 30
0.0
  0
VERTEX
  5
38A9A
  8
0
 10
172.8230241680445
 20
232.02511968811311
 30
0.0
  0
VERTEX
  5
38A9B
  8
0
 10
172.8368986873532
 20
232.02712653340629
 30
0.0
  0
VERTEX
  5
38A9C
  8
0
 10
172.84409159925559
 20
232.02850801264319
 30
0.0
  0
VERTEX
  5
38A9D
  8
0
 10
172.8514551324557
 20
232.03014205452649
 30
0.0
  0
VERTEX
  5
38A9E
  8
0
 10
172.86669446967159
 20
232.03416923765869
 30
0.0
  0
VERTEX
  5
38A9F
  8
0
 10
172.8826172583457
 20
232.03921063163489
 30
0.0
  0
VERTEX
  5
38AA0
  8
0
 10
172.89922365083129
 20
232.04526834537501
 30
0.0
  0
VERTEX
  5
38AA1
  8
0
 10
172.9165133937376
 20
232.05234404713019
 30
0.0
  0
VERTEX
  5
38AA2
  8
0
 10
172.93448583041911
 20
232.0604389654905
 30
0.0
  0
VERTEX
  5
38AA3
  8
0
 10
172.9437277443466
 20
232.0648688952497
 30
0.0
  0
VERTEX
  5
38AA4
  8
0
 10
172.9531399046825
 20
232.06955389211541
 30
0.0
  0
VERTEX
  5
38AA5
  8
0
 10
172.97247416568371
 20
232.07968918614191
 30
0.0
  0
VERTEX
  5
38AA6
  8
0
 10
172.99248677398711
 20
232.09084478023351
 30
0.0
  0
VERTEX
  5
38AA7
  8
0
 10
173.0131755087547
 20
232.10302018821719
 30
0.0
  0
VERTEX
  5
38AA8
  8
0
 10
173.03453777603161
 20
232.11621451427069
 30
0.0
  0
VERTEX
  5
38AA9
  8
0
 10
173.0565706180949
 20
232.13042646361151
 30
0.0
  0
VERTEX
  5
38AAA
  8
0
 10
173.06783748344751
 20
232.13791353626311
 30
0.0
  0
VERTEX
  5
38AAB
  8
0
 10
173.0792707238262
 20
232.14565435463831
 30
0.0
  0
VERTEX
  5
38AAC
  8
0
 10
173.10263444007029
 20
232.16189613248659
 30
0.0
  0
VERTEX
  5
38AAD
  8
0
 10
173.126657783941
 20
232.17914938394091
 30
0.0
  0
VERTEX
  5
38AAE
  8
0
 10
173.13891548465659
 20
232.18815446412231
 30
0.0
  0
VERTEX
  5
38AAF
  8
0
 10
173.21586929084461
 20
232.24745845802269
 30
0.0
  0
VERTEX
  5
38AB0
  8
0
 10
173.38682993957309
 20
232.39284416506831
 30
0.0
  0
VERTEX
  5
38AB1
  8
0
 10
173.57928524351649
 20
232.57296367304249
 30
0.0
  0
VERTEX
  5
38AB2
  8
0
 10
173.79136726383609
 20
232.78627518961909
 30
0.0
  0
VERTEX
  5
38AB3
  8
0
 10
174.02091717607681
 20
233.03095006342619
 30
0.0
  0
VERTEX
  5
38AB4
  8
0
 10
174.2656033037791
 20
233.3050211452441
 30
0.0
  0
VERTEX
  5
38AB5
  8
0
 10
174.39276535720089
 20
233.4523378733729
 30
0.0
  0
VERTEX
  5
38AB6
  8
0
 10
174.5226460843345
 20
233.6060735125489
 30
0.0
  0
VERTEX
  5
38AB7
  8
0
 10
174.78900081673771
 20
233.93140311093379
 30
0.0
  0
VERTEX
  5
38AB8
  8
0
 10
175.06143199691871
 20
234.2780695419078
 30
0.0
  0
VERTEX
  5
38AB9
  8
0
 10
175.33652213485169
 20
234.64285534758889
 30
0.0
  0
VERTEX
  5
38ABA
  8
0
 10
175.6107288313236
 20
235.02226248399981
 30
0.0
  0
VERTEX
  5
38ABB
  8
0
 10
175.88653237998949
 20
235.4215102197291
 30
0.0
  0
VERTEX
  5
38ABC
  8
0
 10
176.02639262745919
 20
235.6315006956429
 30
0.0
  0
VERTEX
  5
38ABD
  8
0
 10
176.16691893377191
 20
235.8481503167709
 30
0.0
  0
VERTEX
  5
38ABE
  8
0
 10
176.44792356770779
 20
236.30060838065131
 30
0.0
  0
VERTEX
  5
38ABF
  8
0
 10
176.7252791635338
 20
236.77719655845749
 30
0.0
  0
VERTEX
  5
38AC0
  8
0
 10
176.8611826789583
 20
237.0239930911066
 30
0.0
  0
SEQEND
  5
38AC1
  8
0
  0
POLYLINE
  5
3810F
  8
0
 66
     1
 10
0.0
 20
0.0
 30
0.0
  0
VERTEX
  5
38AC2
  8
0
 10
122.11876174388981
 20
237.0239930911066
 30
0.0
  0
VERTEX
  5
38AC3
  8
0
 10
122.00101251408729
 20
237.28942074595261
 30
0.0
  0
VERTEX
  5
38AC4
  8
0
 10
121.76047323690869
 20
237.81343871987249
 30
0.0
  0
VERTEX
  5
38AC5
  8
0
 10
121.51331099089811
 20
238.3281276949142
 30
0.0
  0
VERTEX
  5
38AC6
  8
0
 10
121.387283807279
 20
238.5818951677729
 30
0.0
  0
VERTEX
  5
38AC7
  8
0
 10
121.2596463434184
 20
238.83323660242331
 30
0.0
  0
VERTEX
  5
38AC8
  8
0
 10
120.9996030337462
 20
239.32851904696599
 30
0.0
  0
VERTEX
  5
38AC9
  8
0
 10
120.7333079127114
 20
239.81373342652159
 30
0.0
  0
VERTEX
  5
38ACA
  8
0
 10
120.46089088081879
 20
240.28864305033721
 30
0.0
  0
VERTEX
  5
38ACB
  8
0
 10
120.1824848248808
 20
240.75301625438669
 30
0.0
  0
VERTEX
  5
38ACC
  8
0
 10
119.8982255531955
 20
241.20662651437991
 30
0.0
  0
VERTEX
  5
38ACD
  8
0
 10
119.7539441841097
 20
241.4293261841558
 30
0.0
  0
VERTEX
  5
38ACE
  8
0
 10
119.60825172929761
 20
241.64925255625991
 30
0.0
  0
VERTEX
  5
38ACF
  8
0
 10
119.3127048043181
 20
242.0806784641436
 30
0.0
  0
VERTEX
  5
38AD0
  8
0
 10
119.0117289479831
 20
242.5006937856478
 30
0.0
  0
VERTEX
  5
38AD1
  8
0
 10
118.7054709782868
 20
242.90909363454699
 30
0.0
  0
VERTEX
  5
38AD2
  8
0
 10
118.3940802898731
 20
243.30567879071901
 30
0.0
  0
VERTEX
  5
38AD3
  8
0
 10
118.0777087811599
 20
243.6902557973271
 30
0.0
  0
VERTEX
  5
38AD4
  8
0
 10
117.9177033538617
 20
243.87798238846341
 30
0.0
  0
VERTEX
  5
38AD5
  8
0
 10
117.7565107802414
 20
244.06263705518819
 30
0.0
  0
VERTEX
  5
38AD6
  8
0
 10
117.43064296960669
 20
244.42264091428481
 30
0.0
  0
VERTEX
  5
38AD7
  8
0
 10
117.10026430970851
 20
244.77009176237701
 30
0.0
  0
VERTEX
  5
38AD8
  8
0
 10
116.9334336902474
 20
244.93905660056771
 30
0.0
  0
SEQEND
  5
38AD9
  8
0
  0
POLYLINE
  5
38110
  8
0
 66
     1
 10
0.0
 20
0.0
 30
0.0
  0
VERTEX
  5
38ADA
  8
0
 10
125.5771892613719
 20
232.0239930911066
 30
0.0
  0
VERTEX
  5
38ADB
  8
0
 10
125.54199321276479
 20
232.02834606941221
 30
0.0
  0
VERTEX
  5
38ADC
  8
0
 10
125.4557812877607
 20
232.0635084634896
 30
0.0
  0
VERTEX
  5
38ADD
  8
0
 10
125.34851531872719
 20
232.1344061756599
 30
0.0
  0
VERTEX
  5
38ADE
  8
0
 10
125.2871092119932
 20
232.18330020712531
 30
0.0
  0
VERTEX
  5
38ADF
  8
0
 10
125.2206391269247
 20
232.24111864557611
 30
0.0
  0
VERTEX
  5
38AE0
  8
0
 10
125.0730068760375
 20
232.38324559417509
 30
0.0
  0
VERTEX
  5
38AE1
  8
0
 10
124.9068811509886
 20
232.5599333680411
 30
0.0
  0
VERTEX
  5
38AE2
  8
0
 10
124.72392421119029
 20
232.7698856943839
 30
0.0
  0
VERTEX
  5
38AE3
  8
0
 10
124.5260749535756
 20
233.01150230511391
 30
0.0
  0
VERTEX
  5
38AE4
  8
0
 10
124.315444867275
 20
233.28302031157321
 30
0.0
  0
VERTEX
  5
38AE5
  8
0
 10
124.2061107884805
 20
233.4293096181959
 30
0.0
  0
VERTEX
  5
38AE6
  8
0
 10
124.0945427958588
 20
233.58221277898701
 30
0.0
  0
VERTEX
  5
38AE7
  8
0
 10
123.8661113068668
 20
233.9065387120859
 30
0.0
  0
VERTEX
  5
38AE8
  8
0
 10
123.6330527446263
 20
234.2531929565593
 30
0.0
  0
VERTEX
  5
38AE9
  8
0
 10
123.3984118956061
 20
234.6190610002941
 30
0.0
  0
VERTEX
  5
38AEA
  8
0
 10
123.1653156010957
 20
235.00071187681709
 30
0.0
  0
VERTEX
  5
38AEB
  8
0
 10
122.931924124975
 20
235.4032042699323
 30
0.0
  0
VERTEX
  5
38AEC
  8
0
 10
122.8140507433091
 20
235.61517848009271
 30
0.0
  0
VERTEX
  5
38AED
  8
0
 10
122.6959710238178
 20
235.8340476479743
 30
0.0
  0
VERTEX
  5
38AEE
  8
0
 10
122.46102271718151
 20
236.29160621079151
 30
0.0
  0
VERTEX
  5
38AEF
  8
0
 10
122.2308456432072
 20
236.7740517304496
 30
0.0
  0
VERTEX
  5
38AF0
  8
0
 10
122.11876174388981
 20
237.0239930911066
 30
0.0
  0
SEQEND
  5
38AF1
  8
0
  0
LINE
  5
38111
  8
0
 10
125.6834336902474
 20
348.5239930911066
 30
0.0
 11
125.6834336902474
 21
232.0239930911066
 31
0.0
  0
LINE
  5
38112
  8
0
 10
170.6834336902474
 20
348.5239930911066
 30
0.0
 11
170.6834336902474
 21
232.0239930911066
 31
0.0
  0
LINE
  5
38113
  8
0
 10
155.1895341703362
 20
341.5239930911066
 30
0.0
 11
141.17733321015859
 21
341.5239930911066
 31
0.0
  0
POLYLINE
  5
38114
  8
0
 66
     1
 10
0.0
 20
0.0
 30
0.0
  0
VERTEX
  5
38AF2
  8
0
 10
158.36161142496451
 20
343.5448291750144
 30
0.0
  0
VERTEX
  5
38AF3
  8
0
 10
158.3537989216928
 20
343.52818943309472
 30
0.0
  0
VERTEX
  5
38AF4
  8
0
 10
158.33791227436009
 20
343.49503419234497
 30
0.0
  0
VERTEX
  5
38AF5
  8
0
 10
158.32167823741551
 20
343.46204765574112
 30
0.0
  0
VERTEX
  5
38AF6
  8
0
 10
158.31343150611289
 20
343.44561878964117
 30
0.0
  0
VERTEX
  5
38AF7
  8
0
 10
158.30509860211021
 20
343.42923346299182
 30
0.0
  0
VERTEX
  5
38AF8
  8
0
 10
158.2881751978282
 20
343.39659523479031
 30
0.0
  0
VERTEX
  5
38AF9
  8
0
 10
158.27090989188491
 20
343.36413657241292
 30
0.0
  0
VERTEX
  5
38AFA
  8
0
 10
158.25330458932089
 20
343.33186105732381
 30
0.0
  0
VERTEX
  5
38AFB
  8
0
 10
158.23536123269159
 20
343.29977225077801
 30
0.0
  0
VERTEX
  5
38AFC
  8
0
 10
158.2170818018534
 20
343.26787369343037
 30
0.0
  0
VERTEX
  5
38AFD
  8
0
 10
158.2078166874565
 20
343.2519968589308
 30
0.0
  0
VERTEX
  5
38AFE
  8
0
 10
158.1984683137442
 20
343.23616890494259
 30
0.0
  0
VERTEX
  5
38AFF
  8
0
 10
158.17952282216231
 20
343.20466138359689
 30
0.0
  0
VERTEX
  5
38B00
  8
0
 10
158.16024741753839
 20
343.17335460590863
 30
0.0
  0
VERTEX
  5
38B01
  8
0
 10
158.09021646801509
 20
343.06541140837498
 30
0.0
  0
VERTEX
  5
38B02
  8
0
 10
158.02706595543191
 20
342.97499007291208
 30
0.0
  0
VERTEX
  5
38B03
  8
0
 10
157.96109783050281
 20
342.88660335649053
 30
0.0
  0
VERTEX
  5
38B04
  8
0
 10
157.82097349651261
 20
342.71628273825633
 30
0.0
  0
VERTEX
  5
38B05
  8
0
 10
157.67039989053171
 20
342.55512588561402
 30
0.0
  0
VERTEX
  5
38B06
  8
0
 10
157.5099749304176
 20
342.403772741794
 30
0.0
  0
VERTEX
  5
38B07
  8
0
 10
157.3403356531048
 20
342.2628243201475
 30
0.0
  0
VERTEX
  5
38B08
  8
0
 10
157.1621556849741
 20
342.1328403175599
 30
0.0
  0
VERTEX
  5
38B09
  8
0
 10
157.07008279954999
 20
342.07212303076182
 30
0.0
  0
VERTEX
  5
38B0A
  8
0
 10
156.97614256692569
 20
342.01433689193118
 30
0.0
  0
VERTEX
  5
38B0B
  8
0
 10
156.78303494478189
 20
341.90778461254791
 30
0.0
  0
VERTEX
  5
38B0C
  8
0
 10
156.58359963617241
 20
341.81360659148368
 30
0.0
  0
VERTEX
  5
38B0D
  8
0
 10
156.37862858555269
 20
341.73217680344709
 30
0.0
  0
VERTEX
  5
38B0E
  8
0
 10
156.16893571944459
 20
341.6638186007558
 30
0.0
  0
VERTEX
  5
38B0F
  8
0
 10
155.9553537143878
 20
341.60880342932393
 30
0.0
  0
VERTEX
  5
38B10
  8
0
 10
155.84736881073661
 20
341.58636984445963
 30
0.0
  0
VERTEX
  5
38B11
  8
0
 10
155.7387306904362
 20
341.56734975076779
 30
0.0
  0
VERTEX
  5
38B12
  8
0
 10
155.51992684332899
 20
341.53962217491062
 30
0.0
  0
VERTEX
  5
38B13
  8
0
 10
155.29981102871071
 20
341.52573080612768
 30
0.0
  0
VERTEX
  5
38B14
  8
0
 10
155.1895341703362
 20
341.5239930911066
 30
0.0
  0
SEQEND
  5
38B15
  8
0
  0
LINE
  5
38115
  8
0
 10
160.27957740090369
 20
347.65792048371759
 30
0.0
 11
158.36161142496451
 21
343.5448291750144
 31
0.0
  0
POLYLINE
  5
38116
  8
0
 66
     1
 10
0.0
 20
0.0
 30
0.0
  0
VERTEX
  5
38B16
  8
0
 10
161.63903908145869
 20
348.5239930911066
 30
0.0
  0
VERTEX
  5
38B17
  8
0
 10
161.6257625801274
 20
348.52393433479352
 30
0.0
  0
VERTEX
  5
38B18
  8
0
 10
161.59388572741989
 20
348.52331332862059
 30
0.0
  0
VERTEX
  5
38B19
  8
0
 10
161.55491701738819
 20
348.52163239292031
 30
0.0
  0
VERTEX
  5
38B1A
  8
0
 10
161.5327917354806
 20
348.52022552675049
 30
0.0
  0
VERTEX
  5
38B1B
  8
0
 10
161.50892434363169
 20
348.51833915377119
 30
0.0
  0
VERTEX
  5
38B1C
  8
0
 10
161.4560443341208
 20
348.51278888719389
 30
0.0
  0
VERTEX
  5
38B1D
  8
0
 10
161.39648116422231
 20
348.50425173633948
 30
0.0
  0
VERTEX
  5
38B1E
  8
0
 10
161.33051108698649
 20
348.4919203633608
 30
0.0
  0
VERTEX
  5
38B1F
  8
0
 10
161.25847317298951
 20
348.47491334712049
 30
0.0
  0
VERTEX
  5
38B20
  8
0
 10
161.18075912421631
 20
348.45227159363679
 30
0.0
  0
VERTEX
  5
38B21
  8
0
 10
161.1399130569296
 20
348.43851534672422
 30
0.0
  0
VERTEX
  5
38B22
  8
0
 10
161.0978233609415
 20
348.42295182669022
 30
0.0
  0
VERTEX
  5
38B23
  8
0
 10
161.01018746999929
 20
348.38581013122803
 30
0.0
  0
VERTEX
  5
38B24
  8
0
 10
160.91845794862979
 20
348.33957768778282
 30
0.0
  0
VERTEX
  5
38B25
  8
0
 10
160.82329077013651
 20
348.28278405571342
 30
0.0
  0
VERTEX
  5
38B26
  8
0
 10
160.76648071816621
 20
348.24409222750859
 30
0.0
  0
VERTEX
  5
38B27
  8
0
 10
160.7501039326539
 20
348.23221256670701
 30
0.0
  0
VERTEX
  5
38B28
  8
0
 10
160.73367002239701
 20
348.21994746602832
 30
0.0
  0
VERTEX
  5
38B29
  8
0
 10
160.72543296430419
 20
348.21366693830078
 30
0.0
  0
VERTEX
  5
38B2A
  8
0
 10
160.71718322279631
 20
348.2072858595497
 30
0.0
  0
VERTEX
  5
38B2B
  8
0
 10
160.7006478982579
 20
348.19421614133722
 30
0.0
  0
VERTEX
  5
38B2C
  8
0
 10
160.68406856915459
 20
348.18072612885999
 30
0.0
  0
VERTEX
  5
38B2D
  8
0
 10
160.66744994405849
 20
348.16680302634808
 30
0.0
  0
VERTEX
  5
38B2E
  8
0
 10
160.6507969577284
 20
348.1524333885464
 30
0.0
  0
VERTEX
  5
38B2F
  8
0
 10
160.6341148153316
 20
348.13760308538173
 30
0.0
  0
VERTEX
  5
38B30
  8
0
 10
160.62576452354949
 20
348.13001057301841
 30
0.0
  0
VERTEX
  5
38B31
  8
0
 10
160.61740904336469
 20
348.12229726812888
 30
0.0
  0
VERTEX
  5
38B32
  8
0
 10
160.6006855477184
 20
348.10650033771941
 30
0.0
  0
VERTEX
  5
38B33
  8
0
 10
160.58390402920179
 20
348.09014975009222
 30
0.0
  0
VERTEX
  5
38B34
  8
0
 10
160.57543085654251
 20
348.08169699291062
 30
0.0
  0
VERTEX
  5
38B35
  8
0
 10
160.56690353107851
 20
348.07305236570068
 30
0.0
  0
VERTEX
  5
38B36
  8
0
 10
160.54970891482029
 20
348.05518647163808
 30
0.0
  0
VERTEX
  5
38B37
  8
0
 10
160.5323658461952
 20
348.0365514105884
 30
0.0
  0
VERTEX
  5
38B38
  8
0
 10
160.5236531815379
 20
348.0269458787584
 30
0.0
  0
VERTEX
  5
38B39
  8
0
 10
160.51492095480839
 20
348.01714888821829
 30
0.0
  0
VERTEX
  5
38B3A
  8
0
 10
160.49742163696021
 20
347.99698312724098
 30
0.0
  0
VERTEX
  5
38B3B
  8
0
 10
160.4799158281117
 20
347.97606098970982
 30
0.0
  0
VERTEX
  5
38B3C
  8
0
 10
160.46245174189559
 20
347.95439205519688
 30
0.0
  0
VERTEX
  5
38B3D
  8
0
 10
160.44507757339539
 20
347.93198864024947
 30
0.0
  0
VERTEX
  5
38B3E
  8
0
 10
160.4278411654258
 20
347.90886574194252
 30
0.0
  0
VERTEX
  5
38B3F
  8
0
 10
160.4192893857178
 20
347.89703987091889
 30
0.0
  0
VERTEX
  5
38B40
  8
0
 10
160.41078963789579
 20
347.88504088559188
 30
0.0
  0
VERTEX
  5
38B41
  8
0
 10
160.39396860286081
 20
347.860533289378
 30
0.0
  0
VERTEX
  5
38B42
  8
0
 10
160.37742158245911
 20
347.83536309684911
 30
0.0
  0
VERTEX
  5
38B43
  8
0
 10
160.36119384746331
 20
347.80955757474612
 30
0.0
  0
VERTEX
  5
38B44
  8
0
 10
160.34533028264181
 20
347.78314890111142
 30
0.0
  0
VERTEX
  5
38B45
  8
0
 10
160.32987461038891
 20
347.7561736615184
 30
0.0
  0
VERTEX
  5
38B46
  8
0
 10
160.32231295091569
 20
347.74248616493918
 30
0.0
  0
VERTEX
  5
38B47
  8
0
 10
160.3148688679907
 20
347.72867262519588
 30
0.0
  0
VERTEX
  5
38B48
  8
0
 10
160.3003528776886
 20
347.70069039997952
 30
0.0
  0
VERTEX
  5
38B49
  8
0
 10
160.28636371544391
 20
347.67227493889908
 30
0.0
  0
VERTEX
  5
38B4A
  8
0
 10
160.27957740090369
 20
347.65792048371759
 30
0.0
  0
SEQEND
  5
38B4B
  8
0
  0
POLYLINE
  5
38117
  8
0
 66
     1
 10
0.0
 20
0.0
 30
0.0
  0
VERTEX
  5
38B4C
  8
0
 10
141.17733321015859
 20
341.5239930911066
 30
0.0
  0
VERTEX
  5
38B4D
  8
0
 10
141.06705635178409
 20
341.52573080612768
 30
0.0
  0
VERTEX
  5
38B4E
  8
0
 10
140.84694053716581
 20
341.53962217491062
 30
0.0
  0
VERTEX
  5
38B4F
  8
0
 10
140.6281366900586
 20
341.56734975076779
 30
0.0
  0
VERTEX
  5
38B50
  8
0
 10
140.51949856975821
 20
341.58636984445963
 30
0.0
  0
VERTEX
  5
38B51
  8
0
 10
140.411513666107
 20
341.60880342932393
 30
0.0
  0
VERTEX
  5
38B52
  8
0
 10
140.19793166105009
 20
341.6638186007558
 30
0.0
  0
VERTEX
  5
38B53
  8
0
 10
139.98823879494199
 20
341.73217680344709
 30
0.0
  0
VERTEX
  5
38B54
  8
0
 10
139.78326774432239
 20
341.81360659148368
 30
0.0
  0
VERTEX
  5
38B55
  8
0
 10
139.58383243571291
 20
341.90778461254791
 30
0.0
  0
VERTEX
  5
38B56
  8
0
 10
139.39072481356899
 20
342.01433689193118
 30
0.0
  0
VERTEX
  5
38B57
  8
0
 10
139.29678458094469
 20
342.07212303076182
 30
0.0
  0
VERTEX
  5
38B58
  8
0
 10
139.2047116955207
 20
342.1328403175599
 30
0.0
  0
VERTEX
  5
38B59
  8
0
 10
139.02653172738991
 20
342.2628243201475
 30
0.0
  0
VERTEX
  5
38B5A
  8
0
 10
138.8568924500772
 20
342.403772741794
 30
0.0
  0
VERTEX
  5
38B5B
  8
0
 10
138.69646748996311
 20
342.55512588561402
 30
0.0
  0
VERTEX
  5
38B5C
  8
0
 10
138.54589388398219
 20
342.71628273825633
 30
0.0
  0
VERTEX
  5
38B5D
  8
0
 10
138.40576954999199
 20
342.88660335649053
 30
0.0
  0
VERTEX
  5
38B5E
  8
0
 10
138.33980142506289
 20
342.97499007291208
 30
0.0
  0
VERTEX
  5
38B5F
  8
0
 10
138.27665091247971
 20
343.06541140837498
 30
0.0
  0
VERTEX
  5
38B60
  8
0
 10
138.2066199629563
 20
343.17335460590863
 30
0.0
  0
VERTEX
  5
38B61
  8
0
 10
138.18734455833251
 20
343.20466138359689
 30
0.0
  0
VERTEX
  5
38B62
  8
0
 10
138.1683990667506
 20
343.23616890494259
 30
0.0
  0
VERTEX
  5
38B63
  8
0
 10
138.15905069303821
 20
343.2519968589308
 30
0.0
  0
VERTEX
  5
38B64
  8
0
 10
138.1497855786414
 20
343.26787369343037
 30
0.0
  0
VERTEX
  5
38B65
  8
0
 10
138.13150614780321
 20
343.29977225077801
 30
0.0
  0
VERTEX
  5
38B66
  8
0
 10
138.1135627911739
 20
343.33186105732381
 30
0.0
  0
VERTEX
  5
38B67
  8
0
 10
138.0959574886098
 20
343.36413657241292
 30
0.0
  0
VERTEX
  5
38B68
  8
0
 10
138.0786921826666
 20
343.39659523479031
 30
0.0
  0
VERTEX
  5
38B69
  8
0
 10
138.06176877838459
 20
343.42923346299182
 30
0.0
  0
VERTEX
  5
38B6A
  8
0
 10
138.0534358743819
 20
343.44561878964117
 30
0.0
  0
VERTEX
  5
38B6B
  8
0
 10
138.0451891430792
 20
343.46204765574112
 30
0.0
  0
VERTEX
  5
38B6C
  8
0
 10
138.02895510613459
 20
343.49503419234497
 30
0.0
  0
VERTEX
  5
38B6D
  8
0
 10
138.01306845880191
 20
343.52818943309472
 30
0.0
  0
VERTEX
  5
38B6E
  8
0
 10
138.00525595553029
 20
343.5448291750144
 30
0.0
  0
SEQEND
  5
38B6F
  8
0
  0
LINE
  5
38118
  8
0
 10
138.00525595553029
 20
343.5448291750144
 30
0.0
 11
136.08728997959111
 21
347.65792048371759
 31
0.0
  0
POLYLINE
  5
38119
  8
0
 66
     1
 10
0.0
 20
0.0
 30
0.0
  0
VERTEX
  5
38B70
  8
0
 10
136.08728997959111
 20
347.65792048371759
 30
0.0
  0
VERTEX
  5
38B71
  8
0
 10
136.0805036650508
 20
347.67227493889908
 30
0.0
  0
VERTEX
  5
38B72
  8
0
 10
136.0665145028062
 20
347.70069039997952
 30
0.0
  0
VERTEX
  5
38B73
  8
0
 10
136.05199851250401
 20
347.72867262519588
 30
0.0
  0
VERTEX
  5
38B74
  8
0
 10
136.04455442957911
 20
347.74248616493918
 30
0.0
  0
VERTEX
  5
38B75
  8
0
 10
136.0369927701058
 20
347.7561736615184
 30
0.0
  0
VERTEX
  5
38B76
  8
0
 10
136.02153709785301
 20
347.78314890111142
 30
0.0
  0
VERTEX
  5
38B77
  8
0
 10
136.0056735330314
 20
347.80955757474612
 30
0.0
  0
VERTEX
  5
38B78
  8
0
 10
135.98944579803569
 20
347.83536309684911
 30
0.0
  0
VERTEX
  5
38B79
  8
0
 10
135.97289877763399
 20
347.860533289378
 30
0.0
  0
VERTEX
  5
38B7A
  8
0
 10
135.95607774259889
 20
347.88504088559188
 30
0.0
  0
VERTEX
  5
38B7B
  8
0
 10
135.94757799477699
 20
347.89703987091889
 30
0.0
  0
VERTEX
  5
38B7C
  8
0
 10
135.93902621506899
 20
347.90886574194252
 30
0.0
  0
VERTEX
  5
38B7D
  8
0
 10
135.92178980709929
 20
347.93198864024947
 30
0.0
  0
VERTEX
  5
38B7E
  8
0
 10
135.9044156385992
 20
347.95439205519688
 30
0.0
  0
VERTEX
  5
38B7F
  8
0
 10
135.88695155238301
 20
347.97606098970982
 30
0.0
  0
VERTEX
  5
38B80
  8
0
 10
135.86944574353461
 20
347.99698312724098
 30
0.0
  0
VERTEX
  5
38B81
  8
0
 10
135.85194642568641
 20
348.01714888821829
 30
0.0
  0
VERTEX
  5
38B82
  8
0
 10
135.84321419895679
 20
348.0269458787584
 30
0.0
  0
VERTEX
  5
38B83
  8
0
 10
135.83450153429939
 20
348.0365514105884
 30
0.0
  0
VERTEX
  5
38B84
  8
0
 10
135.8171584656744
 20
348.05518647163808
 30
0.0
  0
VERTEX
  5
38B85
  8
0
 10
135.79996384941609
 20
348.07305236570068
 30
0.0
  0
VERTEX
  5
38B86
  8
0
 10
135.7914365239522
 20
348.08169699291062
 30
0.0
  0
VERTEX
  5
38B87
  8
0
 10
135.78296335129301
 20
348.09014975009222
 30
0.0
  0
VERTEX
  5
38B88
  8
0
 10
135.7661818327764
 20
348.10650033771941
 30
0.0
  0
VERTEX
  5
38B89
  8
0
 10
135.74945833712999
 20
348.12229726812888
 30
0.0
  0
VERTEX
  5
38B8A
  8
0
 10
135.7411028569453
 20
348.13001057301841
 30
0.0
  0
VERTEX
  5
38B8B
  8
0
 10
135.7327525651632
 20
348.13760308538173
 30
0.0
  0
VERTEX
  5
38B8C
  8
0
 10
135.71607042276639
 20
348.1524333885464
 30
0.0
  0
VERTEX
  5
38B8D
  8
0
 10
135.69941743643631
 20
348.16680302634808
 30
0.0
  0
VERTEX
  5
38B8E
  8
0
 10
135.68279881134009
 20
348.18072612885999
 30
0.0
  0
VERTEX
  5
38B8F
  8
0
 10
135.6662194822369
 20
348.19421614133722
 30
0.0
  0
VERTEX
  5
38B90
  8
0
 10
135.64968415769849
 20
348.2072858595497
 30
0.0
  0
VERTEX
  5
38B91
  8
0
 10
135.64143441619061
 20
348.21366693830078
 30
0.0
  0
VERTEX
  5
38B92
  8
0
 10
135.6331973580977
 20
348.21994746602832
 30
0.0
  0
VERTEX
  5
38B93
  8
0
 10
135.61676344784081
 20
348.23221256670701
 30
0.0
  0
VERTEX
  5
38B94
  8
0
 10
135.6003866623285
 20
348.24409222750859
 30
0.0
  0
VERTEX
  5
38B95
  8
0
 10
135.54357661035829
 20
348.28278405571342
 30
0.0
  0
VERTEX
  5
38B96
  8
0
 10
135.448409431865
 20
348.33957768778282
 30
0.0
  0
VERTEX
  5
38B97
  8
0
 10
135.35667991049539
 20
348.38581013122803
 30
0.0
  0
VERTEX
  5
38B98
  8
0
 10
135.26904401955321
 20
348.42295182669022
 30
0.0
  0
VERTEX
  5
38B99
  8
0
 10
135.22695432356511
 20
348.43851534672422
 30
0.0
  0
VERTEX
  5
38B9A
  8
0
 10
135.18610825627829
 20
348.45227159363679
 30
0.0
  0
VERTEX
  5
38B9B
  8
0
 10
135.10839420750531
 20
348.47491334712049
 30
0.0
  0
VERTEX
  5
38B9C
  8
0
 10
135.03635629350819
 20
348.4919203633608
 30
0.0
  0
VERTEX
  5
38B9D
  8
0
 10
134.9703862162724
 20
348.50425173633948
 30
0.0
  0
VERTEX
  5
38B9E
  8
0
 10
134.91082304637391
 20
348.51278888719389
 30
0.0
  0
VERTEX
  5
38B9F
  8
0
 10
134.85794303686299
 20
348.51833915377119
 30
0.0
  0
VERTEX
  5
38BA0
  8
0
 10
134.8340756450142
 20
348.52022552675049
 30
0.0
  0
VERTEX
  5
38BA1
  8
0
 10
134.8119503631066
 20
348.52163239292031
 30
0.0
  0
VERTEX
  5
38BA2
  8
0
 10
134.77298165307491
 20
348.52331332862059
 30
0.0
  0
VERTEX
  5
38BA3
  8
0
 10
134.74110480036731
 20
348.52393433479352
 30
0.0
  0
VERTEX
  5
38BA4
  8
0
 10
134.7278282990361
 20
348.5239930911066
 30
0.0
  0
SEQEND
  5
38BA5
  8
0
  0
LINE
  5
3811A
  8
0
 10
190.6834336902474
 20
350.5239930911066
 30
0.0
 11
105.6834336902474
 21
350.5239930911066
 31
0.0
  0
LINE
  5
3811B
  8
0
 10
145.6834336902474
 20
318.5239930911066
 30
0.0
 11
150.6834336902474
 21
318.5239930911066
 31
0.0
  0
LINE
  5
3811C
  8
0
 10
150.6834336902474
 20
168.5239930911066
 30
0.0
 11
145.6834336902474
 21
168.5239930911066
 31
0.0
  0
ARC
  5
3811D
  8
0
 10
145.6834336902474
 20
168.7739930911066
 30
0.0
 40
0.25
 50
180.0
 51
270.0
  0
ARC
  5
3811E
  8
0
 10
145.6834336902474
 20
318.2739930911066
 30
0.0
 40
0.2499999999999951
 50
90.0
 51
180.0
  0
LINE
  5
3811F
  8
0
 10
143.4334336902474
 20
318.2739930911066
 30
0.0
 11
145.4334336902474
 21
318.2739930911066
 31
0.0
  0
LINE
  5
38120
  8
0
 10
145.4334336902474
 20
168.7739930911066
 30
0.0
 11
143.4334336902474
 21
168.7739930911066
 31
0.0
  0
ARC
  5
38121
  8
0
 10
143.1834336902474
 20
168.7739930911066
 30
0.0
 40
0.2499999999999956
 50
270.0
 51
0.0
  0
ARC
  5
38122
  8
0
 10
143.1834336902474
 20
318.2739930911066
 30
0.0
 40
0.25
 50
0.0
 51
90.0
  0
LINE
  5
38123
  8
0
 10
139.1076729788515
 20
318.5239930911066
 30
0.0
 11
143.1834336902474
 21
318.5239930911066
 31
0.0
  0
LINE
  5
38124
  8
0
 10
143.1834336902474
 20
168.5239930911066
 30
0.0
 11
139.1076729788515
 21
168.5239930911066
 31
0.0
  0
ARC
  5
38125
  8
0
 10
139.1076729788515
 20
169.35732642444009
 30
0.0
 40
0.8333333333333001
 50
198.99999999998809
 51
270.0
  0
ARC
  5
38126
  8
0
 10
139.1076729788515
 20
317.69065975777357
 30
0.0
 40
0.8333333333332944
 50
90.0
 51
161.00000000001191
  0
LINE
  5
38127
  8
0
 10
136.15121811726081
 20
311.66411929501459
 30
0.0
 11
138.3197408325187
 21
317.96196655315453
 31
0.0
  0
LINE
  5
38128
  8
0
 10
138.3197408325187
 20
169.08601962905911
 30
0.0
 11
136.15121811726081
 21
175.38386688719851
 31
0.0
  0
ARC
  5
38129
  8
0
 10
138.51501455625939
 20
176.19778727334139
 30
0.0
 40
2.5000000000003242
 50
179.99999914622629
 51
198.99999999998809
  0
ARC
  5
3812A
  8
0
 10
138.51501455625939
 20
310.85019890887179
 30
0.0
 40
2.5000000000003122
 50
161.00000000001191
 51
179.99999914622629
  0
ARC
  5
3812B
  8
0
 10
135.34834788959239
 20
177.7155713357551
 30
0.0
 40
0.6666666666666661
 50
180.0
 51
0.0
  0
ARC
  5
3812C
  8
0
 10
135.34834788959239
 20
309.33241484645851
 30
0.0
 40
0.6666666666666661
 50
0.0
 51
180.0
  0
ARC
  5
3812D
  8
0
 10
134.0150145562591
 20
181.5878525059893
 30
0.0
 40
0.6666666666666661
 50
180.0
 51
0.0
  0
ARC
  5
3812E
  8
0
 10
134.0150145562591
 20
305.4601336762239
 30
0.0
 40
0.6666666666666661
 50
0.0
 51
180.0
  0
LINE
  5
3812F
  8
0
 10
128.31963725124911
 20
288.9195569545459
 30
0.0
 11
133.34834788959239
 21
303.5239930911066
 31
0.0
  0
LINE
  5
38130
  8
0
 10
133.34834788959239
 20
183.5239930911066
 30
0.0
 11
128.31963725124911
 21
198.12842922766731
 31
0.0
  0
ARC
  5
38131
  8
0
 10
130.68343369024751
 20
198.94234961381011
 30
0.0
 40
2.500000000000131
 50
180.0
 51
198.9999999999882
  0
ARC
  5
38132
  8
0
 10
130.6834336902476
 20
288.1056365684031
 30
0.0
 40
2.5000000000002158
 50
161.00000000001191
 51
180.0
  0
ARC
  5
38133
  8
0
 10
165.68343369024751
 20
198.94234961381011
 30
0.0
 40
2.4999999999998819
 50
341.00000000001182
 51
0.0
  0
ARC
  5
38134
  8
0
 10
165.68343369024751
 20
288.1056365684031
 30
0.0
 40
2.4999999999998881
 50
0.0
 51
18.999999999988169
  0
LINE
  5
38135
  8
0
 10
163.01851949090229
 20
303.5239930911066
 30
0.0
 11
168.04723012924569
 21
288.9195569545459
 31
0.0
  0
LINE
  5
38136
  8
0
 10
168.04723012924569
 20
198.12842922766731
 30
0.0
 11
163.01851949090229
 21
183.5239930911066
 31
0.0
  0
ARC
  5
38137
  8
0
 10
162.35185282423569
 20
181.5878525059893
 30
0.0
 40
0.6666666666666661
 50
180.0
 51
0.0
  0
ARC
  5
38138
  8
0
 10
162.35185282423569
 20
305.4601336762239
 30
0.0
 40
0.6666666666666661
 50
0.0
 51
180.0
  0
ARC
  5
38139
  8
0
 10
161.01851949090229
 20
177.7155713357551
 30
0.0
 40
0.6666666666666679
 50
180.0
 51
0.0
  0
ARC
  5
3813A
  8
0
 10
161.01851949090229
 20
309.33241484645851
 30
0.0
 40
0.6666666666666679
 50
0.0
 51
180.0
  0
ARC
  5
3813B
  8
0
 10
157.85185282423529
 20
176.19778727334139
 30
0.0
 40
2.5000000000004441
 50
341.00000000001199
 51
0.0
  0
ARC
  5
3813C
  8
0
 10
157.85185282423549
 20
310.85019890887179
 30
0.0
 40
2.5000000000002771
 50
0.0
 51
18.999999999988091
  0
LINE
  5
3813D
  8
0
 10
158.04712654797601
 20
317.96196655315453
 30
0.0
 11
160.21564926323401
 21
311.66411929501459
 31
0.0
  0
LINE
  5
3813E
  8
0
 10
160.21564926323401
 20
175.38386688719851
 30
0.0
 11
158.04712654797601
 21
169.08601962905911
 31
0.0
  0
ARC
  5
3813F
  8
0
 10
157.25919440164321
 20
169.35732642444009
 30
0.0
 40
0.8333333333333454
 50
270.0
 51
341.00000000001182
  0
ARC
  5
38140
  8
0
 10
157.25919440164321
 20
317.69065975777357
 30
0.0
 40
0.8333333333333428
 50
18.999999999988169
 51
90.0
  0
LINE
  5
38141
  8
0
 10
153.1834336902474
 20
318.5239930911066
 30
0.0
 11
157.2591944016433
 21
318.5239930911066
 31
0.0
  0
LINE
  5
38142
  8
0
 10
157.2591944016433
 20
168.5239930911066
 30
0.0
 11
153.1834336902474
 21
168.5239930911066
 31
0.0
  0
ARC
  5
38143
  8
0
 10
153.1834336902474
 20
168.7739930911066
 30
0.0
 40
0.25
 50
180.0
 51
270.0
  0
ARC
  5
38144
  8
0
 10
153.1834336902474
 20
318.2739930911066
 30
0.0
 40
0.2499999999999956
 50
90.0
 51
180.0
  0
LINE
  5
38145
  8
0
 10
150.9334336902474
 20
318.2739930911066
 30
0.0
 11
152.9334336902474
 21
318.2739930911066
 31
0.0
  0
LINE
  5
38146
  8
0
 10
152.9334336902474
 20
168.7739930911066
 30
0.0
 11
150.9334336902474
 21
168.7739930911066
 31
0.0
  0
ARC
  5
38147
  8
0
 10
150.6834336902474
 20
168.7739930911066
 30
0.0
 40
0.2499999999999978
 50
270.0
 51
0.0
  0
ARC
  5
38148
  8
0
 10
150.6834336902474
 20
318.2739930911066
 30
0.0
 40
0.25
 50
0.0
 51
90.0
  0
LINE
  5
38149
  8
0
 10
145.4334336902474
 20
168.7739930911066
 30
0.0
 11
145.4334336902474
 21
318.2739930911066
 31
0.0
  0
LINE
  5
3814A
  8
0
 10
143.4334336902474
 20
168.7739930911066
 30
0.0
 11
143.4334336902474
 21
318.2739930911066
 31
0.0
  0
LINE
  5
3814B
  8
0
 10
136.0150145562591
 20
176.19778727334139
 30
0.0
 11
136.0150145562591
 21
310.85019890887179
 31
0.0
  0
LINE
  5
3814C
  8
0
 10
134.6816812229257
 20
177.7155713357551
 30
0.0
 11
134.6816812229257
 21
309.33241484645851
 31
0.0
  0
LINE
  5
3814D
  8
0
 10
133.34834788959239
 20
181.5878525059893
 30
0.0
 11
133.34834788959239
 21
305.4601336762239
 31
0.0
  0
LINE
  5
3814E
  8
0
 10
128.1834336902474
 20
198.94234961381011
 30
0.0
 11
128.1834336902474
 21
288.1056365684031
 31
0.0
  0
LINE
  5
3814F
  8
0
 10
168.1834336902474
 20
198.94234961381011
 30
0.0
 11
168.1834336902474
 21
288.1056365684031
 31
0.0
  0
LINE
  5
38150
  8
0
 10
163.01851949090229
 20
181.5878525059893
 30
0.0
 11
163.01851949090229
 21
305.4601336762239
 31
0.0
  0
LINE
  5
38151
  8
0
 10
161.68518615756909
 20
177.7155713357551
 30
0.0
 11
161.68518615756909
 21
309.33241484645851
 31
0.0
  0
LINE
  5
38152
  8
0
 10
160.35185282423569
 20
176.19778727334139
 30
0.0
 11
160.35185282423569
 21
310.85019890887179
 31
0.0
  0
LINE
  5
38153
  8
0
 10
152.9334336902474
 20
168.7739930911066
 30
0.0
 11
152.9334336902474
 21
318.2739930911066
 31
0.0
  0
LINE
  5
38154
  8
0
 10
150.9334336902474
 20
168.7739930911066
 30
0.0
 11
150.9334336902474
 21
318.2739930911066
 31
0.0
  0
LINE
  5
38155
  8
3
 10
113.1834336902474
 20
240.29099309110691
 30
0.0
 11
115.6834336902474
 21
240.29099309110691
 31
0.0
  0
LINE
  5
38156
  8
1
 10
189.95752613568641
 20
243.5239930911066
 30
0.0
 11
106.40934124480739
 21
243.5239930911066
 31
0.0
  0
LINE
  5
38157
  8
1
 10
148.18343369024689
 20
155.59404064850469
 30
0.0
 11
148.18343369024689
 21
363.21519004240417
 31
0.0
  0
LINE
  5
38218
  8
3
 10
688.78514249370085
 20
240.2909930911068
 30
0.0
 11
686.78514249370085
 21
240.29099309110691
 31
0.0
  0
LINE
  5
38219
  8
3
 10
688.78514249370085
 20
246.7569930911063
 30
0.0
 11
686.78514249370085
 21
246.7569930911063
 31
0.0
  0
LINE
  5
3821A
  8
3
 10
646.28514249370085
 20
240.29099309110691
 30
0.0
 11
643.78514249370085
 21
240.29099309110691
 31
0.0
  0
LINE
  5
3821B
  8
3
 10
646.28514249370085
 20
246.7569930911063
 30
0.0
 11
643.78514249370085
 21
246.7569930911063
 31
0.0
  0
LINE
  5
3821C
  8
3
 10
170.68343369024731
 20
240.2909930911068
 30
0.0
 11
168.1834336902474
 21
240.29099309110691
 31
0.0
  0
LINE
  5
3821D
  8
3
 10
170.68343369024731
 20
246.7569930911063
 30
0.0
 11
168.1834336902474
 21
246.7569930911063
 31
0.0
  0
LINE
  5
3821E
  8
3
 10
127.6834336902473
 20
240.2909930911068
 30
0.0
 11
125.6834336902474
 21
240.29099309110691
 31
0.0
  0
LINE
  5
3821F
  8
3
 10
127.6834336902473
 20
246.7569930911063
 30
0.0
 11
125.6834336902474
 21
246.7569930911063
 31
0.0
  0
TEXT
  5
3827B
  8
0
 62
     3
 10
0.0
 20
0.0
 30
0.0
 40
10.0
  1
CAE3-150PBL
  7
STANDARD1
  0
ENDSEC
  0
EOF
