  0
SECTION
  2
HEADER
  9
$ACADVER
  1
AC1009
  9
$INSBASE
 10
0.0
 20
0.0
 30
0.0
  9
$EXTMIN
 10
0.0
 20
-2.960436562073669
 30
0.0
  9
$EXTMAX
 10
710.12165233710448
 20
570.06445181024765
 30
0.0
  9
$LIMMIN
 10
0.0
 20
0.0
  9
$LIMMAX
 10
375.0
 20
270.0
  9
$ORTHOMODE
 70
     1
  9
$REGENMODE
 70
     1
  9
$FILLMODE
 70
     1
  9
$QTEXTMODE
 70
     0
  9
$MIRRTEXT
 70
     1
  9
$DRAGMODE
 70
     2
  9
$LTSCALE
 40
10.0
  9
$OSMODE
 70
  3071
  9
$ATTMODE
 70
     1
  9
$TEXTSIZE
 40
5.0
  9
$TRACEWID
 40
0.05
  9
$TEXTSTYLE
  7
STANDARD
  9
$CLAYER
  8
0
  9
$CELTYPE
  6
BYLAYER
  9
$CECOLOR
 62
     6
  9
$DIMSCALE
 40
2.0
  9
$DIMASZ
 40
3.0
  9
$DIMEXO
 40
2.0
  9
$DIMDLI
 40
0.38
  9
$DIMRND
 40
0.0
  9
$DIMDLE
 40
0.0
  9
$DIMEXE
 40
2.0
  9
$DIMTP
 40
0.0
  9
$DIMTM
 40
0.0
  9
$DIMTXT
 40
3.2000000000000002
  9
$DIMCEN
 40
0.0
  9
$DIMTSZ
 40
0.0
  9
$DIMTOL
 70
     0
  9
$DIMLIM
 70
     0
  9
$DIMTIH
 70
     0
  9
$DIMTOH
 70
     0
  9
$DIMSE1
 70
     0
  9
$DIMSE2
 70
     0
  9
$DIMTAD
 70
     1
  9
$DIMZIN
 70
     8
  9
$DIMBLK
  1

  9
$DIMASO
 70
     0
  9
$DIMSHO
 70
     0
  9
$DIMPOST
  1

  9
$DIMAPOST
  1

  9
$DIMALT
 70
     0
  9
$DIMALTD
 70
     2
  9
$DIMALTF
 40
25.399999999999999
  9
$DIMLFAC
 40
1.0
  9
$DIMTOFL
 70
     0
  9
$DIMTVP
 40
1.6000000000000001
  9
$DIMTIX
 70
     1
  9
$DIMSOXD
 70
     0
  9
$DIMSAH
 70
     0
  9
$DIMBLK1
  1

  9
$DIMBLK2
  1

  9
$DIMSTYLE
  2
STANDARD
  9
$DIMCLRD
 70
     0
  9
$DIMCLRE
 70
     0
  9
$DIMCLRT
 70
     0
  9
$DIMTFAC
 40
1.0
  9
$DIMGAP
 40
1.1999999999999991
  9
$LUNITS
 70
     2
  9
$LUPREC
 70
     4
  9
$SKETCHINC
 40
0.1
  9
$FILLETRAD
 40
0.0
  9
$AUNITS
 70
     0
  9
$AUPREC
 70
     4
  9
$MENU
  1
ACAD
  9
$ELEVATION
 40
0.0
  9
$PELEVATION
 40
0.0
  9
$THICKNESS
 40
0.0
  9
$LIMCHECK
 70
     0
  9
$BLIPMODE
 70
     0
  9
$CHAMFERA
 40
0.0
  9
$CHAMFERB
 40
0.0
  9
$SKPOLY
 70
     0
  9
$TDCREATE
 40
2448055.7149187499
  9
$TDUPDATE
 40
2456598.5594378589
  9
$TDINDWG
 40
3.5506471065
  9
$TDUSRTIMER
 40
3.5506471065
  9
$USRTIMER
 70
     1
  9
$ANGBASE
 50
0.0
  9
$ANGDIR
 70
     0
  9
$PDMODE
 70
     0
  9
$PDSIZE
 40
0.0
  9
$PLINEWID
 40
0.0
  9
$COORDS
 70
     1
  9
$SPLFRAME
 70
     0
  9
$SPLINETYPE
 70
     6
  9
$SPLINESEGS
 70
     8
  9
$ATTDIA
 70
     0
  9
$ATTREQ
 70
     1
  9
$HANDLING
 70
     1
  9
$HANDSEED
  5
3872C
  9
$SURFTAB1
 70
     6
  9
$SURFTAB2
 70
     6
  9
$SURFTYPE
 70
     6
  9
$SURFU
 70
     6
  9
$SURFV
 70
     6
  9
$UCSNAME
  2

  9
$UCSORG
 10
0.0
 20
0.0
 30
0.0
  9
$UCSXDIR
 10
1.0
 20
0.0
 30
0.0
  9
$UCSYDIR
 10
0.0
 20
1.0
 30
0.0
  9
$PUCSNAME
  2

  9
$PUCSORG
 10
0.0
 20
0.0
 30
0.0
  9
$PUCSXDIR
 10
1.0
 20
0.0
 30
0.0
  9
$PUCSYDIR
 10
0.0
 20
1.0
 30
0.0
  9
$USERI1
 70
     0
  9
$USERI2
 70
     0
  9
$USERI3
 70
     0
  9
$USERI4
 70
     0
  9
$USERI5
 70
     0
  9
$USERR1
 40
0.0
  9
$USERR2
 40
0.0
  9
$USERR3
 40
0.0
  9
$USERR4
 40
0.0
  9
$USERR5
 40
0.0
  9
$WORLDVIEW
 70
     1
  9
$SHADEDGE
 70
     3
  9
$SHADEDIF
 70
    70
  9
$TILEMODE
 70
     1
  9
$MAXACTVP
 70
    16
  9
$PLIMCHECK
 70
     0
  9
$PEXTMIN
 10
1.0000000000000000E+020
 20
1.0000000000000000E+020
 30
1.0000000000000000E+020
  9
$PEXTMAX
 10
-1.0000000000000000E+020
 20
-1.0000000000000000E+020
 30
-1.0000000000000000E+020
  9
$PLIMMIN
 10
0.0
 20
0.0
  9
$PLIMMAX
 10
12.0
 20
9.0
  9
$UNITMODE
 70
     0
  9
$VISRETAIN
 70
     0
  9
$PLINEGEN
 70
     1
  9
$PSLTSCALE
 70
     0
  0
ENDSEC
  0
SECTION
  2
TABLES
  0
TABLE
  2
VPORT
 70
     1
  0
VPORT
  2
*ACTIVE
 70
     0
 10
0.0
 20
0.0
 11
1.0
 21
1.0
 12
370.93961108265012
 22
283.5534833829127
 13
0.0
 23
0.0
 14
5.0
 24
5.0
 15
10.0
 25
10.0
 16
0.0
 26
0.0
 36
1.0
 17
0.0
 27
0.0
 37
0.0
 40
578.19625575555119
 41
1.831871345029239
 42
50.0
 43
0.0
 44
0.0
 50
0.0
 51
0.0
 71
     0
 72
   500
 73
     1
 74
     1
 75
     0
 76
     0
 77
     0
 78
     2
  0
ENDTAB
  0
TABLE
  2
LTYPE
 70
     4
  0
LTYPE
  2
CONTINUOUS
 70
     0
  3
実線
 72
    65
 73
     0
 40
0.0
  0
LTYPE
  2
CENTER
 70
     0
  3
____ _ ____ _ ____ _ ____ _ ____ _ ____ _ ____
 72
    65
 73
     4
 40
2.0
 49
1.25
 49
-0.25
 49
0.25
 49
-0.25
  0
LTYPE
  2
HIDDEN
 70
     0
  3
_ _ _ _ _ _ _ _ _ _ _ _ _ _ _ _ _ _ _ _ _ _ _
 72
    65
 73
     2
 40
0.375
 49
0.25
 49
-0.125
  0
LTYPE
  2
PHANTOM2
 70
     0
  3
___ _ _ ___ _ _ ___ _ _ ___ _ _
 72
    65
 73
     6
 40
1.25
 49
0.625
 49
-0.125
 49
0.125
 49
-0.125
 49
0.125
 49
-0.125
  0
ENDTAB
  0
TABLE
  2
LAYER
 70
     5
  0
LAYER
  2
0
 70
     0
 62
     7
  6
CONTINUOUS
  0
LAYER
  2
1
 70
     0
 62
     1
  6
CENTER
  0
LAYER
  2
2
 70
     0
 62
     2
  6
HIDDEN
  0
LAYER
  2
DEFPOINTS
 70
     0
 62
     7
  6
CONTINUOUS
  0
LAYER
  2
3
 70
     0
 62
     3
  6
CONTINUOUS
  0
ENDTAB
  0
TABLE
  2
STYLE
 70
     3
  0
STYLE
  2
STANDARD
 70
     0
 40
0.0
 41
1.0
 50
0.0
 71
     0
 42
5.0
  3
simplex.shx
  4
bigfont.shx
  0
STYLE
  2
07500
 70
     0
 40
0.0
 41
0.75
 50
0.0
 71
     0
 42
0.2
  3
simplex.shx
  4
bigfont.shx
  0
STYLE
  2
STANDARD1
 70
     0
 40
0.0
 41
1.0
 50
0.0
 71
     0
 42
3.0
  3
txt
  4

  0
ENDTAB
  0
TABLE
  2
VIEW
 70
     2
  0
VIEW
  2
ALL
 70
     0
 40
270.0
 10
220.99159663865549
 20
135.0
 41
0.0
 11
0.0
 21
0.0
 31
1.0
 12
0.0
 22
0.0
 32
0.0
 42
0.0
 43
0.0
 44
0.0
 50
0.0
 71
     0
  0
VIEW
  2
OLE1
 70
     0
 40
168.2487151179721
 10
2892.3009567448912
 20
702.51600084347126
 41
162.5749581879237
 11
0.0
 21
0.0
 31
1.0
 12
0.0
 22
0.0
 32
0.0
 42
50.0
 43
0.0
 44
0.0
 50
0.0
 71
     0
  0
ENDTAB
  0
TABLE
  2
UCS
 70
     0
  0
ENDTAB
  0
TABLE
  2
APPID
 70
    48
  0
APPID
  2
ACAD
 70
     0
  0
APPID
  2
DCO15
 70
     0
  0
APPID
  2
GENIUS_GENOREF_13
 70
     0
  0
APPID
  2
GENIUS_GENOENT_13
 70
     0
  0
APPID
  2
GENIUS_GENBH_13
 70
     0
  0
APPID
  2
GENIUS_GENOBJ_13
 70
     0
  0
APPID
  2
GENIUS_GENODEF_13
 70
     0
  0
APPID
  2
GENIUS_GENOLIS_13
 70
     0
  0
APPID
  2
GENIUS_GENOBJ-NBEHI-BHF_13
 70
     0
  0
APPID
  2
GENIUS_GENOBJ-NBEHI-BHB_13
 70
     0
  0
APPID
  2
GENIUS_GENOBJ-F-PART_13
 70
     0
  0
APPID
  2
GENIUS_GEFSTDP_13
 70
     0
  0
APPID
  2
GENIUS_GENOBJ-N-RSSYM_13
 70
     0
  0
APPID
  2
GENIUS_GENSYMENT_13
 70
     0
  0
APPID
  2
GENIUS_GENOBJ-N-TIT_13
 70
     0
  0
APPID
  2
GENIUS_GENTITLE_13
 70
     0
  0
APPID
  2
GENIUS_GENZVEED_13
 70
     0
  0
APPID
  2
GENIUS_GENOBJ-N-LEADER_13
 70
     0
  0
APPID
  2
GENIUS_GENOBJ-N-FIL_13
 70
     0
  0
APPID
  2
GENIUS_GENOBJ-N-SEC_13
 70
     0
  0
APPID
  2
GENIUS_GENOBJ-N-CRS_13
 70
     0
  0
APPID
  2
GENIUS_GENOBJ-N-ZOO_13
 70
     0
  0
APPID
  2
GENIUS_GENZOO_13
 70
     0
  0
APPID
  2
GENIUS_GENOBJ-F-TOL_13
 70
     0
  0
APPID
  2
GENIUS_GENFIL_13
 70
     0
  0
APPID
  2
GENIUS_GENOBJ-N-CHA_13
 70
     0
  0
APPID
  2
_CALL_MAC$
 70
     0
  0
APPID
  2
ASM_BASE
 70
     0
  0
APPID
  2
ASM_EXPLO_VER_2_00
 70
     0
  0
APPID
  2
ASM_CADM_VER_12_00
 70
     0
  0
APPID
  2
ASM_BASEFORO
 70
     0
  0
APPID
  2
ASM_BASETRAVI
 70
     0
  0
APPID
  2
ASM_BASETRAVI1
 70
     0
  0
APPID
  2
ASM_GRUPPI
 70
     0
  0
APPID
  2
ASM_CADM_ALBERO
 70
     0
  0
APPID
  2
ASM_GOLE
 70
     0
  0
APPID
  2
ACAD_MLEADERVER
 70
     0
  0
APPID
  2
ACAD_DSTYLE_DIMJAG
 70
     0
  0
APPID
  2
ACAD_DSTYLE_DIMTALN
 70
     0
  0
APPID
  2
ACAD_EXEMPT_FROM_CAD_STANDARDS
 70
     0
  0
APPID
  2
ACAD_DSTYLE_DIMRADIAL_EXTENSION
 70
     0
  0
APPID
  2
ACAD_PSEXT
 70
     0
  0
APPID
  2
ACAD_DSTYLE_DIMBREAK
 70
     0
  0
APPID
  2
ACAECLAYERSTANDARD
 70
     0
  0
APPID
  2
ACCMTRANSPARENCY
 70
     0
  0
APPID
  2
GRADIENTCOLOR1ACI
 70
     0
  0
APPID
  2
GRADIENTCOLOR2ACI
 70
     0
  0
APPID
  2
ACAD_NAV_VCDISPLAY
 70
     0
  0
ENDTAB
  0
TABLE
  2
DIMSTYLE
 70
     1
  0
DIMSTYLE
  2
STANDARD
 70
     0
  3

  4

  5

  6

  7

 40
1.0
 41
0.18
 42
0.0625
 43
0.38
 44
0.18
 45
0.0
 46
0.0
 47
0.0
 48
0.0
140
0.18
141
0.09
142
0.0
143
25.399999999999999
144
1.0
145
0.0
146
1.0
147
0.09
 71
     0
 72
     0
 73
     1
 74
     1
 75
     0
 76
     0
 77
     0
 78
     0
170
     0
171
     2
172
     0
173
     0
174
     0
175
     0
176
     0
177
     0
178
     0
  0
ENDTAB
  0
ENDSEC
  0
SECTION
  2
BLOCKS
  0
BLOCK
  8
0
  2
$MODEL_SPACE
 70
     0
 10
0.0
 20
0.0
 30
0.0
  3
$MODEL_SPACE
  1

  0
ENDBLK
  5
36
  8
0
  0
BLOCK
 67
     1
  8
0
  2
$PAPER_SPACE
 70
     0
 10
0.0
 20
0.0
 30
0.0
  3
$PAPER_SPACE
  1

  0
ENDBLK
  5
34
 67
     1
  8
0
  0
ENDSEC
  0
SECTION
  2
ENTITIES
  0
LINE
  5
2FE5C
  8
1
 10
444.23428809197412
 20
363.69499032171819
 30
0.0
 11
444.23428809197412
 21
295.2306209200492
 31
0.0
  0
LINE
  5
2FE5D
  8
0
 10
479.03428809197379
 20
347.22399309110688
 30
0.0
 11
479.03428809197379
 21
348.023993091107
 31
0.0
  0
LINE
  5
2FE5E
  8
0
 10
409.43428809197388
 20
348.023993091107
 30
0.0
 11
409.43428809197388
 21
347.22399309110688
 31
0.0
  0
LINE
  5
2FE5F
  8
0
 10
478.7355087559522
 20
338.72399309110688
 30
0.0
 11
480.23428809197412
 21
347.22399309110688
 31
0.0
  0
LINE
  5
2FE60
  8
0
 10
408.23428809197412
 20
347.22399309110688
 30
0.0
 11
409.73306742799599
 21
338.72399309110688
 31
0.0
  0
LINE
  5
2FE61
  8
0
 10
477.23428809197412
 20
333.02399309110712
 30
0.0
 11
477.23428809197412
 21
338.72399309110688
 31
0.0
  0
LINE
  5
2FE62
  8
0
 10
411.23428809197412
 20
338.72399309110688
 30
0.0
 11
411.23428809197412
 21
336.72399309110688
 31
0.0
  0
LINE
  5
2FE63
  8
0
 10
494.23428809197412
 20
350.523993091107
 30
0.0
 11
494.23428809197412
 21
348.023993091107
 31
0.0
  0
LINE
  5
2FE65
  8
0
 10
394.23428809197412
 20
350.523993091107
 30
0.0
 11
394.23428809197412
 21
348.023993091107
 31
0.0
  0
LINE
  5
2FE66
  8
0
 10
394.23428809197412
 20
350.523993091107
 30
0.0
 11
494.23428809197412
 21
350.523993091107
 31
0.0
  0
LINE
  5
2FE68
  8
0
 10
394.23428809197412
 20
348.023993091107
 30
0.0
 11
494.23428809197412
 21
348.023993091107
 31
0.0
  0
LINE
  5
2FE69
  8
0
 10
408.23428809197412
 20
347.22399309110688
 30
0.0
 11
480.23428809197412
 21
347.22399309110688
 31
0.0
  0
LINE
  5
2FE6A
  8
0
 10
409.73306742799599
 20
338.72399309110688
 30
0.0
 11
478.7355087559522
 21
338.72399309110688
 31
0.0
  0
LINE
  5
2FE6B
  8
0
 10
422.69362886343612
 20
336.72399309110688
 30
0.0
 11
399.23428809197412
 21
336.72399309110688
 31
0.0
  0
LINE
  5
2FE6C
  8
0
 10
422.69362886343612
 20
336.72399309110688
 30
0.0
 11
422.69362886343612
 21
242.0236922922854
 31
0.0
  0
LINE
  5
2FE6D
  8
0
 10
399.23428809197412
 20
336.72399309110688
 30
0.0
 11
399.23428809197412
 21
333.02399309110712
 31
0.0
  0
ARC
  5
2FE6E
  8
0
 10
411.93428809197388
 20
243.52399309110709
 30
0.0
 40
10.0
 50
270.0
 51
329.06380721468241
  0
LINE
  5
2FE6F
  8
0
 10
402.53428809197379
 20
233.523993091107
 30
0.0
 11
411.93428809197388
 21
233.523993091107
 31
0.0
  0
LINE
  5
2FE70
  8
0
 10
399.23428809197412
 20
333.02399309110712
 30
0.0
 11
392.56242574703629
 21
244.27363392084681
 31
0.0
  0
LINE
  5
2FE71
  8
0
 10
420.51169148331422
 20
238.38316134301201
 30
0.0
 11
477.23428809197412
 21
333.02399309110712
 31
0.0
  0
ARC
  5
2FE72
  8
0
 10
402.53428809197379
 20
243.52399309110709
 30
0.0
 40
10.0
 50
175.70084139889511
 51
270.0
  0
LINE
  5
2FE73
  8
0
 10
395.26760908876491
 20
336.52399309110712
 30
0.0
 11
346.75094859036932
 21
323.52399309110712
 31
0.0
  0
LINE
  5
2FE74
  8
0
 10
399.23428809197412
 20
336.52399309110712
 30
0.0
 11
395.26760908876491
 21
336.52399309110712
 31
0.0
  0
LINE
  5
2FE75
  8
0
 10
350.23428809197412
 20
310.523993091107
 30
0.0
 11
397.54283687797812
 21
310.523993091107
 31
0.0
  0
LINE
  5
2FE76
  8
0
 10
346.75094859036972
 20
323.52399309110712
 30
0.0
 11
350.23428809197412
 21
310.523993091107
 31
0.0
  0
LINE
  5
2FE92
  8
0
 10
640.68514249370128
 20
237.708993091107
 30
0.0
 11
641.28514249370107
 21
237.708993091107
 31
0.0
  0
LINE
  5
2FE93
  8
0
 10
700.51814249370091
 20
247.52399309110709
 30
0.0
 11
699.28514249370107
 21
247.52399309110709
 31
0.0
  0
LINE
  5
2FE94
  8
0
 10
699.28514249370107
 20
239.52399309110709
 30
0.0
 11
700.51814249370091
 21
239.52399309110709
 31
0.0
  0
LINE
  5
2FE95
  8
0
 10
701.28514249370119
 20
246.7569930911072
 30
0.0
 11
700.51814249370091
 21
247.52399309110709
 31
0.0
  0
LINE
  5
2FE96
  8
0
 10
700.51814249370091
 20
239.52399309110709
 30
0.0
 11
701.28514249370119
 21
240.29099309110691
 31
0.0
  0
LINE
  5
2FE97
  8
0
 10
688.78514249370119
 20
247.52399309110709
 30
0.0
 11
686.28514249370107
 21
247.52399309110709
 31
0.0
  0
LINE
  5
2FE98
  8
0
 10
686.28514249370107
 20
239.52399309110709
 30
0.0
 11
688.78514249370119
 21
239.52399309110709
 31
0.0
  0
LINE
  5
2FE99
  8
0
 10
699.28514249370107
 20
249.33899309110711
 30
0.0
 11
696.78514249370119
 21
249.33899309110711
 31
0.0
  0
LINE
  5
2FE9A
  8
0
 10
696.78514249370119
 20
237.708993091107
 30
0.0
 11
699.28514249370107
 21
237.708993091107
 31
0.0
  0
LINE
  5
2FE9B
  8
0
 10
646.28514249370119
 20
247.52399309110709
 30
0.0
 11
643.78514249370119
 21
247.52399309110709
 31
0.0
  0
LINE
  5
2FE9C
  8
0
 10
643.78514249370119
 20
239.52399309110709
 30
0.0
 11
646.28514249370119
 21
239.52399309110709
 31
0.0
  0
LINE
  5
2FE9D
  8
0
 10
700.51814249370091
 20
239.52399309110709
 30
0.0
 11
700.51814249370091
 21
247.52399309110709
 31
0.0
  0
LINE
  5
2FE9E
  8
0
 10
701.28514249370119
 20
240.29099309110691
 30
0.0
 11
701.28514249370119
 21
246.7569930911072
 31
0.0
  0
LINE
  5
2FE9F
  8
0
 10
635.98514249370089
 20
237.26565975777379
 30
0.0
 11
635.98514249370089
 21
249.7823264244403
 31
0.0
  0
LINE
  5
2FEA0
  8
0
 10
640.68514249370128
 20
237.26565975777379
 30
0.0
 11
640.68514249370128
 21
243.2018002718751
 31
0.0
  0
LINE
  5
2FEA1
  8
0
 10
635.98514249370089
 20
237.26565975777379
 30
0.0
 11
640.68514249370128
 21
237.26565975777379
 31
0.0
  0
LINE
  5
2FEA2
  8
0
 10
640.45064053536134
 20
243.68834361531441
 30
0.0
 11
640.42572278428543
 21
243.52399309110709
 31
0.0
  0
POLYLINE
  5
2FEA3
  8
0
 66
     1
 10
0.0
 20
0.0
 30
0.0
  0
VERTEX
  5
3846E
  8
0
 10
636.2445622031164
 20
243.52399309110709
 30
0.0
  0
VERTEX
  5
3846F
  8
0
 10
636.16371754985857
 20
244.0861715692217
 30
0.0
  0
VERTEX
  5
38470
  8
0
 10
636.04910721110525
 20
245.14196146194581
 30
0.0
  0
VERTEX
  5
38471
  8
0
 10
635.99233262732105
 20
246.1507220058584
 30
0.0
  0
VERTEX
  5
38472
  8
0
 10
635.98514249370089
 20
246.65315975777369
 30
0.0
  0
SEQEND
  5
38473
  8
0
  0
POLYLINE
  5
2FEA4
  8
0
 66
     1
 10
0.0
 20
0.0
 30
0.0
  0
VERTEX
  5
38474
  8
0
 10
635.98514249370089
 20
246.65315975777369
 30
0.0
  0
VERTEX
  5
38475
  8
0
 10
635.99233262732105
 20
247.15559750968939
 30
0.0
  0
VERTEX
  5
38476
  8
0
 10
636.04910721110525
 20
248.16435805360149
 30
0.0
  0
VERTEX
  5
38477
  8
0
 10
636.16371754985857
 20
249.2201479463256
 30
0.0
  0
VERTEX
  5
38478
  8
0
 10
636.2445622031164
 20
249.7823264244403
 30
0.0
  0
SEQEND
  5
38479
  8
0
  0
POLYLINE
  5
2FEA5
  8
0
 66
     1
 10
0.0
 20
0.0
 30
0.0
  0
VERTEX
  5
3847A
  8
0
 10
640.68514249370128
 20
240.39482642444051
 30
0.0
  0
VERTEX
  5
3847B
  8
0
 10
640.67795236008124
 20
239.8923886725247
 30
0.0
  0
VERTEX
  5
3847C
  8
0
 10
640.62117777629692
 20
238.8836281286126
 30
0.0
  0
VERTEX
  5
3847D
  8
0
 10
640.50656743754359
 20
237.82783823588849
 30
0.0
  0
VERTEX
  5
3847E
  8
0
 10
640.42572278428543
 20
237.26565975777379
 30
0.0
  0
SEQEND
  5
3847F
  8
0
  0
POLYLINE
  5
2FEA6
  8
0
 66
     1
 10
0.0
 20
0.0
 30
0.0
  0
VERTEX
  5
38480
  8
0
 10
636.2445622031164
 20
237.26565975777379
 30
0.0
  0
VERTEX
  5
38481
  8
0
 10
636.16371754985857
 20
237.82783823588849
 30
0.0
  0
VERTEX
  5
38482
  8
0
 10
636.04910721110525
 20
238.8836281286126
 30
0.0
  0
VERTEX
  5
38483
  8
0
 10
635.99233262732105
 20
239.8923886725247
 30
0.0
  0
VERTEX
  5
38484
  8
0
 10
635.98514249370089
 20
240.39482642444051
 30
0.0
  0
SEQEND
  5
38485
  8
0
  0
POLYLINE
  5
2FEA7
  8
0
 66
     1
 10
0.0
 20
0.0
 30
0.0
  0
VERTEX
  5
38486
  8
0
 10
635.98514249370089
 20
240.39482642444051
 30
0.0
  0
VERTEX
  5
38487
  8
0
 10
635.99233262732105
 20
240.8972641763558
 30
0.0
  0
VERTEX
  5
38488
  8
0
 10
636.04910721110525
 20
241.90602472026831
 30
0.0
  0
VERTEX
  5
38489
  8
0
 10
636.16371754985857
 20
242.96181461299241
 30
0.0
  0
VERTEX
  5
3848A
  8
0
 10
636.2445622031164
 20
243.52399309110709
 30
0.0
  0
SEQEND
  5
3848B
  8
0
  0
LINE
  5
2FEA8
  8
0
 10
636.2445622031164
 20
243.52399309110709
 30
0.0
 11
640.42572278428543
 21
243.52399309110709
 31
0.0
  0
POLYLINE
  5
2FEA9
  8
0
 66
     1
 10
0.0
 20
0.0
 30
0.0
  0
VERTEX
  5
3848C
  8
0
 10
640.42572278428543
 20
243.52399309110709
 30
0.0
  0
VERTEX
  5
3848D
  8
0
 10
640.50656743754359
 20
242.96181461299241
 30
0.0
  0
VERTEX
  5
3848E
  8
0
 10
640.62117777629692
 20
241.90602472026831
 30
0.0
  0
VERTEX
  5
3848F
  8
0
 10
640.67795236008124
 20
240.8972641763558
 30
0.0
  0
VERTEX
  5
38490
  8
0
 10
640.68514249370128
 20
240.39482642444051
 30
0.0
  0
SEQEND
  5
38491
  8
0
  0
LINE
  5
2FEAA
  8
0
 10
635.98514249370089
 20
249.7823264244403
 30
0.0
 11
637.94157054983179
 21
249.7823264244403
 31
0.0
  0
LINE
  5
2FEAB
  8
0
 10
699.28514249370107
 20
237.708993091107
 30
0.0
 11
699.28514249370107
 21
249.33899309110711
 31
0.0
  0
LINE
  5
2FEAC
  8
0
 10
696.78514249370119
 20
237.26565975777379
 30
0.0
 11
696.78514249370119
 21
249.7823264244403
 31
0.0
  0
LINE
  5
2FEAD
  8
0
 10
691.28514249370107
 20
237.26565975777379
 30
0.0
 11
696.78514249370119
 21
237.26565975777379
 31
0.0
  0
POLYLINE
  5
2FEAE
  8
0
 66
     1
 10
0.0
 20
0.0
 30
0.0
  0
VERTEX
  5
38492
  8
0
 10
696.78514249370119
 20
246.65315975777369
 30
0.0
  0
VERTEX
  5
38493
  8
0
 10
696.77795236008114
 20
246.1507220058584
 30
0.0
  0
VERTEX
  5
38494
  8
0
 10
696.72117777629683
 20
245.14196146194581
 30
0.0
  0
VERTEX
  5
38495
  8
0
 10
696.6065674375435
 20
244.0861715692217
 30
0.0
  0
VERTEX
  5
38496
  8
0
 10
696.52572278428534
 20
243.52399309110709
 30
0.0
  0
SEQEND
  5
38497
  8
0
  0
POLYLINE
  5
2FEAF
  8
0
 66
     1
 10
0.0
 20
0.0
 30
0.0
  0
VERTEX
  5
38498
  8
0
 10
696.52572278428534
 20
249.7823264244403
 30
0.0
  0
VERTEX
  5
38499
  8
0
 10
696.6065674375435
 20
249.2201479463256
 30
0.0
  0
VERTEX
  5
3849A
  8
0
 10
696.72117777629683
 20
248.16435805360149
 30
0.0
  0
VERTEX
  5
3849B
  8
0
 10
696.77795236008114
 20
247.15559750968939
 30
0.0
  0
VERTEX
  5
3849C
  8
0
 10
696.78514249370119
 20
246.65315975777369
 30
0.0
  0
SEQEND
  5
3849D
  8
0
  0
POLYLINE
  5
2FEB0
  8
0
 66
     1
 10
0.0
 20
0.0
 30
0.0
  0
VERTEX
  5
3849E
  8
0
 10
696.78514249370119
 20
240.39482642444051
 30
0.0
  0
VERTEX
  5
3849F
  8
0
 10
696.77795236008114
 20
239.8923886725247
 30
0.0
  0
VERTEX
  5
384A0
  8
0
 10
696.72117777629683
 20
238.8836281286126
 30
0.0
  0
VERTEX
  5
384A1
  8
0
 10
696.6065674375435
 20
237.82783823588849
 30
0.0
  0
VERTEX
  5
384A2
  8
0
 10
696.52572278428534
 20
237.26565975777379
 30
0.0
  0
SEQEND
  5
384A3
  8
0
  0
POLYLINE
  5
2FEB1
  8
0
 66
     1
 10
0.0
 20
0.0
 30
0.0
  0
VERTEX
  5
384A4
  8
0
 10
691.54456220311658
 20
237.26565975777379
 30
0.0
  0
VERTEX
  5
384A5
  8
0
 10
691.46371754985955
 20
237.82783823587761
 30
0.0
  0
VERTEX
  5
384A6
  8
0
 10
691.34910721110782
 20
238.88362812858119
 30
0.0
  0
VERTEX
  5
384A7
  8
0
 10
691.29233262732259
 20
239.8923886724742
 30
0.0
  0
VERTEX
  5
384A8
  8
0
 10
691.28514249370107
 20
240.39482642437909
 30
0.0
  0
SEQEND
  5
384A9
  8
0
  0
POLYLINE
  5
2FEB2
  8
0
 66
     1
 10
0.0
 20
0.0
 30
0.0
  0
VERTEX
  5
384AA
  8
0
 10
691.28514249370107
 20
240.39482642444051
 30
0.0
  0
VERTEX
  5
384AB
  8
0
 10
691.28768754234568
 20
240.6935445062941
 30
0.0
  0
VERTEX
  5
384AC
  8
0
 10
691.30779837014961
 20
241.28875151756671
 30
0.0
  0
VERTEX
  5
384AD
  8
0
 10
691.34776028502574
 20
241.88973451391351
 30
0.0
  0
VERTEX
  5
384AE
  8
0
 10
691.37528352473328
 20
242.1956419673952
 30
0.0
  0
SEQEND
  5
384AF
  8
0
  0
LINE
  5
2FEB3
  8
0
 10
692.02256735416529
 20
243.52399309110709
 30
0.0
 11
696.52572278428534
 21
243.52399309110709
 31
0.0
  0
POLYLINE
  5
2FEB4
  8
0
 66
     1
 10
0.0
 20
0.0
 30
0.0
  0
VERTEX
  5
384B0
  8
0
 10
696.52572278428534
 20
243.52399309110709
 30
0.0
  0
VERTEX
  5
384B1
  8
0
 10
696.6065674375435
 20
242.96181461299241
 30
0.0
  0
VERTEX
  5
384B2
  8
0
 10
696.72117777629683
 20
241.90602472026831
 30
0.0
  0
VERTEX
  5
384B3
  8
0
 10
696.77795236008114
 20
240.8972641763558
 30
0.0
  0
VERTEX
  5
384B4
  8
0
 10
696.78514249370119
 20
240.39482642444051
 30
0.0
  0
SEQEND
  5
384B5
  8
0
  0
LINE
  5
2FEB5
  8
0
 10
696.78514249370119
 20
249.7823264244403
 30
0.0
 11
694.62871443757012
 21
249.7823264244403
 31
0.0
  0
LINE
  5
2FEBC
  8
0
 10
701.0851424937008
 20
347.22399309110688
 30
0.0
 11
701.0851424937008
 21
348.023993091107
 31
0.0
  0
LINE
  5
2FEBD
  8
0
 10
631.48514249370101
 20
348.023993091107
 30
0.0
 11
631.48514249370101
 21
347.22399309110688
 31
0.0
  0
LINE
  5
2FEBE
  8
0
 10
700.78636315767926
 20
338.72399309110688
 30
0.0
 11
702.28514249370107
 21
347.22399309110688
 31
0.0
  0
LINE
  5
2FEBF
  8
0
 10
630.28514249370119
 20
347.22399309110688
 30
0.0
 11
631.78392182972311
 21
338.72399309110688
 31
0.0
  0
LINE
  5
2FEC0
  8
0
 10
699.28514249370107
 20
277.96397055309899
 30
0.0
 11
699.28514249370107
 21
338.72399309110688
 31
0.0
  0
LINE
  5
2FEC1
  8
0
 10
633.28514249370107
 20
338.72399309110688
 30
0.0
 11
633.28514249370107
 21
277.96397055309899
 31
0.0
  0
LINE
  5
2FEC2
  8
0
 10
708.78514249370119
 20
350.523993091107
 30
0.0
 11
708.78514249370119
 21
348.023993091107
 31
0.0
  0
LINE
  5
2FEC4
  8
0
 10
623.78514249370107
 20
350.523993091107
 30
0.0
 11
708.78514249370119
 21
350.523993091107
 31
0.0
  0
LINE
  5
2FEC6
  8
0
 10
623.78514249370107
 20
348.023993091107
 30
0.0
 11
708.78514249370119
 21
348.023993091107
 31
0.0
  0
LINE
  5
2FEC7
  8
0
 10
623.78514249370107
 20
350.523993091107
 30
0.0
 11
623.78514249370107
 21
348.023993091107
 31
0.0
  0
LINE
  5
2FEC8
  8
0
 10
630.28514249370119
 20
347.22399309110688
 30
0.0
 11
702.28514249370107
 21
347.22399309110688
 31
0.0
  0
LINE
  5
2FEC9
  8
0
 10
631.78392182972311
 20
338.72399309110688
 30
0.0
 11
700.78636315767926
 21
338.72399309110688
 31
0.0
  0
LINE
  5
2FECA
  8
0
 10
641.28514249370107
 20
233.523993091107
 30
0.0
 11
641.28514249370107
 21
242.0236922922854
 31
0.0
  0
LINE
  5
2FECB
  8
0
 10
641.28514249370107
 20
233.523993091107
 30
0.0
 11
643.78514249370119
 21
233.523993091107
 31
0.0
  0
POLYLINE
  5
2FECD
  8
0
 66
     1
 10
0.0
 20
0.0
 30
0.0
  0
VERTEX
  5
384B6
  8
0
 10
641.28514249370107
 20
242.0236922922854
 30
0.0
  0
VERTEX
  5
384B7
  8
0
 10
640.86449783010403
 20
242.85470443649959
 30
0.0
  0
VERTEX
  5
384B8
  8
0
 10
640.05313192064796
 20
244.55750585545451
 30
0.0
  0
VERTEX
  5
384B9
  8
0
 10
639.28271280230183
 20
246.3124530116898
 30
0.0
  0
VERTEX
  5
384BA
  8
0
 10
638.91323664596393
 20
247.20862824840239
 30
0.0
  0
VERTEX
  5
384BB
  8
0
 10
638.55444305885567
 20
248.11680652484441
 30
0.0
  0
VERTEX
  5
384BC
  8
0
 10
637.86945948113953
 20
249.9677498938272
 30
0.0
  0
VERTEX
  5
384BD
  8
0
 10
637.22883129255024
 20
251.8623938932287
 30
0.0
  0
VERTEX
  5
384BE
  8
0
 10
636.63355848005222
 20
253.7977810832503
 30
0.0
  0
VERTEX
  5
384BF
  8
0
 10
636.084570233249
 20
255.77089042611169
 30
0.0
  0
VERTEX
  5
384C0
  8
0
 10
635.58272349396736
 20
257.77864200173372
 30
0.0
  0
VERTEX
  5
384C1
  8
0
 10
635.34972589718507
 20
258.79453123253052
 30
0.0
  0
VERTEX
  5
384C2
  8
0
 10
635.12880161861722
 20
259.81790181532961
 30
0.0
  0
VERTEX
  5
384C3
  8
0
 10
634.72351315541027
 20
261.88548668940848
 30
0.0
  0
VERTEX
  5
384C4
  8
0
 10
634.36749073835699
 20
263.97816923254692
 30
0.0
  0
VERTEX
  5
384C5
  8
0
 10
634.06129009975655
 20
266.09268287717759
 30
0.0
  0
VERTEX
  5
384C6
  8
0
 10
633.80538920272727
 20
268.22572697853087
 30
0.0
  0
VERTEX
  5
384C7
  8
0
 10
633.60018749513301
 20
270.37397196676699
 30
0.0
  0
VERTEX
  5
384C8
  8
0
 10
633.51670203984304
 20
271.4527476719154
 30
0.0
  0
VERTEX
  5
384C9
  8
0
 10
633.44600528606452
 20
272.53406454425891
 30
0.0
  0
VERTEX
  5
384CA
  8
0
 10
633.3430832458539
 20
274.7026329199166
 30
0.0
  0
VERTEX
  5
384CB
  8
0
 10
633.29158203040242
 20
276.87629207237251
 30
0.0
  0
VERTEX
  5
384CC
  8
0
 10
633.28514249370107
 20
277.96397055309899
 30
0.0
  0
SEQEND
  5
384CD
  8
0
  0
POLYLINE
  5
2FECE
  8
0
 66
     1
 10
0.0
 20
0.0
 30
0.0
  0
VERTEX
  5
384CE
  8
0
 10
633.28514249370107
 20
277.96397055309899
 30
0.0
  0
VERTEX
  5
384CF
  8
0
 10
633.28863284010629
 20
278.76475788558582
 30
0.0
  0
VERTEX
  5
384D0
  8
0
 10
633.31655118149945
 20
280.36565500452849
 30
0.0
  0
VERTEX
  5
384D1
  8
0
 10
633.37236424258197
 20
281.96452005865189
 30
0.0
  0
VERTEX
  5
384D2
  8
0
 10
633.4107174566733
 20
282.76276771310171
 30
0.0
  0
VERTEX
  5
384D3
  8
0
 10
633.45602479993204
 20
283.56000024849618
 30
0.0
  0
VERTEX
  5
384D4
  8
0
 10
633.56746206836533
 20
285.15074563853523
 30
0.0
  0
VERTEX
  5
384D5
  8
0
 10
633.7065817608277
 20
286.73541029935632
 30
0.0
  0
VERTEX
  5
384D6
  8
0
 10
633.87326616817006
 20
288.31265344644999
 30
0.0
  0
VERTEX
  5
384D7
  8
0
 10
634.06737425874326
 20
289.88114057464873
 30
0.0
  0
VERTEX
  5
384D8
  8
0
 10
634.28874179772299
 20
291.43954458725148
 30
0.0
  0
VERTEX
  5
384D9
  8
0
 10
634.40959022616198
 20
292.2145530097095
 30
0.0
  0
VERTEX
  5
384DA
  8
0
 10
634.53718148607174
 20
292.98654691887941
 30
0.0
  0
VERTEX
  5
384DB
  8
0
 10
634.81248311900924
 20
294.52083865111399
 30
0.0
  0
VERTEX
  5
384DC
  8
0
 10
635.11441376387017
 20
296.04112161997273
 30
0.0
  0
VERTEX
  5
384DD
  8
0
 10
635.4427179571843
 20
297.54610951428589
 30
0.0
  0
VERTEX
  5
384DE
  8
0
 10
635.79711792082844
 20
299.0345289640432
 30
0.0
  0
VERTEX
  5
384DF
  8
0
 10
636.17731379705174
 20
300.50512061779273
 30
0.0
  0
VERTEX
  5
384E0
  8
0
 10
636.37698552149175
 20
301.23334156951569
 30
0.0
  0
VERTEX
  5
384E1
  8
0
 10
636.58298390218488
 20
301.95664020817873
 30
0.0
  0
VERTEX
  5
384E2
  8
0
 10
637.01378499881946
 20
303.38785960471392
 30
0.0
  0
VERTEX
  5
384E3
  8
0
 10
637.46935258621852
 20
304.79756785290238
 30
0.0
  0
VERTEX
  5
384E4
  8
0
 10
637.70630416881465
 20
305.49398182210331
 30
0.0
  0
VERTEX
  5
384E5
  8
0
 10
637.94930120872095
 20
306.18457219882657
 30
0.0
  0
VERTEX
  5
384E6
  8
0
 10
638.45322478187563
 20
307.54769909833789
 30
0.0
  0
VERTEX
  5
384E7
  8
0
 10
638.98069693603111
 20
308.8857952099911
 30
0.0
  0
VERTEX
  5
384E8
  8
0
 10
639.25312503216446
 20
309.54510206585792
 30
0.0
  0
VERTEX
  5
384E9
  8
0
 10
639.53127137708407
 20
310.19772837088522
 30
0.0
  0
VERTEX
  5
384EA
  8
0
 10
640.10448226409005
 20
311.48238855458931
 30
0.0
  0
VERTEX
  5
384EB
  8
0
 10
640.69984460341254
 20
312.73868881033241
 30
0.0
  0
VERTEX
  5
384EC
  8
0
 10
641.31685465907356
 20
313.9655661826755
 30
0.0
  0
VERTEX
  5
384ED
  8
0
 10
641.95499037896695
 20
315.16198261087499
 30
0.0
  0
VERTEX
  5
384EE
  8
0
 10
642.61371183656445
 20
316.32692580718731
 30
0.0
  0
VERTEX
  5
384EF
  8
0
 10
642.95061871454482
 20
316.89728586200857
 30
0.0
  0
VERTEX
  5
384F0
  8
0
 10
643.29246168774944
 20
317.45941011336657
 30
0.0
  0
VERTEX
  5
384F1
  8
0
 10
643.9906656423841
 20
318.55847733462679
 30
0.0
  0
VERTEX
  5
384F2
  8
0
 10
644.70773295021763
 20
319.62319755037328
 30
0.0
  0
VERTEX
  5
384F3
  8
0
 10
645.4430569007186
 20
320.65266990100599
 30
0.0
  0
VERTEX
  5
384F4
  8
0
 10
646.19601533641344
 20
321.64602335013842
 30
0.0
  0
VERTEX
  5
384F5
  8
0
 10
646.96597117929275
 20
322.60241742158092
 30
0.0
  0
VERTEX
  5
384F6
  8
0
 10
647.35712009411645
 20
323.06650057370638
 30
0.0
  0
VERTEX
  5
384F7
  8
0
 10
647.75227296984565
 20
323.52104291046641
 30
0.0
  0
VERTEX
  5
384F8
  8
0
 10
648.55425541825571
 20
324.40112256791957
 30
0.0
  0
VERTEX
  5
384F9
  8
0
 10
649.37123996730543
 20
325.24191175868782
 30
0.0
  0
VERTEX
  5
384FA
  8
0
 10
650.20253536650205
 20
326.0426990911742
 30
0.0
  0
VERTEX
  5
384FB
  8
0
 10
651.04743825694504
 20
326.80280701934907
 30
0.0
  0
VERTEX
  5
384FC
  8
0
 10
651.90523376643739
 20
327.5215924160189
 30
0.0
  0
VERTEX
  5
384FD
  8
0
 10
652.33873985625814
 20
327.86529773370921
 30
0.0
  0
VERTEX
  5
384FE
  8
0
 10
652.77519611433979
 20
328.198447116978
 30
0.0
  0
VERTEX
  5
384FF
  8
0
 10
653.65658922565308
 20
328.8327984355746
 30
0.0
  0
VERTEX
  5
38500
  8
0
 10
654.54866735381017
 20
329.42410964726332
 30
0.0
  0
VERTEX
  5
38501
  8
0
 10
655.45067571165373
 20
329.97188044372388
 30
0.0
  0
VERTEX
  5
38502
  8
0
 10
656.36185111005989
 20
330.47564735617652
 30
0.0
  0
VERTEX
  5
38503
  8
0
 10
657.28142260367486
 20
330.93498414751912
 30
0.0
  0
VERTEX
  5
38504
  8
0
 10
657.7441140053179
 20
331.1478683186192
 30
0.0
  0
VERTEX
  5
38505
  8
0
 10
658.20861214320848
 20
331.34950217296819
 30
0.0
  0
VERTEX
  5
38506
  8
0
 10
659.14263523374348
 20
331.71885070888999
 30
0.0
  0
VERTEX
  5
38507
  8
0
 10
660.08270159849735
 20
332.0427172495493
 30
0.0
  0
VERTEX
  5
38508
  8
0
 10
661.02801584747294
 20
332.32082777151942
 30
0.0
  0
VERTEX
  5
38509
  8
0
 10
661.97777815043935
 20
332.55294696553352
 30
0.0
  0
VERTEX
  5
3850A
  8
0
 10
662.93118491366874
 20
332.73887843557901
 30
0.0
  0
VERTEX
  5
3850B
  8
0
 10
663.40900298302813
 20
332.81447308227462
 30
0.0
  0
VERTEX
  5
3850C
  8
0
 10
663.88742945985496
 20
332.87846486507078
 30
0.0
  0
VERTEX
  5
3850D
  8
0
 10
664.84570271064513
 20
332.97158814995282
 30
0.0
  0
VERTEX
  5
3850E
  8
0
 10
665.80519387119875
 20
333.01816949863002
 30
0.0
  0
VERTEX
  5
3850F
  8
0
 10
666.28514249370107
 20
333.02399309110712
 30
0.0
  0
VERTEX
  5
38510
  8
0
 10
666.76509111620317
 20
333.01816949863002
 30
0.0
  0
VERTEX
  5
38511
  8
0
 10
667.72458227675725
 20
332.97158814995282
 30
0.0
  0
VERTEX
  5
38512
  8
0
 10
668.68285552754742
 20
332.87846486507078
 30
0.0
  0
VERTEX
  5
38513
  8
0
 10
669.16128200437367
 20
332.81447308227462
 30
0.0
  0
VERTEX
  5
38514
  8
0
 10
669.63910007373352
 20
332.73887843557901
 30
0.0
  0
VERTEX
  5
38515
  8
0
 10
670.59250683696291
 20
332.55294696553352
 30
0.0
  0
VERTEX
  5
38516
  8
0
 10
671.54226913992943
 20
332.32082777151942
 30
0.0
  0
VERTEX
  5
38517
  8
0
 10
672.48758338890445
 20
332.0427172495493
 30
0.0
  0
VERTEX
  5
38518
  8
0
 10
673.42764975365844
 20
331.71885070888999
 30
0.0
  0
VERTEX
  5
38519
  8
0
 10
674.36167284419389
 20
331.34950217296819
 30
0.0
  0
VERTEX
  5
3851A
  8
0
 10
674.82617098208402
 20
331.1478683186192
 30
0.0
  0
VERTEX
  5
3851B
  8
0
 10
675.28886238372752
 20
330.93498414751912
 30
0.0
  0
VERTEX
  5
3851C
  8
0
 10
676.20843387734203
 20
330.47564735617652
 30
0.0
  0
VERTEX
  5
3851D
  8
0
 10
677.11960927574864
 20
329.97188044372388
 30
0.0
  0
VERTEX
  5
3851E
  8
0
 10
678.02161763359209
 20
329.42410964726332
 30
0.0
  0
VERTEX
  5
3851F
  8
0
 10
678.91369576174884
 20
328.8327984355746
 30
0.0
  0
VERTEX
  5
38520
  8
0
 10
679.7950888730619
 20
328.198447116978
 30
0.0
  0
VERTEX
  5
38521
  8
0
 10
680.23154513114423
 20
327.86529773370921
 30
0.0
  0
VERTEX
  5
38522
  8
0
 10
680.66505122096487
 20
327.5215924160189
 30
0.0
  0
VERTEX
  5
38523
  8
0
 10
681.52284673045733
 20
326.80280701934907
 30
0.0
  0
VERTEX
  5
38524
  8
0
 10
682.3677496209001
 20
326.04269909117471
 30
0.0
  0
VERTEX
  5
38525
  8
0
 10
683.19904502009638
 20
325.24191175868782
 30
0.0
  0
VERTEX
  5
38526
  8
0
 10
684.01602956914621
 20
324.40112256791957
 30
0.0
  0
VERTEX
  5
38527
  8
0
 10
684.81801201755616
 20
323.52104291046641
 30
0.0
  0
VERTEX
  5
38528
  8
0
 10
685.21316489328535
 20
323.06650057370638
 30
0.0
  0
VERTEX
  5
38529
  8
0
 10
685.60431380810905
 20
322.60241742158092
 30
0.0
  0
VERTEX
  5
3852A
  8
0
 10
686.37426965098894
 20
321.64602335013842
 30
0.0
  0
VERTEX
  5
3852B
  8
0
 10
687.12722808668332
 20
320.65266990100599
 30
0.0
  0
VERTEX
  5
3852C
  8
0
 10
687.86255203718417
 20
319.62319755037328
 30
0.0
  0
VERTEX
  5
3852D
  8
0
 10
688.57961934501782
 20
318.55847733462679
 30
0.0
  0
VERTEX
  5
3852E
  8
0
 10
689.27782329965248
 20
317.45941011336657
 30
0.0
  0
VERTEX
  5
3852F
  8
0
 10
689.6196662728571
 20
316.89728586200857
 30
0.0
  0
VERTEX
  5
38530
  8
0
 10
689.95657315083781
 20
316.32692580718731
 30
0.0
  0
VERTEX
  5
38531
  8
0
 10
690.61529460843531
 20
315.16198261087499
 30
0.0
  0
VERTEX
  5
38532
  8
0
 10
691.25343032832825
 20
313.9655661826755
 30
0.0
  0
VERTEX
  5
38533
  8
0
 10
691.87044038398926
 20
312.73868881033241
 30
0.0
  0
VERTEX
  5
38534
  8
0
 10
692.46580272331175
 20
311.48238855458931
 30
0.0
  0
VERTEX
  5
38535
  8
0
 10
693.03901361031819
 20
310.19772837088522
 30
0.0
  0
VERTEX
  5
38536
  8
0
 10
693.31715995523791
 20
309.54510206585792
 30
0.0
  0
VERTEX
  5
38537
  8
0
 10
693.58958805137081
 20
308.8857952099911
 30
0.0
  0
VERTEX
  5
38538
  8
0
 10
694.11706020552629
 20
307.54769909833789
 30
0.0
  0
VERTEX
  5
38539
  8
0
 10
694.62098377868142
 20
306.18457219882657
 30
0.0
  0
VERTEX
  5
3853A
  8
0
 10
694.86398081858761
 20
305.49398182210331
 30
0.0
  0
VERTEX
  5
3853B
  8
0
 10
695.1009324011834
 20
304.79756785290238
 30
0.0
  0
VERTEX
  5
3853C
  8
0
 10
695.55649998858235
 20
303.38785960471392
 30
0.0
  0
VERTEX
  5
3853D
  8
0
 10
695.98730108521704
 20
301.95664020817873
 30
0.0
  0
VERTEX
  5
3853E
  8
0
 10
696.19329946591051
 20
301.23334156951569
 30
0.0
  0
VERTEX
  5
3853F
  8
0
 10
696.39297119035064
 20
300.50512061779273
 30
0.0
  0
VERTEX
  5
38540
  8
0
 10
696.77316706657348
 20
299.0345289640432
 30
0.0
  0
VERTEX
  5
38541
  8
0
 10
697.12756703021739
 20
297.54610951428589
 30
0.0
  0
VERTEX
  5
38542
  8
0
 10
697.45587122353209
 20
296.04112161997273
 30
0.0
  0
VERTEX
  5
38543
  8
0
 10
697.75780186839245
 20
294.52083865111399
 30
0.0
  0
VERTEX
  5
38544
  8
0
 10
698.03310350133052
 20
292.98654691887941
 30
0.0
  0
VERTEX
  5
38545
  8
0
 10
698.16069476124028
 20
292.2145530097095
 30
0.0
  0
VERTEX
  5
38546
  8
0
 10
698.28154318967881
 20
291.43954458725148
 30
0.0
  0
VERTEX
  5
38547
  8
0
 10
698.50291072865855
 20
289.88114057464873
 30
0.0
  0
VERTEX
  5
38548
  8
0
 10
698.69701881923174
 20
288.31265344644999
 30
0.0
  0
VERTEX
  5
38549
  8
0
 10
698.86370322657422
 20
286.73541029935632
 30
0.0
  0
VERTEX
  5
3854A
  8
0
 10
699.00282291903704
 20
285.15074563853523
 30
0.0
  0
VERTEX
  5
3854B
  8
0
 10
699.11426018747034
 20
283.56000024849618
 30
0.0
  0
VERTEX
  5
3854C
  8
0
 10
699.1595675307284
 20
282.76276771310171
 30
0.0
  0
VERTEX
  5
3854D
  8
0
 10
699.19792074481984
 20
281.96452005865189
 30
0.0
  0
VERTEX
  5
3854E
  8
0
 10
699.25373380590236
 20
280.36565500452849
 30
0.0
  0
VERTEX
  5
3854F
  8
0
 10
699.2816521472954
 20
278.76475788558582
 30
0.0
  0
VERTEX
  5
38550
  8
0
 10
699.28514249370107
 20
277.96397055309899
 30
0.0
  0
SEQEND
  5
38551
  8
0
  0
POLYLINE
  5
2FECF
  8
0
 66
     1
 10
0.0
 20
0.0
 30
0.0
  0
VERTEX
  5
38552
  8
0
 10
699.28514249370107
 20
277.96397055309899
 30
0.0
  0
VERTEX
  5
38553
  8
0
 10
699.27870295699995
 20
276.87629207237251
 30
0.0
  0
VERTEX
  5
38554
  8
0
 10
699.22720174154801
 20
274.7026329199166
 30
0.0
  0
VERTEX
  5
38555
  8
0
 10
699.1242797013374
 20
272.53406454425891
 30
0.0
  0
VERTEX
  5
38556
  8
0
 10
699.05358294755933
 20
271.4527476719154
 30
0.0
  0
VERTEX
  5
38557
  8
0
 10
698.97009749226891
 20
270.37397196676699
 30
0.0
  0
VERTEX
  5
38558
  8
0
 10
698.76489578467454
 20
268.22572697853087
 30
0.0
  0
VERTEX
  5
38559
  8
0
 10
698.5089948876456
 20
266.09268287717759
 30
0.0
  0
VERTEX
  5
3855A
  8
0
 10
698.20279424904493
 20
263.97816923254692
 30
0.0
  0
VERTEX
  5
3855B
  8
0
 10
697.8467718319921
 20
261.88548668940848
 30
0.0
  0
VERTEX
  5
3855C
  8
0
 10
697.44148336878504
 20
259.81790181532961
 30
0.0
  0
VERTEX
  5
3855D
  8
0
 10
697.22055909021719
 20
258.79453123253052
 30
0.0
  0
VERTEX
  5
3855E
  8
0
 10
696.98756149343444
 20
257.77864200173372
 30
0.0
  0
VERTEX
  5
3855F
  8
0
 10
696.48571475415326
 20
255.77089042611209
 30
0.0
  0
VERTEX
  5
38560
  8
0
 10
695.93672650735016
 20
253.7977810832503
 30
0.0
  0
VERTEX
  5
38561
  8
0
 10
695.34145369485213
 20
251.8623938932287
 30
0.0
  0
VERTEX
  5
38562
  8
0
 10
694.70082550626285
 20
249.9677498938272
 30
0.0
  0
VERTEX
  5
38563
  8
0
 10
694.01584192854625
 20
248.11680652484441
 30
0.0
  0
VERTEX
  5
38564
  8
0
 10
693.65704834143799
 20
247.20862824840239
 30
0.0
  0
VERTEX
  5
38565
  8
0
 10
693.28757218510009
 20
246.3124530116898
 30
0.0
  0
VERTEX
  5
38566
  8
0
 10
692.51715306675385
 20
244.55750585545451
 30
0.0
  0
VERTEX
  5
38567
  8
0
 10
691.70578715729835
 20
242.85470443649959
 30
0.0
  0
VERTEX
  5
38568
  8
0
 10
691.28514249370107
 20
242.0236922922854
 30
0.0
  0
SEQEND
  5
38569
  8
0
  0
LINE
  5
2FED0
  8
0
 10
691.28514249370107
 20
242.0236922922854
 30
0.0
 11
691.28514249370107
 21
233.523993091107
 31
0.0
  0
LINE
  5
2FED2
  8
0
 10
688.78514249370119
 20
233.523993091107
 30
0.0
 11
691.28514249370107
 21
233.523993091107
 31
0.0
  0
POLYLINE
  5
2FED3
  8
0
 66
     1
 10
0.0
 20
0.0
 30
0.0
  0
VERTEX
  5
3856A
  8
0
 10
643.78514249370119
 20
243.60775069820551
 30
0.0
  0
VERTEX
  5
3856B
  8
0
 10
643.3660281242104
 20
244.38783116802139
 30
0.0
  0
VERTEX
  5
3856C
  8
0
 10
642.55711290063027
 20
245.99034512057051
 30
0.0
  0
VERTEX
  5
3856D
  8
0
 10
641.78841806181208
 20
247.64705622050951
 30
0.0
  0
VERTEX
  5
3856E
  8
0
 10
641.41956319297185
 20
248.49486159103441
 30
0.0
  0
VERTEX
  5
3856F
  8
0
 10
641.0612465900399
 20
249.3551562465486
 30
0.0
  0
VERTEX
  5
38570
  8
0
 10
640.37683108308374
 20
251.11174987019061
 30
0.0
  0
VERTEX
  5
38571
  8
0
 10
639.73633166487753
 20
252.91385956348179
 30
0.0
  0
VERTEX
  5
38572
  8
0
 10
639.14083401904054
 20
254.75843064609219
 30
0.0
  0
VERTEX
  5
38573
  8
0
 10
638.59134754858042
 20
256.6423364631778
 30
0.0
  0
VERTEX
  5
38574
  8
0
 10
638.08880366489711
 20
258.56238368524191
 30
0.0
  0
VERTEX
  5
38575
  8
0
 10
637.85540454204192
 20
259.53494550622742
 30
0.0
  0
VERTEX
  5
38576
  8
0
 10
637.63405420898653
 20
260.51531772101129
 30
0.0
  0
VERTEX
  5
38577
  8
0
 10
637.22787000752078
 20
262.49782823415899
 30
0.0
  0
VERTEX
  5
38578
  8
0
 10
636.87093956625256
 20
264.50655475451458
 30
0.0
  0
VERTEX
  5
38579
  8
0
 10
636.56386790295755
 20
266.53809237425821
 30
0.0
  0
VERTEX
  5
3857A
  8
0
 10
636.30717552189344
 20
268.58899751943409
 30
0.0
  0
VERTEX
  5
3857B
  8
0
 10
636.10129753151705
 20
270.65579378700892
 30
0.0
  0
VERTEX
  5
3857C
  8
0
 10
636.0175263693227
 20
271.69405718822418
 30
0.0
  0
VERTEX
  5
3857D
  8
0
 10
635.94658290694861
 20
272.73497783757603
 30
0.0
  0
VERTEX
  5
3857E
  8
0
 10
635.84329389844061
 20
274.82302533372012
 30
0.0
  0
VERTEX
  5
3857F
  8
0
 10
635.79160558684487
 20
276.91639691397091
 30
0.0
  0
VERTEX
  5
38580
  8
0
 10
635.78514249370107
 20
277.96397055309899
 30
0.0
  0
SEQEND
  5
38581
  8
0
  0
POLYLINE
  5
2FED4
  8
0
 66
     1
 10
0.0
 20
0.0
 30
0.0
  0
VERTEX
  5
38582
  8
0
 10
635.78514249370107
 20
277.96397055309899
 30
0.0
  0
VERTEX
  5
38583
  8
0
 10
635.78836841992415
 20
278.70409217857917
 30
0.0
  0
VERTEX
  5
38584
  8
0
 10
635.81417173545424
 20
280.1837092127534
 30
0.0
  0
VERTEX
  5
38585
  8
0
 10
635.86575653433374
 20
281.66144812641318
 30
0.0
  0
VERTEX
  5
38586
  8
0
 10
635.9012042019026
 20
282.3992224737076
 30
0.0
  0
VERTEX
  5
38587
  8
0
 10
635.94307917067215
 20
283.13605860490537
 30
0.0
  0
VERTEX
  5
38588
  8
0
 10
636.0460742217997
 20
284.60629298054801
 30
0.0
  0
VERTEX
  5
38589
  8
0
 10
636.17465454362116
 20
286.07090728827598
 30
0.0
  0
VERTEX
  5
3858A
  8
0
 10
636.32871134434663
 20
287.52866231816552
 30
0.0
  0
VERTEX
  5
3858B
  8
0
 10
636.50811427654287
 20
288.97832466392538
 30
0.0
  0
VERTEX
  5
3858C
  8
0
 10
636.71271154741862
 20
290.41866776648249
 30
0.0
  0
VERTEX
  5
3858D
  8
0
 10
636.82440479188472
 20
291.13496342966351
 30
0.0
  0
VERTEX
  5
3858E
  8
0
 10
636.94233004725584
 20
291.84847295177502
 30
0.0
  0
VERTEX
  5
3858F
  8
0
 10
637.19677549588005
 20
293.26653046187039
 30
0.0
  0
VERTEX
  5
38590
  8
0
 10
637.47583260703914
 20
294.671640478543
 30
0.0
  0
VERTEX
  5
38591
  8
0
 10
637.77926527055695
 20
296.06261413843822
 30
0.0
  0
VERTEX
  5
38592
  8
0
 10
638.10681675210662
 20
297.4382745389716
 30
0.0
  0
VERTEX
  5
38593
  8
0
 10
638.45820991043411
 20
298.79745773410423
 30
0.0
  0
VERTEX
  5
38594
  8
0
 10
638.64275498908307
 20
299.47051043190822
 30
0.0
  0
VERTEX
  5
38595
  8
0
 10
638.83314743184519
 20
300.13901371915739
 30
0.0
  0
VERTEX
  5
38596
  8
0
 10
639.23131208176528
 20
301.46180740383397
 30
0.0
  0
VERTEX
  5
38597
  8
0
 10
639.65236697314913
 20
302.76471957261401
 30
0.0
  0
VERTEX
  5
38598
  8
0
 10
639.87136767827576
 20
303.40837490778449
 30
0.0
  0
VERTEX
  5
38599
  8
0
 10
640.09595585152226
 20
304.0466478317262
 30
0.0
  0
VERTEX
  5
3859A
  8
0
 10
640.56170339640812
 20
305.30650754188042
 30
0.0
  0
VERTEX
  5
3859B
  8
0
 10
641.04921553888505
 20
306.54323273598402
 30
0.0
  0
VERTEX
  5
3859C
  8
0
 10
641.30100514288688
 20
307.15259210277009
 30
0.0
  0
VERTEX
  5
3859D
  8
0
 10
641.55807979500969
 20
307.75577702105278
 30
0.0
  0
VERTEX
  5
3859E
  8
0
 10
642.08786561481827
 20
308.94311446356733
 30
0.0
  0
VERTEX
  5
3859F
  8
0
 10
642.63812474661654
 20
310.10424045751188
 30
0.0
  0
VERTEX
  5
385A0
  8
0
 10
643.20839161624235
 20
311.23817257437389
 30
0.0
  0
VERTEX
  5
385A1
  8
0
 10
643.79818372099226
 20
312.34395139437669
 30
0.0
  0
VERTEX
  5
385A2
  8
0
 10
644.40700203786264
 20
313.42064131824151
 30
0.0
  0
VERTEX
  5
385A3
  8
0
 10
644.71838566751137
 20
313.94779227800018
 30
0.0
  0
VERTEX
  5
385A4
  8
0
 10
645.03433144577593
 20
314.46733135880089
 30
0.0
  0
VERTEX
  5
385A5
  8
0
 10
645.67964116142355
 20
315.4831359117839
 30
0.0
  0
VERTEX
  5
385A6
  8
0
 10
646.34238518836037
 20
316.46719550512529
 30
0.0
  0
VERTEX
  5
385A7
  8
0
 10
647.02200277897509
 20
317.41867752616457
 30
0.0
  0
VERTEX
  5
385A8
  8
0
 10
647.71791890893508
 20
318.33677692612042
 30
0.0
  0
VERTEX
  5
385A9
  8
0
 10
648.42954476371779
 20
319.2207169012413
 30
0.0
  0
VERTEX
  5
385AA
  8
0
 10
648.79106118499431
 20
319.64964223881179
 30
0.0
  0
VERTEX
  5
385AB
  8
0
 10
649.1562782368045
 20
320.0697495500595
 30
0.0
  0
VERTEX
  5
385AC
  8
0
 10
649.89750443912305
 20
320.88315650619103
 30
0.0
  0
VERTEX
  5
385AD
  8
0
 10
650.652596219305
 20
321.6602495461434
 30
0.0
  0
VERTEX
  5
385AE
  8
0
 10
651.42091469432035
 20
322.40037117162319
 30
0.0
  0
VERTEX
  5
385AF
  8
0
 10
652.20180979003271
 20
323.10289516584538
 30
0.0
  0
VERTEX
  5
385B0
  8
0
 10
652.99462079123032
 20
323.76722712337369
 30
0.0
  0
VERTEX
  5
385B1
  8
0
 10
653.39528551060994
 20
324.0848941594204
 30
0.0
  0
VERTEX
  5
385B2
  8
0
 10
653.7986769006551
 20
324.39280495304769
 30
0.0
  0
VERTEX
  5
385B3
  8
0
 10
654.61329780656558
 20
324.97909935356893
 30
0.0
  0
VERTEX
  5
385B4
  8
0
 10
655.43779425834737
 20
325.52561426134162
 30
0.0
  0
VERTEX
  5
385B5
  8
0
 10
656.27146864968745
 20
326.03188727019187
 30
0.0
  0
VERTEX
  5
385B6
  8
0
 10
657.11361560882096
 20
326.49749002261029
 30
0.0
  0
VERTEX
  5
385B7
  8
0
 10
657.96352259534342
 20
326.9220285721845
 30
0.0
  0
VERTEX
  5
385B8
  8
0
 10
658.39116161807442
 20
327.1187851545647
 30
0.0
  0
VERTEX
  5
385B9
  8
0
 10
658.82047050309438
 20
327.30514371691743
 30
0.0
  0
VERTEX
  5
385BA
  8
0
 10
659.68373426858898
 20
327.64651130314809
 30
0.0
  0
VERTEX
  5
385BB
  8
0
 10
660.55258348449752
 20
327.9458424998179
 30
0.0
  0
VERTEX
  5
385BC
  8
0
 10
661.42628301764171
 20
328.20288404285111
 30
0.0
  0
VERTEX
  5
385BD
  8
0
 10
662.30409363098943
 20
328.41741844943999
 30
0.0
  0
VERTEX
  5
385BE
  8
0
 10
663.18527260912549
 20
328.58926420205808
 30
0.0
  0
VERTEX
  5
385BF
  8
0
 10
663.62689233989749
 20
328.65913198157932
 30
0.0
  0
VERTEX
  5
385C0
  8
0
 10
664.06907438666121
 20
328.71827590204248
 30
0.0
  0
VERTEX
  5
385C1
  8
0
 10
664.95475117905835
 20
328.80434439261541
 30
0.0
  0
VERTEX
  5
385C2
  8
0
 10
665.84155361532794
 20
328.84739685124117
 30
0.0
  0
VERTEX
  5
385C3
  8
0
 10
666.28514249370107
 20
328.85277926246999
 30
0.0
  0
VERTEX
  5
385C4
  8
0
 10
666.72873137207444
 20
328.84739685124117
 30
0.0
  0
VERTEX
  5
385C5
  8
0
 10
667.61553380834391
 20
328.80434439261541
 30
0.0
  0
VERTEX
  5
385C6
  8
0
 10
668.50121060074059
 20
328.71827590204248
 30
0.0
  0
VERTEX
  5
385C7
  8
0
 10
668.94339264750442
 20
328.65913198157932
 30
0.0
  0
VERTEX
  5
385C8
  8
0
 10
669.38501237827631
 20
328.58926420205808
 30
0.0
  0
VERTEX
  5
385C9
  8
0
 10
670.26619135641238
 20
328.41741844943999
 30
0.0
  0
VERTEX
  5
385CA
  8
0
 10
671.14400196976055
 20
328.20288404285111
 30
0.0
  0
VERTEX
  5
385CB
  8
0
 10
672.0177015029044
 20
327.9458424998179
 30
0.0
  0
VERTEX
  5
385CC
  8
0
 10
672.8865507188134
 20
327.64651130314809
 30
0.0
  0
VERTEX
  5
385CD
  8
0
 10
673.74981448430799
 20
327.30514371691743
 30
0.0
  0
VERTEX
  5
385CE
  8
0
 10
674.17912336932795
 20
327.1187851545647
 30
0.0
  0
VERTEX
  5
385CF
  8
0
 10
674.6067623920585
 20
326.9220285721845
 30
0.0
  0
VERTEX
  5
385D0
  8
0
 10
675.45666937858141
 20
326.49749002261029
 30
0.0
  0
VERTEX
  5
385D1
  8
0
 10
676.29881633771436
 20
326.03188727019187
 30
0.0
  0
VERTEX
  5
385D2
  8
0
 10
677.13249072905501
 20
325.52561426134162
 30
0.0
  0
VERTEX
  5
385D3
  8
0
 10
677.95698718083622
 20
324.97909935356893
 30
0.0
  0
VERTEX
  5
385D4
  8
0
 10
678.77160808674671
 20
324.39280495304769
 30
0.0
  0
VERTEX
  5
385D5
  8
0
 10
679.17499947679244
 20
324.0848941594204
 30
0.0
  0
VERTEX
  5
385D6
  8
0
 10
679.57566419617206
 20
323.76722712337369
 30
0.0
  0
VERTEX
  5
385D7
  8
0
 10
680.36847519736966
 20
323.10289516584538
 30
0.0
  0
VERTEX
  5
385D8
  8
0
 10
681.14937029308203
 20
322.40037117162319
 30
0.0
  0
VERTEX
  5
385D9
  8
0
 10
681.91768876809692
 20
321.6602495461434
 30
0.0
  0
VERTEX
  5
385DA
  8
0
 10
682.67278054827921
 20
320.88315650619103
 30
0.0
  0
VERTEX
  5
385DB
  8
0
 10
683.41400675059765
 20
320.0697495500595
 30
0.0
  0
VERTEX
  5
385DC
  8
0
 10
683.77922380240796
 20
319.64964223881179
 30
0.0
  0
VERTEX
  5
385DD
  8
0
 10
684.14074022368413
 20
319.2207169012413
 30
0.0
  0
VERTEX
  5
385DE
  8
0
 10
684.85236607846707
 20
318.33677692612042
 30
0.0
  0
VERTEX
  5
385DF
  8
0
 10
685.54828220842717
 20
317.41867752616457
 30
0.0
  0
VERTEX
  5
385E0
  8
0
 10
686.22789979904155
 20
316.46719550512529
 30
0.0
  0
VERTEX
  5
385E1
  8
0
 10
686.89064382597871
 20
315.4831359117839
 30
0.0
  0
VERTEX
  5
385E2
  8
0
 10
687.53595354162599
 20
314.46733135880089
 30
0.0
  0
VERTEX
  5
385E3
  8
0
 10
687.85189931989089
 20
313.94779227800018
 30
0.0
  0
VERTEX
  5
385E4
  8
0
 10
688.16328294953928
 20
313.42064131824151
 30
0.0
  0
VERTEX
  5
385E5
  8
0
 10
688.77210126640955
 20
312.34395139437669
 30
0.0
  0
VERTEX
  5
385E6
  8
0
 10
689.36189337115957
 20
311.23817257437389
 30
0.0
  0
VERTEX
  5
385E7
  8
0
 10
689.93216024078583
 20
310.10424045751188
 30
0.0
  0
VERTEX
  5
385E8
  8
0
 10
690.48241937258354
 20
308.94311446356733
 30
0.0
  0
VERTEX
  5
385E9
  8
0
 10
691.01220519239257
 20
307.75577702105278
 30
0.0
  0
VERTEX
  5
385EA
  8
0
 10
691.26927984451549
 20
307.15259210277009
 30
0.0
  0
VERTEX
  5
385EB
  8
0
 10
691.52106944851721
 20
306.54323273598402
 30
0.0
  0
VERTEX
  5
385EC
  8
0
 10
692.00858159099425
 20
305.30650754188042
 30
0.0
  0
VERTEX
  5
385ED
  8
0
 10
692.47432913587954
 20
304.0466478317262
 30
0.0
  0
VERTEX
  5
385EE
  8
0
 10
692.69891730912639
 20
303.40837490778449
 30
0.0
  0
VERTEX
  5
385EF
  8
0
 10
692.91791801425325
 20
302.76471957261401
 30
0.0
  0
VERTEX
  5
385F0
  8
0
 10
693.33897290563664
 20
301.46180740383397
 30
0.0
  0
VERTEX
  5
385F1
  8
0
 10
693.73713755555673
 20
300.13901371915739
 30
0.0
  0
VERTEX
  5
385F2
  8
0
 10
693.92752999831873
 20
299.47051043190822
 30
0.0
  0
VERTEX
  5
385F3
  8
0
 10
694.11207507696781
 20
298.79745773410423
 30
0.0
  0
VERTEX
  5
385F4
  8
0
 10
694.4634682352953
 20
297.4382745389716
 30
0.0
  0
VERTEX
  5
385F5
  8
0
 10
694.79101971684531
 20
296.06261413843822
 30
0.0
  0
VERTEX
  5
385F6
  8
0
 10
695.09445238036324
 20
294.671640478543
 30
0.0
  0
VERTEX
  5
385F7
  8
0
 10
695.37350949152176
 20
293.26653046187039
 30
0.0
  0
VERTEX
  5
385F8
  8
0
 10
695.62795494014597
 20
291.84847295177502
 30
0.0
  0
VERTEX
  5
385F9
  8
0
 10
695.74588019551766
 20
291.13496342966351
 30
0.0
  0
VERTEX
  5
385FA
  8
0
 10
695.85757343998375
 20
290.41866776648249
 30
0.0
  0
VERTEX
  5
385FB
  8
0
 10
696.06217071085894
 20
288.97832466392538
 30
0.0
  0
VERTEX
  5
385FC
  8
0
 10
696.24157364305529
 20
287.52866231816552
 30
0.0
  0
VERTEX
  5
385FD
  8
0
 10
696.3956304437811
 20
286.07090728827598
 30
0.0
  0
VERTEX
  5
385FE
  8
0
 10
696.52421076560222
 20
284.60629298054801
 30
0.0
  0
VERTEX
  5
385FF
  8
0
 10
696.62720581673011
 20
283.13605860490537
 30
0.0
  0
VERTEX
  5
38600
  8
0
 10
696.66908078549932
 20
282.3992224737076
 30
0.0
  0
VERTEX
  5
38601
  8
0
 10
696.70452845306863
 20
281.66144812641318
 30
0.0
  0
VERTEX
  5
38602
  8
0
 10
696.75611325194768
 20
280.1837092127534
 30
0.0
  0
VERTEX
  5
38603
  8
0
 10
696.78191656747765
 20
278.70409217857917
 30
0.0
  0
VERTEX
  5
38604
  8
0
 10
696.78514249370119
 20
277.96397055309899
 30
0.0
  0
SEQEND
  5
38605
  8
0
  0
POLYLINE
  5
2FED5
  8
0
 66
     1
 10
0.0
 20
0.0
 30
0.0
  0
VERTEX
  5
38606
  8
0
 10
696.78514249370119
 20
277.96397055309899
 30
0.0
  0
VERTEX
  5
38607
  8
0
 10
696.77867940055694
 20
276.91639691397091
 30
0.0
  0
VERTEX
  5
38608
  8
0
 10
696.72699108896165
 20
274.82302533372012
 30
0.0
  0
VERTEX
  5
38609
  8
0
 10
696.62370208045331
 20
272.73497783757603
 30
0.0
  0
VERTEX
  5
3860A
  8
0
 10
696.55275861807922
 20
271.69405718822418
 30
0.0
  0
VERTEX
  5
3860B
  8
0
 10
696.46898745588533
 20
270.65579378700892
 30
0.0
  0
VERTEX
  5
3860C
  8
0
 10
696.26310946550893
 20
268.58899751943409
 30
0.0
  0
VERTEX
  5
3860D
  8
0
 10
696.00641708444471
 20
266.53809237425821
 30
0.0
  0
VERTEX
  5
3860E
  8
0
 10
695.69934542114925
 20
264.50655475451458
 30
0.0
  0
VERTEX
  5
3860F
  8
0
 10
695.34241497988114
 20
262.49782823415899
 30
0.0
  0
VERTEX
  5
38610
  8
0
 10
694.93623077841585
 20
260.51531772101129
 30
0.0
  0
VERTEX
  5
38611
  8
0
 10
694.71488044536
 20
259.53494550622742
 30
0.0
  0
VERTEX
  5
38612
  8
0
 10
694.48148132250515
 20
258.56238368524191
 30
0.0
  0
VERTEX
  5
38613
  8
0
 10
693.97893743882184
 20
256.6423364631778
 30
0.0
  0
VERTEX
  5
38614
  8
0
 10
693.42945096836127
 20
254.75843064609219
 30
0.0
  0
VERTEX
  5
38615
  8
0
 10
692.83395332252428
 20
252.91385956348179
 30
0.0
  0
VERTEX
  5
38616
  8
0
 10
692.19345390431863
 20
251.11174987019101
 30
0.0
  0
VERTEX
  5
38617
  8
0
 10
691.50903839736236
 20
249.3551562465486
 30
0.0
  0
VERTEX
  5
38618
  8
0
 10
691.15072179443041
 20
248.49486159103441
 30
0.0
  0
VERTEX
  5
38619
  8
0
 10
690.78186692558984
 20
247.64705622050951
 30
0.0
  0
VERTEX
  5
3861A
  8
0
 10
690.01317208677165
 20
245.99034512057051
 30
0.0
  0
VERTEX
  5
3861B
  8
0
 10
689.2042568631914
 20
244.38783116802139
 30
0.0
  0
VERTEX
  5
3861C
  8
0
 10
688.78514249370119
 20
243.60775069820551
 30
0.0
  0
SEQEND
  5
3861D
  8
0
  0
LINE
  5
2FED6
  8
0
 10
643.78514249370119
 20
233.523993091107
 30
0.0
 11
643.78514249370119
 21
312.31999648068631
 31
0.0
  0
LINE
  5
2FED7
  8
0
 10
688.78514249370119
 20
312.31999648068631
 30
0.0
 11
688.78514249370119
 21
233.523993091107
 31
0.0
  0
LINE
  5
2FED8
  8
0
 10
682.45878401113259
 20
321.10917852538432
 30
0.0
 11
650.11712726426595
 21
321.10917852538432
 31
0.0
  0
LINE
  5
2FEEF
  8
0
 10
669.28514249370107
 20
318.52399309110712
 30
0.0
 11
663.28514249370119
 21
318.52399309110712
 31
0.0
  0
LINE
  5
2FEF0
  8
0
 10
663.28514249370119
 20
168.523993091107
 30
0.0
 11
669.28514249370107
 21
168.523993091107
 31
0.0
  0
ARC
  5
2FEF1
  8
0
 10
669.28514249370107
 20
168.82399309110721
 30
0.0
 40
0.3000000000000114
 50
270.0
 51
0.0
  0
ARC
  5
2FEF2
  8
0
 10
669.28514249370107
 20
318.22399309110688
 30
0.0
 40
0.3000000000000074
 50
0.0
 51
90.0
  0
LINE
  5
2FEF3
  8
0
 10
671.98514249370101
 20
318.22399309110688
 30
0.0
 11
669.58514249370091
 21
318.22399309110688
 31
0.0
  0
LINE
  5
2FEF4
  8
0
 10
669.58514249370091
 20
168.82399309110721
 30
0.0
 11
671.98514249370101
 21
168.82399309110721
 31
0.0
  0
ARC
  5
2FEF5
  8
0
 10
672.28514249370119
 20
168.82399309110721
 30
0.0
 40
0.3000000000000034
 50
180.0
 51
270.0
  0
ARC
  5
2FEF6
  8
0
 10
672.28514249370119
 20
318.22399309110688
 30
0.0
 40
0.3000000000000114
 50
90.0
 51
180.0
  0
LINE
  5
2FEF7
  8
0
 10
675.24202102711433
 20
318.52399309110712
 30
0.0
 11
672.28514249370119
 21
318.52399309110712
 31
0.0
  0
LINE
  5
2FEF8
  8
0
 10
672.28514249370119
 20
168.523993091107
 30
0.0
 11
675.24202102711433
 21
168.523993091107
 31
0.0
  0
ARC
  5
2FEF9
  8
0
 10
675.24202102711433
 20
169.523993091107
 30
0.0
 40
1.000000000000014
 50
270.0
 51
341.00000000001239
  0
ARC
  5
2FEFA
  8
0
 10
675.24202102711433
 20
317.52399309110712
 30
0.0
 40
1.0000000000000151
 50
18.999999999987629
 51
90.0
  0
LINE
  5
2FEFB
  8
0
 10
678.29011735448739
 20
311.7432320677031
 30
0.0
 11
676.18753960271351
 21
317.84956124556402
 31
0.0
  0
LINE
  5
2FEFC
  8
0
 10
676.18753960271351
 20
169.1984249366501
 30
0.0
 11
678.29011735448739
 21
175.30475411451101
 31
0.0
  0
ARC
  5
2FEFD
  8
0
 10
675.4535616276894
 20
176.2814585778824
 30
0.0
 40
3.0000000000000391
 50
341.00000000001239
 51
0.0000008537736463
  0
ARC
  5
2FEFE
  8
0
 10
675.4535616276894
 20
310.76652760433171
 30
0.0
 40
3.0000000000000422
 50
0.0
 51
18.999999999987629
  0
ARC
  5
2FEFF
  8
0
 10
679.12022829435591
 20
177.71557133575561
 30
0.0
 40
0.6666666666666661
 50
180.0
 51
0.0
  0
ARC
  5
2FF00
  8
0
 10
679.12022829435591
 20
309.33241484645851
 30
0.0
 40
0.6666666666666661
 50
0.0
 51
180.0
  0
ARC
  5
2FF01
  8
0
 10
680.45356162768928
 20
181.5878525059897
 30
0.0
 40
0.6666666666666661
 50
180.0
 51
0.0
  0
ARC
  5
2FF02
  8
0
 10
680.45356162768928
 20
305.46013367622442
 30
0.0
 40
0.6666666666666661
 50
0.0
 51
180.0
  0
LINE
  5
2FF03
  8
0
 10
686.12169822049907
 20
288.9986697272343
 30
0.0
 11
681.12022829435591
 21
303.52399309110712
 31
0.0
  0
LINE
  5
2FF04
  8
0
 10
681.12022829435591
 20
183.523993091107
 30
0.0
 11
686.12169822049907
 21
198.04931645497979
 31
0.0
  0
ARC
  5
2FF05
  8
0
 10
683.28514249370107
 20
199.02602091835109
 30
0.0
 40
2.9999999999999192
 50
341.00000000001239
 51
0.0
  0
ARC
  5
2FF06
  8
0
 10
683.28514249370107
 20
288.02196526386302
 30
0.0
 40
2.9999999999999138
 50
0.0
 51
18.999999999987629
  0
ARC
  5
2FF07
  8
0
 10
649.28514249370107
 20
199.02602091835109
 30
0.0
 40
2.99999999999996
 50
180.0
 51
198.99999999998761
  0
ARC
  5
2FF08
  8
0
 10
649.28514249370107
 20
288.02196526386302
 30
0.0
 40
2.9999999999999609
 50
161.00000000001231
 51
180.0
  0
LINE
  5
2FF09
  8
0
 10
651.45005669304589
 20
303.52399309110712
 30
0.0
 11
646.44858676690319
 21
288.9986697272343
 31
0.0
  0
LINE
  5
2FF0A
  8
0
 10
646.44858676690319
 20
198.04931645497979
 30
0.0
 11
651.45005669304589
 21
183.523993091107
 31
0.0
  0
ARC
  5
2FF0B
  8
0
 10
652.11672335971252
 20
181.5878525059897
 30
0.0
 40
0.6666666666666661
 50
180.0
 51
0.0
  0
ARC
  5
2FF0C
  8
0
 10
652.11672335971252
 20
305.46013367622442
 30
0.0
 40
0.6666666666666661
 50
0.0
 51
180.0
  0
ARC
  5
2FF0D
  8
0
 10
653.45005669304601
 20
177.71557133575561
 30
0.0
 40
0.6666666666666679
 50
180.0
 51
0.0
  0
ARC
  5
2FF0E
  8
0
 10
653.45005669304601
 20
309.33241484645851
 30
0.0
 40
0.6666666666666679
 50
0.0
 51
180.0
  0
ARC
  5
2FF0F
  8
0
 10
657.11672335971252
 20
176.2814585778824
 30
0.0
 40
2.9999999999998268
 50
180.0
 51
198.99999999998761
  0
ARC
  5
2FF10
  8
0
 10
657.11672335971252
 20
310.76652760433171
 30
0.0
 40
2.9999999999998299
 50
161.00000000001231
 51
180.0
  0
LINE
  5
2FF11
  8
0
 10
656.38274538468875
 20
317.84956124556402
 30
0.0
 11
654.28016763291487
 21
311.7432320677031
 31
0.0
  0
LINE
  5
2FF12
  8
0
 10
654.28016763291487
 20
175.30475411451101
 30
0.0
 11
656.38274538468875
 21
169.1984249366501
 31
0.0
  0
ARC
  5
2FF13
  8
0
 10
657.32826396028804
 20
169.523993091107
 30
0.0
 40
1.000000000000014
 50
198.99999999998761
 51
270.0
  0
ARC
  5
2FF14
  8
0
 10
657.32826396028804
 20
317.52399309110712
 30
0.0
 40
1.000000000000014
 50
90.0
 51
161.00000000001231
  0
LINE
  5
2FF15
  8
0
 10
660.28514249370119
 20
318.52399309110712
 30
0.0
 11
657.32826396028804
 21
318.52399309110712
 31
0.0
  0
LINE
  5
2FF16
  8
0
 10
657.32826396028804
 20
168.523993091107
 30
0.0
 11
660.28514249370119
 21
168.523993091107
 31
0.0
  0
ARC
  5
2FF17
  8
0
 10
660.28514249370119
 20
168.82399309110721
 30
0.0
 40
0.3000000000000114
 50
270.0
 51
0.0
  0
ARC
  5
2FF18
  8
0
 10
660.28514249370119
 20
318.22399309110688
 30
0.0
 40
0.3000000000000087
 50
0.0
 51
90.0
  0
LINE
  5
2FF19
  8
0
 10
662.98514249370101
 20
318.22399309110688
 30
0.0
 11
660.58514249370091
 21
318.22399309110688
 31
0.0
  0
LINE
  5
2FF1A
  8
0
 10
660.58514249370091
 20
168.82399309110721
 30
0.0
 11
662.98514249370101
 21
168.82399309110721
 31
0.0
  0
ARC
  5
2FF1B
  8
0
 10
663.28514249370119
 20
168.82399309110721
 30
0.0
 40
0.3000000000000038
 50
180.0
 51
270.0
  0
ARC
  5
2FF1C
  8
0
 10
663.28514249370119
 20
318.22399309110688
 30
0.0
 40
0.3000000000000114
 50
90.0
 51
180.0
  0
LINE
  5
2FF1E
  8
0
 10
669.58514249370091
 20
168.82399309110721
 30
0.0
 11
669.58514249370091
 21
318.22399309110688
 31
0.0
  0
LINE
  5
2FF1F
  8
0
 10
671.98514249370101
 20
168.82399309110721
 30
0.0
 11
671.98514249370101
 21
318.22399309110688
 31
0.0
  0
LINE
  5
2FF24
  8
0
 10
678.4535616276894
 20
176.2814585778824
 30
0.0
 11
678.4535616276894
 21
310.76652760433171
 31
0.0
  0
LINE
  5
2FF25
  8
0
 10
679.78689496102277
 20
177.71557133575561
 30
0.0
 11
679.78689496102277
 21
309.33241484645851
 31
0.0
  0
LINE
  5
2FF26
  8
0
 10
681.12022829435591
 20
181.5878525059897
 30
0.0
 11
681.12022829435591
 21
305.46013367622442
 31
0.0
  0
LINE
  5
2FF28
  8
0
 10
686.28514249370107
 20
199.02602091835109
 30
0.0
 11
686.28514249370107
 21
288.02196526386302
 31
0.0
  0
LINE
  5
2FF29
  8
0
 10
646.28514249370119
 20
199.02602091835109
 30
0.0
 11
646.28514249370119
 21
288.02196526386302
 31
0.0
  0
LINE
  5
2FF2B
  8
0
 10
651.45005669304589
 20
181.5878525059897
 30
0.0
 11
651.45005669304589
 21
305.46013367622442
 31
0.0
  0
LINE
  5
2FF2C
  8
0
 10
652.78339002637949
 20
177.71557133575561
 30
0.0
 11
652.78339002637949
 21
309.33241484645851
 31
0.0
  0
LINE
  5
2FF2D
  8
0
 10
654.11672335971252
 20
176.2814585778824
 30
0.0
 11
654.11672335971252
 21
310.76652760433171
 31
0.0
  0
LINE
  5
2FF32
  8
0
 10
660.58514249370091
 20
168.82399309110721
 30
0.0
 11
660.58514249370091
 21
318.22399309110688
 31
0.0
  0
LINE
  5
2FF34
  8
0
 10
662.98514249370101
 20
168.82399309110721
 30
0.0
 11
662.98514249370101
 21
318.22399309110688
 31
0.0
  0
LINE
  5
2FF6E
  8
0
 10
392.53428809197391
 20
487.51714282356801
 30
0.0
 11
392.53428809197391
 21
487.41714282356821
 31
0.0
  0
LINE
  5
2FF6F
  8
0
 10
392.53428809197391
 20
537.41714282356816
 30
0.0
 11
392.53428809197391
 21
537.31714282356825
 31
0.0
  0
LINE
  5
2FF70
  8
0
 10
394.23428809197412
 20
545.91714282356816
 30
0.0
 11
394.23428809197412
 21
478.91714282356821
 31
0.0
  0
ARC
  5
2FF71
  8
0
 10
403.23428809197412
 20
545.91714282356816
 30
0.0
 40
8.9999999999999911
 50
90.0
 51
180.0
  0
LINE
  5
2FF72
  8
0
 10
485.23428809197412
 20
554.91714282356816
 30
0.0
 11
403.23428809197412
 21
554.91714282356816
 31
0.0
  0
ARC
  5
2FF73
  8
0
 10
485.23428809197412
 20
545.91714282356816
 30
0.0
 40
9.0000000000000142
 50
0.0
 51
90.0
  0
LINE
  5
2FF74
  8
0
 10
494.23428809197412
 20
478.91714282356821
 30
0.0
 11
494.23428809197412
 21
545.91714282356816
 31
0.0
  0
ARC
  5
2FF75
  8
0
 10
485.23428809197412
 20
478.91714282356821
 30
0.0
 40
9.0
 50
270.0
 51
0.0
  0
LINE
  5
2FF76
  8
0
 10
403.23428809197412
 20
469.9171428235681
 30
0.0
 11
485.23428809197412
 21
469.9171428235681
 31
0.0
  0
ARC
  5
2FF77
  8
0
 10
403.23428809197412
 20
478.91714282356821
 30
0.0
 40
8.9999999999999947
 50
180.0
 51
270.0
  0
LINE
  5
2FF99
  8
0
 10
394.23428809197412
 20
487.41714282356821
 30
0.0
 11
392.53428809197391
 21
487.41714282356821
 31
0.0
  0
LINE
  5
2FF9A
  8
0
 10
392.56242574703629
 20
487.41714282356821
 30
0.0
 11
392.56242574703629
 21
487.51714282356801
 31
0.0
  0
LINE
  5
2FF9B
  8
0
 10
392.53428809197391
 20
537.41714282356816
 30
0.0
 11
394.23428809197412
 21
537.41714282356816
 31
0.0
  0
LINE
  5
2FF9C
  8
0
 10
392.56242574703629
 20
537.31714282356825
 30
0.0
 11
392.56242574703629
 21
537.41714282356816
 31
0.0
  0
LINE
  5
2FF9D
  8
0
 10
394.23428809197412
 20
487.51714282356801
 30
0.0
 11
346.75094859036932
 21
487.51714282356801
 31
0.0
  0
LINE
  5
2FF9E
  8
0
 10
394.23428809197412
 20
537.31714282356825
 30
0.0
 11
346.75094859036932
 21
537.31714282356825
 31
0.0
  0
LINE
  5
2FF9F
  8
0
 10
346.75094859036932
 20
487.51714282356801
 30
0.0
 11
346.75094859036932
 21
537.31714282356825
 31
0.0
  0
POLYLINE
  5
34422
  8
0
 66
     1
 10
0.0
 20
0.0
 30
0.0
  0
VERTEX
  5
3861E
  8
0
 10
403.6210376572958
 20
486.79876790216161
 30
0.0
  0
VERTEX
  5
3861F
  8
0
 10
403.29646376162322
 20
486.8796125554195
 30
0.0
  0
VERTEX
  5
38620
  8
0
 10
402.68690318285178
 20
486.99422289417259
 30
0.0
  0
VERTEX
  5
38621
  8
0
 10
402.1044950112759
 20
487.05099747795703
 30
0.0
  0
VERTEX
  5
38622
  8
0
 10
401.8144124399563
 20
487.05818761157701
 30
0.0
  0
SEQEND
  5
38623
  8
0
  0
POLYLINE
  5
34423
  8
0
 66
     1
 10
0.0
 20
0.0
 30
0.0
  0
VERTEX
  5
38624
  8
0
 10
407.23428809197412
 20
487.05818761157701
 30
0.0
  0
VERTEX
  5
38625
  8
0
 10
406.65412294933498
 20
487.05099747795703
 30
0.0
  0
VERTEX
  5
38626
  8
0
 10
405.48930660618407
 20
486.99422289417259
 30
0.0
  0
VERTEX
  5
38627
  8
0
 10
404.2701854486404
 20
486.8796125554195
 30
0.0
  0
VERTEX
  5
38628
  8
0
 10
403.6210376572958
 20
486.79876790216161
 30
0.0
  0
SEQEND
  5
38629
  8
0
  0
POLYLINE
  5
34424
  8
0
 66
     1
 10
0.0
 20
0.0
 30
0.0
  0
VERTEX
  5
3862A
  8
0
 10
403.6210376572958
 20
542.89876790216158
 30
0.0
  0
VERTEX
  5
3862B
  8
0
 10
403.29646376162322
 20
542.97961255541941
 30
0.0
  0
VERTEX
  5
3862C
  8
0
 10
402.68690318285178
 20
543.0942228941725
 30
0.0
  0
VERTEX
  5
3862D
  8
0
 10
402.1044950112759
 20
543.15099747795693
 30
0.0
  0
VERTEX
  5
3862E
  8
0
 10
401.8144124399563
 20
543.15818761157686
 30
0.0
  0
SEQEND
  5
3862F
  8
0
  0
POLYLINE
  5
34425
  8
0
 66
     1
 10
0.0
 20
0.0
 30
0.0
  0
VERTEX
  5
38630
  8
0
 10
401.8144124399563
 20
543.15818761157686
 30
0.0
  0
VERTEX
  5
38631
  8
0
 10
401.52432986863732
 20
543.15099747795693
 30
0.0
  0
VERTEX
  5
38632
  8
0
 10
400.94192169706139
 20
543.0942228941725
 30
0.0
  0
VERTEX
  5
38633
  8
0
 10
400.3323611182895
 20
542.97961255541941
 30
0.0
  0
VERTEX
  5
38634
  8
0
 10
400.00778722261742
 20
542.89876790216158
 30
0.0
  0
SEQEND
  5
38635
  8
0
  0
POLYLINE
  5
34426
  8
0
 66
     1
 10
0.0
 20
0.0
 30
0.0
  0
VERTEX
  5
38636
  8
0
 10
403.6210376572958
 20
537.91760732099226
 30
0.0
  0
VERTEX
  5
38637
  8
0
 10
404.2701854486404
 20
537.83676266773455
 30
0.0
  0
VERTEX
  5
38638
  8
0
 10
405.48930660618407
 20
537.72215232898134
 30
0.0
  0
VERTEX
  5
38639
  8
0
 10
406.65412294933498
 20
537.66537774519702
 30
0.0
  0
VERTEX
  5
3863A
  8
0
 10
407.23428809197412
 20
537.65818761157686
 30
0.0
  0
SEQEND
  5
3863B
  8
0
  0
LINE
  5
34427
  8
1
 10
407.23428809197412
 20
462.04338126993969
 30
0.0
 11
407.23428809197412
 21
562.79090437719651
 31
0.0
  0
LINE
  5
34428
  8
0
 10
401.41928809197412
 20
487.65818761157692
 30
0.0
 11
401.41928809197412
 21
487.05818761157701
 31
0.0
  0
LINE
  5
34429
  8
0
 10
403.23428809197412
 20
546.89118761157715
 30
0.0
 11
403.23428809197412
 21
545.65818761157698
 31
0.0
  0
LINE
  5
3442A
  8
0
 10
403.42856906989522
 20
547.08546858949785
 30
0.0
 11
403.23428809197412
 21
546.89118761157715
 31
0.0
  0
LINE
  5
3442B
  8
0
 10
400.00778722261742
 20
482.61760732099259
 30
0.0
 11
400.9759547586408
 21
482.3581876115768
 31
0.0
  0
LINE
  5
3442C
  8
0
 10
400.9759547586408
 20
487.05818761157701
 30
0.0
 11
400.95573204879793
 21
487.05276895280571
 31
0.0
  0
LINE
  5
3442D
  8
0
 10
401.41928809197412
 20
545.65818761157698
 30
0.0
 11
401.41928809197412
 21
543.15818761157686
 31
0.0
  0
LINE
  5
3442E
  8
0
 10
400.9759547586408
 20
543.15818761157686
 30
0.0
 11
400.00778722261742
 21
542.89876790216158
 31
0.0
  0
LINE
  5
3442F
  8
0
 10
405.76039964766818
 20
546.89118761157715
 30
0.0
 11
403.23428809197412
 21
546.89118761157715
 31
0.0
  0
LINE
  5
34430
  8
0
 10
408.8788435589081
 20
482.3581876115768
 30
0.0
 11
400.9759547586408
 21
482.3581876115768
 31
0.0
  0
LINE
  5
34431
  8
0
 10
410.44756378131018
 20
487.05818761157701
 30
0.0
 11
400.9759547586408
 21
487.05818761157701
 31
0.0
  0
POLYLINE
  5
34432
  8
0
 66
     1
 10
0.0
 20
0.0
 30
0.0
  0
VERTEX
  5
3863C
  8
0
 10
403.6210376572958
 20
482.61760732099259
 30
0.0
  0
VERTEX
  5
3863D
  8
0
 10
403.29646376162322
 20
482.53676266773431
 30
0.0
  0
VERTEX
  5
3863E
  8
0
 10
402.68690318285178
 20
482.42215232898121
 30
0.0
  0
VERTEX
  5
3863F
  8
0
 10
402.1044950112759
 20
482.36537774519678
 30
0.0
  0
VERTEX
  5
38640
  8
0
 10
401.8144124399563
 20
482.3581876115768
 30
0.0
  0
SEQEND
  5
38641
  8
0
  0
POLYLINE
  5
34433
  8
0
 66
     1
 10
0.0
 20
0.0
 30
0.0
  0
VERTEX
  5
38642
  8
0
 10
401.8144124399563
 20
482.3581876115768
 30
0.0
  0
VERTEX
  5
38643
  8
0
 10
401.52432986863732
 20
482.36537774519678
 30
0.0
  0
VERTEX
  5
38644
  8
0
 10
400.94192169706139
 20
482.42215232898121
 30
0.0
  0
VERTEX
  5
38645
  8
0
 10
400.3323611182895
 20
482.53676266773431
 30
0.0
  0
VERTEX
  5
38646
  8
0
 10
400.00778722261742
 20
482.61760732099259
 30
0.0
  0
SEQEND
  5
38647
  8
0
  0
POLYLINE
  5
34434
  8
0
 66
     1
 10
0.0
 20
0.0
 30
0.0
  0
VERTEX
  5
38648
  8
0
 10
400.93608345057282
 20
486.99337997724342
 30
0.0
  0
VERTEX
  5
38649
  8
0
 10
401.08411214277288
 20
487.01312357066712
 30
0.0
  0
VERTEX
  5
3864A
  8
0
 10
401.37682751910592
 20
487.04187059884771
 30
0.0
  0
VERTEX
  5
3864B
  8
0
 10
401.66813039102988
 20
487.05635627256282
 30
0.0
  0
VERTEX
  5
3864C
  8
0
 10
401.8144124399563
 20
487.05818761157701
 30
0.0
  0
SEQEND
  5
3864D
  8
0
  0
POLYLINE
  5
34435
  8
0
 66
     1
 10
0.0
 20
0.0
 30
0.0
  0
VERTEX
  5
3864E
  8
0
 10
401.8144124399563
 20
487.05818761157701
 30
0.0
  0
VERTEX
  5
3864F
  8
0
 10
402.1044950112759
 20
487.05099747795703
 30
0.0
  0
VERTEX
  5
38650
  8
0
 10
402.68690318285178
 20
486.99422289417259
 30
0.0
  0
VERTEX
  5
38651
  8
0
 10
403.29646376162322
 20
486.8796125554195
 30
0.0
  0
VERTEX
  5
38652
  8
0
 10
403.6210376572958
 20
486.79876790216161
 30
0.0
  0
SEQEND
  5
38653
  8
0
  0
POLYLINE
  5
34436
  8
0
 66
     1
 10
0.0
 20
0.0
 30
0.0
  0
VERTEX
  5
38654
  8
0
 10
407.23428809197412
 20
487.05818761157701
 30
0.0
  0
VERTEX
  5
38655
  8
0
 10
407.74378713216441
 20
487.05263965971648
 30
0.0
  0
VERTEX
  5
38656
  8
0
 10
408.76352483481332
 20
487.0088508062608
 30
0.0
  0
VERTEX
  5
38657
  8
0
 10
409.81679622805223
 20
486.92102392532649
 30
0.0
  0
VERTEX
  5
38658
  8
0
 10
410.36861429602777
 20
486.85963592483211
 30
0.0
  0
SEQEND
  5
38659
  8
0
  0
POLYLINE
  5
34437
  8
0
 66
     1
 10
0.0
 20
0.0
 30
0.0
  0
VERTEX
  5
3865A
  8
0
 10
408.89610097332837
 20
482.41629982106309
 30
0.0
  0
VERTEX
  5
3865B
  8
0
 10
408.61659083751869
 20
482.39860494599452
 30
0.0
  0
VERTEX
  5
3865C
  8
0
 10
408.06295292510089
 20
482.37282388202442
 30
0.0
  0
VERTEX
  5
3865D
  8
0
 10
407.5113232218286
 20
482.35982979194699
 30
0.0
  0
VERTEX
  5
3865E
  8
0
 10
407.23428809197412
 20
482.3581876115768
 30
0.0
  0
SEQEND
  5
3865F
  8
0
  0
POLYLINE
  5
34438
  8
0
 66
     1
 10
0.0
 20
0.0
 30
0.0
  0
VERTEX
  5
38660
  8
0
 10
407.23428809197412
 20
482.3581876115768
 30
0.0
  0
VERTEX
  5
38661
  8
0
 10
406.65412294933498
 20
482.36537774519678
 30
0.0
  0
VERTEX
  5
38662
  8
0
 10
405.48930660618407
 20
482.42215232898121
 30
0.0
  0
VERTEX
  5
38663
  8
0
 10
404.2701854486404
 20
482.53676266773431
 30
0.0
  0
VERTEX
  5
38664
  8
0
 10
403.6210376572958
 20
482.61760732099259
 30
0.0
  0
SEQEND
  5
38665
  8
0
  0
LINE
  5
34439
  8
0
 10
403.6210376572958
 20
482.61760732099259
 30
0.0
 11
403.6210376572958
 21
486.79876790216161
 31
0.0
  0
POLYLINE
  5
3443A
  8
0
 66
     1
 10
0.0
 20
0.0
 30
0.0
  0
VERTEX
  5
38666
  8
0
 10
403.6210376572958
 20
486.79876790216161
 30
0.0
  0
VERTEX
  5
38667
  8
0
 10
404.2701854486404
 20
486.8796125554195
 30
0.0
  0
VERTEX
  5
38668
  8
0
 10
405.48930660618407
 20
486.99422289417259
 30
0.0
  0
VERTEX
  5
38669
  8
0
 10
406.65412294933498
 20
487.05099747795703
 30
0.0
  0
VERTEX
  5
3866A
  8
0
 10
407.23428809197412
 20
487.05818761157701
 30
0.0
  0
SEQEND
  5
3866B
  8
0
  0
LINE
  5
3443B
  8
0
 10
407.58873966067398
 20
545.65818761157698
 30
0.0
 11
401.41928809197412
 21
545.65818761157698
 31
0.0
  0
LINE
  5
3443C
  8
0
 10
408.81253148678559
 20
543.15818761157686
 30
0.0
 11
400.9759547586408
 21
543.15818761157686
 31
0.0
  0
POLYLINE
  5
3443D
  8
0
 66
     1
 10
0.0
 20
0.0
 30
0.0
  0
VERTEX
  5
3866C
  8
0
 10
403.6210376572958
 20
537.91760732099226
 30
0.0
  0
VERTEX
  5
3866D
  8
0
 10
403.29646376162322
 20
537.83676266773455
 30
0.0
  0
VERTEX
  5
3866E
  8
0
 10
402.68690318285178
 20
537.72215232898134
 30
0.0
  0
VERTEX
  5
3866F
  8
0
 10
402.1044950112759
 20
537.66537774519702
 30
0.0
  0
VERTEX
  5
38670
  8
0
 10
401.8144124399563
 20
537.65818761157686
 30
0.0
  0
SEQEND
  5
38671
  8
0
  0
POLYLINE
  5
3443E
  8
0
 66
     1
 10
0.0
 20
0.0
 30
0.0
  0
VERTEX
  5
38672
  8
0
 10
401.8144124399563
 20
537.65818761157686
 30
0.0
  0
VERTEX
  5
38673
  8
0
 10
401.70277567854458
 20
537.65925445353957
 30
0.0
  0
VERTEX
  5
38674
  8
0
 10
401.48049636384798
 20
537.66770827713788
 30
0.0
  0
VERTEX
  5
38675
  8
0
 10
401.25815623788998
 20
537.68447712087163
 30
0.0
  0
VERTEX
  5
38676
  8
0
 10
401.14645438689149
 20
537.69596720920754
 30
0.0
  0
SEQEND
  5
38677
  8
0
  0
POLYLINE
  5
3443F
  8
0
 66
     1
 10
0.0
 20
0.0
 30
0.0
  0
VERTEX
  5
38678
  8
0
 10
400.00778722261742
 20
542.89876790216158
 30
0.0
  0
VERTEX
  5
38679
  8
0
 10
400.3323611182895
 20
542.97961255541941
 30
0.0
  0
VERTEX
  5
3867A
  8
0
 10
400.94192169706139
 20
543.0942228941725
 30
0.0
  0
VERTEX
  5
3867B
  8
0
 10
401.52432986863732
 20
543.15099747795693
 30
0.0
  0
VERTEX
  5
3867C
  8
0
 10
401.8144124399563
 20
543.15818761157686
 30
0.0
  0
SEQEND
  5
3867D
  8
0
  0
POLYLINE
  5
34440
  8
0
 66
     1
 10
0.0
 20
0.0
 30
0.0
  0
VERTEX
  5
3867E
  8
0
 10
401.8144124399563
 20
543.15818761157686
 30
0.0
  0
VERTEX
  5
3867F
  8
0
 10
402.1044950112759
 20
543.15099747795693
 30
0.0
  0
VERTEX
  5
38680
  8
0
 10
402.68690318285178
 20
543.0942228941725
 30
0.0
  0
VERTEX
  5
38681
  8
0
 10
403.29646376162322
 20
542.97961255541941
 30
0.0
  0
VERTEX
  5
38682
  8
0
 10
403.6210376572958
 20
542.89876790216158
 30
0.0
  0
SEQEND
  5
38683
  8
0
  0
POLYLINE
  5
34441
  8
0
 66
     1
 10
0.0
 20
0.0
 30
0.0
  0
VERTEX
  5
38684
  8
0
 10
407.23428809197412
 20
543.15818761157686
 30
0.0
  0
VERTEX
  5
38685
  8
0
 10
407.5000193921004
 20
543.15667664945556
 30
0.0
  0
VERTEX
  5
38686
  8
0
 10
408.02911667662278
 20
543.14471753866837
 30
0.0
  0
VERTEX
  5
38687
  8
0
 10
408.55970991025879
 20
543.12099282436202
 30
0.0
  0
VERTEX
  5
38688
  8
0
 10
408.82727838118808
 20
543.10471633734323
 30
0.0
  0
SEQEND
  5
38689
  8
0
  0
POLYLINE
  5
34442
  8
0
 66
     1
 10
0.0
 20
0.0
 30
0.0
  0
VERTEX
  5
3868A
  8
0
 10
410.5621673717514
 20
537.88052962981635
 30
0.0
  0
VERTEX
  5
3868B
  8
0
 10
409.9716070611957
 20
537.81157611340313
 30
0.0
  0
VERTEX
  5
3868C
  8
0
 10
408.85152604454919
 20
537.71327300296298
 30
0.0
  0
VERTEX
  5
3868D
  8
0
 10
407.77267808434948
 20
537.66438140071568
 30
0.0
  0
VERTEX
  5
3868E
  8
0
 10
407.23428809197412
 20
537.65818761157686
 30
0.0
  0
SEQEND
  5
3868F
  8
0
  0
POLYLINE
  5
34443
  8
0
 66
     1
 10
0.0
 20
0.0
 30
0.0
  0
VERTEX
  5
38690
  8
0
 10
407.23428809197412
 20
537.65818761157686
 30
0.0
  0
VERTEX
  5
38691
  8
0
 10
406.65412294933498
 20
537.66537774519702
 30
0.0
  0
VERTEX
  5
38692
  8
0
 10
405.48930660618407
 20
537.72215232898134
 30
0.0
  0
VERTEX
  5
38693
  8
0
 10
404.2701854486404
 20
537.83676266773455
 30
0.0
  0
VERTEX
  5
38694
  8
0
 10
403.6210376572958
 20
537.91760732099226
 30
0.0
  0
SEQEND
  5
38695
  8
0
  0
LINE
  5
34444
  8
0
 10
403.6210376572958
 20
537.91760732099226
 30
0.0
 11
403.6210376572958
 21
542.89876790216158
 31
0.0
  0
POLYLINE
  5
34445
  8
0
 66
     1
 10
0.0
 20
0.0
 30
0.0
  0
VERTEX
  5
38696
  8
0
 10
403.6210376572958
 20
542.89876790216158
 30
0.0
  0
VERTEX
  5
38697
  8
0
 10
404.2701854486404
 20
542.97961255541941
 30
0.0
  0
VERTEX
  5
38698
  8
0
 10
405.48930660618407
 20
543.0942228941725
 30
0.0
  0
VERTEX
  5
38699
  8
0
 10
406.65412294933498
 20
543.15099747795693
 30
0.0
  0
VERTEX
  5
3869A
  8
0
 10
407.23428809197412
 20
543.15818761157686
 30
0.0
  0
SEQEND
  5
3869B
  8
0
  0
LINE
  5
34446
  8
0
 10
402.53428809197419
 20
487.65818761157692
 30
0.0
 11
402.53428809197419
 21
490.15818761157692
 31
0.0
  0
LINE
  5
34447
  8
0
 10
402.53428809197419
 20
533.54263816943649
 30
0.0
 11
402.53428809197419
 21
537.65818761157686
 31
0.0
  0
LINE
  5
34448
  8
1
 10
477.00928809197421
 20
490.15818761157692
 30
0.0
 11
486.45928809197397
 21
490.15818761157692
 31
0.0
  0
LINE
  5
34449
  8
1
 10
481.73428809197412
 20
485.43318761157713
 30
0.0
 11
481.73428809197412
 21
494.88318761157677
 31
0.0
  0
LINE
  5
3444A
  8
1
 10
479.5092880919741
 20
482.65818761157698
 30
0.0
 11
488.95928809197397
 21
482.65818761157698
 31
0.0
  0
LINE
  5
3444B
  8
1
 10
484.23428809197412
 20
477.93318761157713
 30
0.0
 11
484.23428809197412
 21
487.38318761157689
 31
0.0
  0
LINE
  5
3444C
  8
1
 10
477.00928809197421
 20
535.15818761157686
 30
0.0
 11
486.45928809197397
 21
535.15818761157686
 31
0.0
  0
LINE
  5
3444D
  8
1
 10
481.73428809197412
 20
530.43318761157695
 30
0.0
 11
481.73428809197412
 21
539.88318761157677
 31
0.0
  0
LINE
  5
3444E
  8
1
 10
479.5092880919741
 20
542.65818761157686
 30
0.0
 11
488.95928809197397
 21
542.65818761157686
 31
0.0
  0
LINE
  5
3444F
  8
1
 10
484.23428809197412
 20
537.93318761157695
 30
0.0
 11
484.23428809197412
 21
547.38318761157677
 31
0.0
  0
LINE
  5
34450
  8
0
 10
402.00928809197421
 20
490.15818761157692
 30
0.0
 11
411.23428809197412
 21
490.15818761157692
 31
0.0
  0
LINE
  5
34451
  8
0
 10
488.5033629332014
 20
484.08121255865262
 30
0.0
 11
486.00336293320152
 21
491.58121255865251
 31
0.0
  0
ARC
  5
34452
  8
0
 10
481.73428809197412
 20
490.15818761157692
 30
0.0
 40
4.499999999999968
 50
18.434948822913771
 51
198.4349488229137
  0
LINE
  5
34453
  8
0
 10
477.46521325074667
 20
488.73516266450122
 30
0.0
 11
479.96521325074667
 21
481.23516266450127
 31
0.0
  0
ARC
  5
34454
  8
0
 10
484.23428809197412
 20
482.65818761157698
 30
0.0
 40
4.499999999999968
 50
198.4349488229137
 51
18.434948822913771
  0
LINE
  5
34455
  8
0
 10
479.96521325074667
 20
544.08121255865262
 30
0.0
 11
477.46521325074667
 21
536.58121255865262
 31
0.0
  0
ARC
  5
34456
  8
0
 10
481.73428809197412
 20
535.15818761157686
 30
0.0
 40
4.4999999999999938
 50
161.56505117708619
 51
341.56505117708622
  0
LINE
  5
34457
  8
0
 10
486.00336293320152
 20
533.73516266450133
 30
0.0
 11
488.5033629332014
 21
541.23516266450133
 31
0.0
  0
ARC
  5
34458
  8
0
 10
484.23428809197412
 20
542.65818761157686
 30
0.0
 40
4.4999999999999929
 50
341.56505117708622
 51
161.56505117708619
  0
LINE
  5
34459
  8
0
 10
402.46521325074667
 20
491.58121255865251
 30
0.0
 11
399.96521325074667
 21
484.08121255865262
 31
0.0
  0
ARC
  5
3445A
  8
0
 10
404.23428809197412
 20
482.65818761157698
 30
0.0
 40
4.4999999999999956
 50
161.56505117708619
 51
341.56505117708622
  0
LINE
  5
3445B
  8
0
 10
408.50336293320152
 20
481.23516266450127
 30
0.0
 11
411.00336293320152
 21
488.73516266450122
 31
0.0
  0
ARC
  5
3445C
  8
0
 10
406.73428809197412
 20
490.15818761157692
 30
0.0
 40
4.4999999999999973
 50
341.56505117708622
 51
161.56505117708619
  0
LINE
  5
3445D
  8
0
 10
411.00336293320152
 20
536.58121255865262
 30
0.0
 11
408.50336293320152
 21
544.08121255865262
 31
0.0
  0
ARC
  5
3445E
  8
0
 10
404.23428809197412
 20
542.65818761157686
 30
0.0
 40
4.5
 50
18.434948822913771
 51
198.4349488229137
  0
LINE
  5
3445F
  8
0
 10
399.96521325074667
 20
541.23516266450133
 30
0.0
 11
402.46521325074667
 21
533.73516266450133
 31
0.0
  0
ARC
  5
34460
  8
0
 10
406.73428809197412
 20
535.15818761157686
 30
0.0
 40
4.4999999999999956
 50
198.4349488229137
 51
18.434948822913771
  0
LINE
  5
34461
  8
0
 10
410.64437124889349
 20
537.65818761157686
 30
0.0
 11
401.15753826838812
 21
537.65818761157686
 31
0.0
  0
LINE
  5
34462
  8
0
 10
410.64437124889349
 20
487.65818761157692
 30
0.0
 11
401.15753826838812
 21
487.65818761157692
 31
0.0
  0
LINE
  5
34463
  8
1
 10
411.45928809197397
 20
490.15818761157692
 30
0.0
 11
402.00928809197421
 21
490.15818761157692
 31
0.0
  0
LINE
  5
34464
  8
1
 10
406.73428809197412
 20
485.43318761157713
 30
0.0
 11
406.73428809197412
 21
494.88318761157677
 31
0.0
  0
LINE
  5
34465
  8
1
 10
408.95928809197397
 20
482.65818761157698
 30
0.0
 11
399.50928809197421
 21
482.65818761157698
 31
0.0
  0
LINE
  5
34466
  8
1
 10
404.23428809197412
 20
477.93318761157713
 30
0.0
 11
404.23428809197412
 21
487.38318761157689
 31
0.0
  0
LINE
  5
34467
  8
1
 10
411.45928809197397
 20
535.15818761157686
 30
0.0
 11
402.00928809197421
 21
535.15818761157686
 31
0.0
  0
LINE
  5
34468
  8
1
 10
406.73428809197412
 20
530.43318761157695
 30
0.0
 11
406.73428809197412
 21
539.88318761157677
 31
0.0
  0
LINE
  5
34469
  8
1
 10
408.95928809197397
 20
542.65818761157686
 30
0.0
 11
399.50928809197421
 21
542.65818761157686
 31
0.0
  0
LINE
  5
3446A
  8
1
 10
404.23428809197412
 20
537.93318761157695
 30
0.0
 11
404.23428809197412
 21
547.38318761157677
 31
0.0
  0
LINE
  5
3446B
  8
1
 10
316.86037945352291
 20
512.41714282356816
 30
0.0
 11
506.92319574656761
 21
512.41714282356816
 31
0.0
  0
LINE
  5
3446C
  8
1
 10
444.23428809197412
 20
454.76983383688872
 30
0.0
 11
444.23428809197412
 21
570.06445181024765
 31
0.0
  0
CIRCLE
  5
3446D
  8
0
 10
444.23428809197412
 20
512.41714282356861
 30
0.0
 40
8.9249999999999972
  0
CIRCLE
  5
3446E
  8
0
 10
444.23428809197412
 20
512.41714282356861
 30
0.0
 40
13.57900689360916
  0
CIRCLE
  5
3446F
  8
0
 10
444.23428809197412
 20
512.41714282356861
 30
0.0
 40
20.175000000000001
  0
CIRCLE
  5
34470
  8
0
 10
444.23428809197412
 20
512.41714282356861
 30
0.0
 40
23.802288713680468
  0
CIRCLE
  5
34471
  8
0
 10
444.23428809197412
 20
512.41714282356861
 30
0.0
 40
25.66854682270689
  0
CIRCLE
  5
34472
  8
0
 10
444.23428809197412
 20
512.41714282356861
 30
0.0
 40
27.175000000000178
  0
CIRCLE
  5
34473
  8
0
 10
444.23428809197412
 20
512.41714282356861
 30
0.0
 40
31.175000000000001
  0
LINE
  5
34474
  8
0
 10
401.8144124399559
 20
240.39482642444091
 30
0.0
 11
403.62103765729529
 21
237.2656597577743
 31
0.0
  0
LINE
  5
34475
  8
0
 10
403.62103765729529
 20
249.7823264244407
 30
0.0
 11
400.00778722261663
 21
243.52399309110751
 31
0.0
  0
LINE
  5
34476
  8
0
 10
400.00778722261663
 20
243.52399309110751
 30
0.0
 11
403.62103765729529
 21
237.2656597577743
 31
0.0
  0
LINE
  5
34477
  8
0
 10
403.62103765729529
 20
237.2656597577743
 30
0.0
 11
410.84753852665199
 21
237.2656597577743
 31
0.0
  0
LINE
  5
34478
  8
0
 10
414.46078896133082
 20
243.52399309110751
 30
0.0
 11
410.84753852665199
 21
249.7823264244407
 31
0.0
  0
LINE
  5
34479
  8
0
 10
410.84753852665199
 20
237.2656597577743
 30
0.0
 11
414.46078896133082
 21
243.52399309110751
 31
0.0
  0
LINE
  5
3447A
  8
0
 10
410.84753852665199
 20
249.7823264244407
 30
0.0
 11
403.62103765729529
 21
249.7823264244407
 31
0.0
  0
CIRCLE
  5
3447B
  8
0
 10
407.23428809197372
 20
243.52399309110751
 30
0.0
 40
6.2583333333333391
  0
LINE
  5
3447C
  8
1
 10
319.54538043738103
 20
243.52399309110709
 30
0.0
 11
494.92319574656722
 21
243.52399309110709
 31
0.0
  0
LINE
  5
3447D
  8
1
 10
407.23428809197412
 20
155.83508543651391
 30
0.0
 11
407.23428809197412
 21
321.55283580903779
 31
0.0
  0
LINE
  5
34484
  8
3
 10
701.28514249370119
 20
246.7569930911072
 30
0.0
 11
699.28514249370107
 21
246.7569930911072
 31
0.0
  0
LINE
  5
34485
  8
3
 10
701.28514249370119
 20
240.29099309110691
 30
0.0
 11
699.28514249370107
 21
240.29099309110691
 31
0.0
  0
LINE
  5
34486
  8
0
 10
326.75094859036932
 20
528.4386635068845
 30
0.0
 11
326.75094859036932
 21
496.39562214025091
 31
0.0
  0
LINE
  5
34487
  8
0
 10
331.29510885439731
 20
531.41714282356895
 30
0.0
 11
331.29510885439731
 21
493.41714282356901
 31
0.0
  0
LINE
  5
34488
  8
0
 10
343.75094859036972
 20
528.41714282356907
 30
0.0
 11
343.75094859036972
 21
496.41714282356861
 31
0.0
  0
LINE
  5
34489
  8
0
 10
346.75094859036972
 20
531.41714282356895
 30
0.0
 11
328.345058288985
 21
531.41714282356895
 31
0.0
  0
LINE
  5
3448A
  8
0
 10
343.75094859036972
 20
528.41714282356907
 30
0.0
 11
346.75094859036972
 21
528.41714282356907
 31
0.0
  0
LINE
  5
3448B
  8
0
 10
346.75094859036972
 20
493.41714282356901
 30
0.0
 11
328.345058288985
 21
493.41714282356901
 31
0.0
  0
LINE
  5
3448C
  8
0
 10
343.75094859037063
 20
496.41714282356861
 30
0.0
 11
346.75094859037063
 21
496.41714282356901
 31
0.0
  0
ARC
  5
3448D
  8
0
 10
331.087387984011
 20
528.03359179712368
 30
0.0
 40
4.3553174057440378
 50
129.0243741561732
 51
174.66342214693049
  0
ARC
  5
3448E
  8
0
 10
331.0873879840106
 20
496.80069385001377
 30
0.0
 40
4.3553174057440378
 50
185.33657785301639
 51
230.9756258438268
  0
LINE
  5
3448F
  8
0
 10
326.75094859036972
 20
324.64634592711542
 30
0.0
 11
329.96488663880251
 21
320.81612371151999
 31
0.0
  0
LINE
  5
34490
  8
0
 10
328.66605969816692
 20
326.25331495133202
 30
0.0
 11
326.75094859036972
 21
324.64634592711542
 31
0.0
  0
LINE
  5
34491
  8
0
 10
331.29510885439731
 20
323.12013617428778
 30
0.0
 11
328.66605969816692
 21
326.25331495133202
 31
0.0
  0
LINE
  5
34492
  8
0
 10
347.46051529000079
 20
320.87585411672347
 30
0.0
 11
331.29510885439731
 21
323.12013617428778
 31
0.0
  0
LINE
  5
34493
  8
0
 10
346.77708290342571
 20
323.42645850696141
 30
0.0
 11
346.47154126079971
 21
323.60582725909632
 31
0.0
  0
LINE
  5
34494
  8
0
 10
329.96488663880251
 20
320.81612371151999
 30
0.0
 11
348.17445333843352
 21
318.21140104651658
 31
0.0
  0
LINE
  5
34495
  8
0
 10
344.20532887082072
 20
327.38245403234851
 30
0.0
 11
346.74936256433648
 21
327.03213068690729
 31
0.0
  0
LINE
  5
34496
  8
0
 10
343.75441057872098
 20
324.27201333823632
 30
0.0
 11
344.20532887082072
 21
327.38245403234851
 31
0.0
  0
LINE
  5
34497
  8
0
 10
346.40579017850041
 20
323.98488252886273
 30
0.0
 11
346.74936256433648
 21
327.03213068690729
 31
0.0
  0
LINE
  5
34498
  8
0
 10
343.75441057872098
 20
324.27201333823632
 30
0.0
 11
344.49235757127423
 21
321.28793055530241
 31
0.0
  0
LINE
  5
34499
  8
0
 10
346.40579017850041
 20
323.98488252886273
 30
0.0
 11
346.47154126079971
 21
323.60582725909632
 31
0.0
  0
LINE
  5
3449A
  8
0
 10
173.1834336902466
 20
249.3389930911076
 30
0.0
 11
173.78343369024671
 21
249.3389930911076
 31
0.0
  0
POLYLINE
  5
3449B
  8
0
 66
     1
 10
0.0
 20
0.0
 30
0.0
  0
VERTEX
  5
3869C
  8
0
 10
174.04285339966211
 20
243.52399309110751
 30
0.0
  0
VERTEX
  5
3869D
  8
0
 10
173.96200874640411
 20
244.08617156922219
 30
0.0
  0
VERTEX
  5
3869E
  8
0
 10
173.84739840765079
 20
245.14196146194629
 30
0.0
  0
VERTEX
  5
3869F
  8
0
 10
173.7906238238665
 20
246.1507220058584
 30
0.0
  0
VERTEX
  5
386A0
  8
0
 10
173.78343369024671
 20
246.65315975777409
 30
0.0
  0
SEQEND
  5
386A1
  8
0
  0
POLYLINE
  5
3449C
  8
0
 66
     1
 10
0.0
 20
0.0
 30
0.0
  0
VERTEX
  5
386A2
  8
0
 10
173.78343369024671
 20
246.65315975777409
 30
0.0
  0
VERTEX
  5
386A3
  8
0
 10
173.7906238238665
 20
247.1555975096899
 30
0.0
  0
VERTEX
  5
386A4
  8
0
 10
173.84739840765079
 20
248.164358053602
 30
0.0
  0
VERTEX
  5
386A5
  8
0
 10
173.96200874640411
 20
249.22014794632611
 30
0.0
  0
VERTEX
  5
386A6
  8
0
 10
174.04285339966211
 20
249.7823264244407
 30
0.0
  0
SEQEND
  5
386A7
  8
0
  0
POLYLINE
  5
3449D
  8
0
 66
     1
 10
0.0
 20
0.0
 30
0.0
  0
VERTEX
  5
386A8
  8
0
 10
174.04285339966211
 20
237.2656597577743
 30
0.0
  0
VERTEX
  5
386A9
  8
0
 10
173.96200874640411
 20
237.827838235889
 30
0.0
  0
VERTEX
  5
386AA
  8
0
 10
173.84739840765079
 20
238.88362812861311
 30
0.0
  0
VERTEX
  5
386AB
  8
0
 10
173.7906238238665
 20
239.89238867252519
 30
0.0
  0
VERTEX
  5
386AC
  8
0
 10
173.78343369024671
 20
240.39482642444091
 30
0.0
  0
SEQEND
  5
386AD
  8
0
  0
POLYLINE
  5
3449E
  8
0
 66
     1
 10
0.0
 20
0.0
 30
0.0
  0
VERTEX
  5
386AE
  8
0
 10
122.92401398083121
 20
249.7823264244407
 30
0.0
  0
VERTEX
  5
386AF
  8
0
 10
123.0048586340892
 20
249.22014794632611
 30
0.0
  0
VERTEX
  5
386B0
  8
0
 10
123.1194689728422
 20
248.164358053602
 30
0.0
  0
VERTEX
  5
386B1
  8
0
 10
123.1762435566268
 20
247.15559750968939
 30
0.0
  0
VERTEX
  5
386B2
  8
0
 10
123.1834336902466
 20
246.65315975777409
 30
0.0
  0
SEQEND
  5
386B3
  8
0
  0
POLYLINE
  5
3449F
  8
0
 66
     1
 10
0.0
 20
0.0
 30
0.0
  0
VERTEX
  5
386B4
  8
0
 10
123.1834336902466
 20
246.65315975777409
 30
0.0
  0
VERTEX
  5
386B5
  8
0
 10
123.1762435566268
 20
246.1507220058584
 30
0.0
  0
VERTEX
  5
386B6
  8
0
 10
123.1194689728422
 20
245.14196146194629
 30
0.0
  0
VERTEX
  5
386B7
  8
0
 10
123.0048586340892
 20
244.08617156922219
 30
0.0
  0
VERTEX
  5
386B8
  8
0
 10
122.92401398083121
 20
243.52399309110751
 30
0.0
  0
SEQEND
  5
386B9
  8
0
  0
POLYLINE
  5
344A0
  8
0
 66
     1
 10
0.0
 20
0.0
 30
0.0
  0
VERTEX
  5
386BA
  8
0
 10
122.92401398083121
 20
243.52399309110751
 30
0.0
  0
VERTEX
  5
386BB
  8
0
 10
123.0048586340892
 20
242.9618146129929
 30
0.0
  0
VERTEX
  5
386BC
  8
0
 10
123.1194689728422
 20
241.90602472026879
 30
0.0
  0
VERTEX
  5
386BD
  8
0
 10
123.1762435566268
 20
240.8972641763562
 30
0.0
  0
VERTEX
  5
386BE
  8
0
 10
123.1834336902466
 20
240.39482642444091
 30
0.0
  0
SEQEND
  5
386BF
  8
0
  0
POLYLINE
  5
344A1
  8
2
 66
     1
 10
0.0
 20
0.0
 30
0.0
  0
VERTEX
  5
386C0
  8
2
 10
123.1834336902466
 20
240.39482642444091
 30
0.0
  0
VERTEX
  5
386C1
  8
2
 10
123.1762435566268
 20
239.89238867252519
 30
0.0
  0
VERTEX
  5
386C2
  8
2
 10
123.1194689728422
 20
238.88362812861311
 30
0.0
  0
VERTEX
  5
386C3
  8
2
 10
123.0048586340892
 20
237.827838235889
 30
0.0
  0
VERTEX
  5
386C4
  8
2
 10
122.92401398083121
 20
237.2656597577743
 30
0.0
  0
SEQEND
  5
386C5
  8
2
  0
LINE
  5
344A2
  8
0
 10
173.78343369024671
 20
237.70899309110749
 30
0.0
 11
173.1834336902466
 21
237.70899309110749
 31
0.0
  0
LINE
  5
344A3
  8
0
 10
113.9504336902466
 20
247.52399309110751
 30
0.0
 11
115.1834336902466
 21
247.52399309110751
 31
0.0
  0
LINE
  5
344A4
  8
0
 10
115.1834336902466
 20
239.52399309110751
 30
0.0
 11
113.9504336902466
 21
239.52399309110751
 31
0.0
  0
LINE
  5
344A5
  8
0
 10
113.1834336902466
 20
246.7569930911072
 30
0.0
 11
113.9504336902466
 21
247.52399309110751
 31
0.0
  0
LINE
  5
344A6
  8
0
 10
113.9504336902466
 20
239.52399309110751
 30
0.0
 11
113.1834336902466
 21
240.29099309110731
 31
0.0
  0
LINE
  5
344A7
  8
0
 10
125.6834336902466
 20
247.52399309110751
 30
0.0
 11
128.1834336902466
 21
247.52399309110751
 31
0.0
  0
LINE
  5
344A8
  8
0
 10
128.1834336902466
 20
239.52399309110751
 30
0.0
 11
125.6834336902466
 21
239.52399309110751
 31
0.0
  0
LINE
  5
344A9
  8
0
 10
115.1834336902466
 20
249.3389930911076
 30
0.0
 11
117.6834336902466
 21
249.3389930911076
 31
0.0
  0
LINE
  5
344AA
  8
0
 10
117.6834336902466
 20
237.70899309110749
 30
0.0
 11
115.1834336902466
 21
237.70899309110749
 31
0.0
  0
LINE
  5
344AB
  8
0
 10
168.1834336902466
 20
247.52399309110751
 30
0.0
 11
170.6834336902466
 21
247.52399309110751
 31
0.0
  0
LINE
  5
344AC
  8
0
 10
170.6834336902466
 20
239.52399309110751
 30
0.0
 11
168.1834336902466
 21
239.52399309110751
 31
0.0
  0
LINE
  5
344AD
  8
0
 10
113.9504336902466
 20
239.52399309110751
 30
0.0
 11
113.9504336902466
 21
247.52399309110751
 31
0.0
  0
LINE
  5
344AE
  8
0
 10
113.1834336902466
 20
240.29099309110731
 30
0.0
 11
113.1834336902466
 21
246.7569930911072
 31
0.0
  0
LINE
  5
344AF
  8
0
 10
178.4834336902465
 20
237.2656597577743
 30
0.0
 11
178.4834336902465
 21
249.7823264244407
 31
0.0
  0
LINE
  5
344B0
  8
0
 10
173.78343369024671
 20
237.2656597577743
 30
0.0
 11
173.78343369024671
 21
249.7823264244407
 31
0.0
  0
LINE
  5
344B1
  8
0
 10
178.4834336902465
 20
237.2656597577743
 30
0.0
 11
173.78343369024671
 21
237.2656597577743
 31
0.0
  0
POLYLINE
  5
344B2
  8
0
 66
     1
 10
0.0
 20
0.0
 30
0.0
  0
VERTEX
  5
386C6
  8
0
 10
178.2240139808311
 20
243.52399309110751
 30
0.0
  0
VERTEX
  5
386C7
  8
0
 10
178.30485863408919
 20
244.08617156922219
 30
0.0
  0
VERTEX
  5
386C8
  8
0
 10
178.4194689728424
 20
245.14196146194629
 30
0.0
  0
VERTEX
  5
386C9
  8
0
 10
178.47624355662671
 20
246.1507220058584
 30
0.0
  0
VERTEX
  5
386CA
  8
0
 10
178.4834336902465
 20
246.65315975777409
 30
0.0
  0
SEQEND
  5
386CB
  8
0
  0
POLYLINE
  5
344B3
  8
0
 66
     1
 10
0.0
 20
0.0
 30
0.0
  0
VERTEX
  5
386CC
  8
0
 10
178.4834336902465
 20
246.65315975777409
 30
0.0
  0
VERTEX
  5
386CD
  8
0
 10
178.47624355662671
 20
247.15559750968939
 30
0.0
  0
VERTEX
  5
386CE
  8
0
 10
178.4194689728424
 20
248.164358053602
 30
0.0
  0
VERTEX
  5
386CF
  8
0
 10
178.30485863408919
 20
249.22014794632611
 30
0.0
  0
VERTEX
  5
386D0
  8
0
 10
178.2240139808311
 20
249.7823264244407
 30
0.0
  0
SEQEND
  5
386D1
  8
0
  0
POLYLINE
  5
344B5
  8
0
 66
     1
 10
0.0
 20
0.0
 30
0.0
  0
VERTEX
  5
386D2
  8
0
 10
178.2240139808311
 20
237.2656597577743
 30
0.0
  0
VERTEX
  5
386D3
  8
0
 10
178.30485863408919
 20
237.827838235889
 30
0.0
  0
VERTEX
  5
386D4
  8
0
 10
178.4194689728424
 20
238.88362812861311
 30
0.0
  0
VERTEX
  5
386D5
  8
0
 10
178.47624355662671
 20
239.89238867252519
 30
0.0
  0
VERTEX
  5
386D6
  8
0
 10
178.4834336902465
 20
240.39482642444091
 30
0.0
  0
SEQEND
  5
386D7
  8
0
  0
POLYLINE
  5
344B6
  8
0
 66
     1
 10
0.0
 20
0.0
 30
0.0
  0
VERTEX
  5
386D8
  8
0
 10
178.4834336902465
 20
240.39482642444091
 30
0.0
  0
VERTEX
  5
386D9
  8
0
 10
178.47624355662671
 20
240.8972641763562
 30
0.0
  0
VERTEX
  5
386DA
  8
0
 10
178.4194689728424
 20
241.90602472026879
 30
0.0
  0
VERTEX
  5
386DB
  8
0
 10
178.30485863408919
 20
242.9618146129929
 30
0.0
  0
VERTEX
  5
386DC
  8
0
 10
178.2240139808311
 20
243.52399309110751
 30
0.0
  0
SEQEND
  5
386DD
  8
0
  0
LINE
  5
344B7
  8
0
 10
178.2240139808311
 20
243.52399309110751
 30
0.0
 11
174.04285339966211
 21
243.52399309110751
 31
0.0
  0
POLYLINE
  5
344B8
  8
0
 66
     1
 10
0.0
 20
0.0
 30
0.0
  0
VERTEX
  5
386DE
  8
0
 10
174.04285339966211
 20
243.52399309110751
 30
0.0
  0
VERTEX
  5
386DF
  8
0
 10
173.96200874640411
 20
242.9618146129929
 30
0.0
  0
VERTEX
  5
386E0
  8
0
 10
173.84739840765079
 20
241.90602472026879
 30
0.0
  0
VERTEX
  5
386E1
  8
0
 10
173.7906238238665
 20
240.8972641763562
 30
0.0
  0
VERTEX
  5
386E2
  8
0
 10
173.78343369024671
 20
240.39482642444091
 30
0.0
  0
SEQEND
  5
386E3
  8
0
  0
LINE
  5
344B9
  8
0
 10
178.4834336902465
 20
249.7823264244407
 30
0.0
 11
173.78343369024671
 21
249.7823264244407
 31
0.0
  0
LINE
  5
344BA
  8
0
 10
115.1834336902466
 20
237.70899309110749
 30
0.0
 11
115.1834336902466
 21
249.3389930911076
 31
0.0
  0
LINE
  5
344BB
  8
0
 10
117.6834336902466
 20
237.2656597577743
 30
0.0
 11
117.6834336902466
 21
249.7823264244407
 31
0.0
  0
LINE
  5
344BC
  8
0
 10
123.1834336902466
 20
237.2656597577743
 30
0.0
 11
117.6834336902466
 21
237.2656597577743
 31
0.0
  0
POLYLINE
  5
344BD
  8
0
 66
     1
 10
0.0
 20
0.0
 30
0.0
  0
VERTEX
  5
386E4
  8
0
 10
117.6834336902466
 20
246.65315975777409
 30
0.0
  0
VERTEX
  5
386E5
  8
0
 10
117.6906238238666
 20
246.1507220058584
 30
0.0
  0
VERTEX
  5
386E6
  8
0
 10
117.74739840765091
 20
245.14196146194629
 30
0.0
  0
VERTEX
  5
386E7
  8
0
 10
117.8620087464039
 20
244.08617156922219
 30
0.0
  0
VERTEX
  5
386E8
  8
0
 10
117.9428533996622
 20
243.52399309110751
 30
0.0
  0
SEQEND
  5
386E9
  8
0
  0
POLYLINE
  5
344BE
  8
0
 66
     1
 10
0.0
 20
0.0
 30
0.0
  0
VERTEX
  5
386EA
  8
0
 10
117.9428533996622
 20
249.7823264244407
 30
0.0
  0
VERTEX
  5
386EB
  8
0
 10
117.8620087464039
 20
249.22014794632611
 30
0.0
  0
VERTEX
  5
386EC
  8
0
 10
117.74739840765091
 20
248.164358053602
 30
0.0
  0
VERTEX
  5
386ED
  8
0
 10
117.6906238238666
 20
247.15559750968939
 30
0.0
  0
VERTEX
  5
386EE
  8
0
 10
117.6834336902466
 20
246.65315975777409
 30
0.0
  0
SEQEND
  5
386EF
  8
0
  0
POLYLINE
  5
344BF
  8
0
 66
     1
 10
0.0
 20
0.0
 30
0.0
  0
VERTEX
  5
386F0
  8
0
 10
117.6834336902466
 20
240.39482642444091
 30
0.0
  0
VERTEX
  5
386F1
  8
0
 10
117.6906238238666
 20
239.89238867252519
 30
0.0
  0
VERTEX
  5
386F2
  8
0
 10
117.74739840765091
 20
238.88362812861311
 30
0.0
  0
VERTEX
  5
386F3
  8
0
 10
117.8620087464039
 20
237.827838235889
 30
0.0
  0
VERTEX
  5
386F4
  8
0
 10
117.9428533996622
 20
237.2656597577743
 30
0.0
  0
SEQEND
  5
386F5
  8
0
  0
POLYLINE
  5
344C0
  8
0
 66
     1
 10
0.0
 20
0.0
 30
0.0
  0
VERTEX
  5
386F6
  8
0
 10
122.92401398083121
 20
237.2656597577743
 30
0.0
  0
VERTEX
  5
386F7
  8
0
 10
123.0048586340879
 20
237.82783823587761
 30
0.0
  0
VERTEX
  5
386F8
  8
0
 10
123.1194689728397
 20
238.88362812858171
 30
0.0
  0
VERTEX
  5
386F9
  8
0
 10
123.1762435566252
 20
239.8923886724742
 30
0.0
  0
VERTEX
  5
386FA
  8
0
 10
123.1834336902466
 20
240.39482642437909
 30
0.0
  0
SEQEND
  5
386FB
  8
0
  0
LINE
  5
344C1
  8
0
 10
122.92401398083121
 20
243.52399309110751
 30
0.0
 11
117.9428533996622
 21
243.52399309110751
 31
0.0
  0
POLYLINE
  5
344C2
  8
0
 66
     1
 10
0.0
 20
0.0
 30
0.0
  0
VERTEX
  5
386FC
  8
0
 10
117.9428533996622
 20
243.52399309110751
 30
0.0
  0
VERTEX
  5
386FD
  8
0
 10
117.8620087464039
 20
242.9618146129929
 30
0.0
  0
VERTEX
  5
386FE
  8
0
 10
117.74739840765091
 20
241.90602472026879
 30
0.0
  0
VERTEX
  5
386FF
  8
0
 10
117.6906238238666
 20
240.8972641763562
 30
0.0
  0
VERTEX
  5
38700
  8
0
 10
117.6834336902466
 20
240.39482642444091
 30
0.0
  0
SEQEND
  5
38701
  8
0
  0
LINE
  5
344C3
  8
0
 10
117.6834336902466
 20
249.7823264244407
 30
0.0
 11
123.1834336902466
 21
249.7823264244407
 31
0.0
  0
LINE
  5
344C4
  8
0
 10
123.1834336902466
 20
336.72399309110727
 30
0.0
 11
173.1834336902466
 21
336.72399309110727
 31
0.0
  0
LINE
  5
344C5
  8
0
 10
123.1834336902466
 20
233.52399309110751
 30
0.0
 11
123.1834336902466
 21
336.72399309110727
 31
0.0
  0
LINE
  5
344C6
  8
0
 10
173.1834336902466
 20
336.72399309110727
 30
0.0
 11
173.1834336902466
 21
233.52399309110751
 31
0.0
  0
LINE
  5
344C8
  8
0
 10
113.3834336902466
 20
347.22399309110727
 30
0.0
 11
113.3834336902466
 21
348.02399309110751
 31
0.0
  0
LINE
  5
344C9
  8
0
 10
182.9834336902465
 20
348.02399309110751
 30
0.0
 11
182.9834336902465
 21
347.22399309110727
 31
0.0
  0
LINE
  5
344CA
  8
0
 10
113.6822130262685
 20
338.72399309110727
 30
0.0
 11
112.1834336902466
 21
347.22399309110727
 31
0.0
  0
LINE
  5
344CB
  8
0
 10
184.1834336902466
 20
347.22399309110727
 30
0.0
 11
182.6846543542247
 21
338.72399309110727
 31
0.0
  0
LINE
  5
344CC
  8
0
 10
115.1834336902466
 20
277.96397055309939
 30
0.0
 11
115.1834336902466
 21
338.72399309110727
 31
0.0
  0
LINE
  5
344CD
  8
0
 10
181.1834336902466
 20
338.72399309110727
 30
0.0
 11
181.1834336902466
 21
277.96397055309939
 31
0.0
  0
LINE
  5
344CE
  8
0
 10
105.63166629367601
 20
350.52399309110751
 30
0.0
 11
105.63166629367601
 21
348.02399309110751
 31
0.0
  0
LINE
  5
344CF
  8
0
 10
190.63166629367601
 20
350.52399309110751
 30
0.0
 11
105.63166629367601
 21
350.52399309110751
 31
0.0
  0
LINE
  5
344D0
  8
0
 10
190.63166629367601
 20
348.02399309110751
 30
0.0
 11
105.63166629367601
 21
348.02399309110751
 31
0.0
  0
LINE
  5
344D1
  8
0
 10
190.6834336902466
 20
350.52399309110751
 30
0.0
 11
190.6834336902466
 21
348.02399309110751
 31
0.0
  0
LINE
  5
344D2
  8
0
 10
184.1834336902466
 20
347.22399309110727
 30
0.0
 11
112.1834336902466
 21
347.22399309110727
 31
0.0
  0
LINE
  5
344D3
  8
0
 10
182.6846543542247
 20
338.72399309110727
 30
0.0
 11
113.6822130262685
 21
338.72399309110727
 31
0.0
  0
LINE
  5
344D4
  8
0
 10
173.1834336902466
 20
233.52399309110751
 30
0.0
 11
170.6834336902466
 21
233.52399309110751
 31
0.0
  0
POLYLINE
  5
344D5
  8
0
 66
     1
 10
0.0
 20
0.0
 30
0.0
  0
VERTEX
  5
38702
  8
0
 10
176.53049654209369
 20
249.7823264244407
 30
0.0
  0
VERTEX
  5
38703
  8
0
 10
176.5991167028082
 20
249.96774989382769
 30
0.0
  0
VERTEX
  5
38704
  8
0
 10
177.23974489139769
 20
251.86239389322921
 30
0.0
  0
VERTEX
  5
38705
  8
0
 10
177.8350177038958
 20
253.79778108325081
 30
0.0
  0
VERTEX
  5
38706
  8
0
 10
178.38400595069879
 20
255.77089042611209
 30
0.0
  0
VERTEX
  5
38707
  8
0
 10
178.88585268998011
 20
257.77864200173423
 30
0.0
  0
VERTEX
  5
38708
  8
0
 10
179.11885028676261
 20
258.79453123253052
 30
0.0
  0
VERTEX
  5
38709
  8
0
 10
179.33977456533049
 20
259.81790181533012
 30
0.0
  0
VERTEX
  5
3870A
  8
0
 10
179.74506302853749
 20
261.88548668940888
 30
0.0
  0
VERTEX
  5
3870B
  8
0
 10
180.1010854455908
 20
263.97816923254732
 30
0.0
  0
VERTEX
  5
3870C
  8
0
 10
180.4072860841911
 20
266.09268287717799
 30
0.0
  0
VERTEX
  5
3870D
  8
0
 10
180.66318698122041
 20
268.22572697853138
 30
0.0
  0
VERTEX
  5
3870E
  8
0
 10
180.86838868881449
 20
270.37397196676699
 30
0.0
  0
VERTEX
  5
3870F
  8
0
 10
180.95187414410469
 20
271.45274767191592
 30
0.0
  0
VERTEX
  5
38710
  8
0
 10
181.02257089788321
 20
272.53406454425931
 30
0.0
  0
VERTEX
  5
38711
  8
0
 10
181.1254929380936
 20
274.70263291991711
 30
0.0
  0
VERTEX
  5
38712
  8
0
 10
181.17699415354539
 20
276.87629207237302
 30
0.0
  0
VERTEX
  5
38713
  8
0
 10
181.1834336902466
 20
277.96397055309939
 30
0.0
  0
SEQEND
  5
38714
  8
0
  0
POLYLINE
  5
344D6
  8
0
 66
     1
 10
0.0
 20
0.0
 30
0.0
  0
VERTEX
  5
38715
  8
0
 10
115.1834336902466
 20
277.96397055309939
 30
0.0
  0
VERTEX
  5
38716
  8
0
 10
115.1898732269478
 20
276.87629207237302
 30
0.0
  0
VERTEX
  5
38717
  8
0
 10
115.2413744423997
 20
274.70263291991711
 30
0.0
  0
VERTEX
  5
38718
  8
0
 10
115.3442964826101
 20
272.53406454425931
 30
0.0
  0
VERTEX
  5
38719
  8
0
 10
115.4149932363884
 20
271.45274767191592
 30
0.0
  0
VERTEX
  5
3871A
  8
0
 10
115.4984786916786
 20
270.37397196676699
 30
0.0
  0
VERTEX
  5
3871B
  8
0
 10
115.703680399273
 20
268.22572697853138
 30
0.0
  0
VERTEX
  5
3871C
  8
0
 10
115.9595812963021
 20
266.09268287717799
 30
0.0
  0
VERTEX
  5
3871D
  8
0
 10
116.26578193490261
 20
263.97816923254732
 30
0.0
  0
VERTEX
  5
3871E
  8
0
 10
116.6218043519557
 20
261.88548668940888
 30
0.0
  0
VERTEX
  5
3871F
  8
0
 10
117.0270928151626
 20
259.81790181533012
 30
0.0
  0
VERTEX
  5
38720
  8
0
 10
117.2480170937306
 20
258.79453123253052
 30
0.0
  0
VERTEX
  5
38721
  8
0
 10
117.48101469051311
 20
257.77864200173423
 30
0.0
  0
VERTEX
  5
38722
  8
0
 10
117.9828614297944
 20
255.77089042611209
 30
0.0
  0
VERTEX
  5
38723
  8
0
 10
118.5318496765976
 20
253.79778108325081
 30
0.0
  0
VERTEX
  5
38724
  8
0
 10
119.1271224890956
 20
251.86239389322921
 30
0.0
  0
VERTEX
  5
38725
  8
0
 10
119.7677506776849
 20
249.96774989382769
 30
0.0
  0
VERTEX
  5
38726
  8
0
 10
119.8363708383995
 20
249.7823264244407
 30
0.0
  0
SEQEND
  5
38727
  8
0
  0
LINE
  5
344D7
  8
0
 10
125.6834336902466
 20
233.52399309110751
 30
0.0
 11
123.1834336902466
 21
233.52399309110751
 31
0.0
  0
LINE
  5
344D8
  8
0
 10
170.6834336902466
 20
233.52399309110751
 30
0.0
 11
170.6834336902466
 21
323.8842030173933
 31
0.0
  0
LINE
  5
344D9
  8
0
 10
125.6834336902468
 20
323.8842030173933
 30
0.0
 11
125.6834336902466
 21
233.52399309110751
 31
0.0
  0
LINE
  5
344DB
  8
0
 10
151.13166629367601
 20
168.52399309110751
 30
0.0
 11
145.13166629367601
 21
168.52399309110751
 31
0.0
  0
ARC
  5
344DC
  8
0
 10
145.13166629367601
 20
168.82399309110721
 30
0.0
 40
0.3000000000000114
 50
180.0
 51
270.0
  0
LINE
  5
344DF
  8
0
 10
144.83166629367611
 20
168.82399309110721
 30
0.0
 11
142.43166629367599
 21
168.82399309110721
 31
0.0
  0
ARC
  5
344E0
  8
0
 10
142.13166629367601
 20
168.82399309110721
 30
0.0
 40
0.3000000000000034
 50
270.0
 51
0.0
  0
LINE
  5
344E3
  8
0
 10
142.13166629367601
 20
168.52399309110751
 30
0.0
 11
139.17478776026309
 21
168.52399309110751
 31
0.0
  0
ARC
  5
344E4
  8
0
 10
139.17478776026309
 20
169.52399309110751
 30
0.0
 40
1.000000000000014
 50
198.99999999998761
 51
270.0
  0
ARC
  5
344E7
  8
0
 10
139.01501455625839
 20
176.2814585778828
 30
0.0
 40
3.0000000000000391
 50
179.99999914622629
 51
198.99999999998761
  0
ARC
  5
344E9
  8
0
 10
135.34834788959159
 20
177.71557133575561
 30
0.0
 40
0.6666666666666661
 50
180.0
 51
0.0
  0
ARC
  5
344EB
  8
0
 10
134.01501455625839
 20
181.58785250599021
 30
0.0
 40
0.6666666666666661
 50
180.0
 51
0.0
  0
LINE
  5
344ED
  8
0
 10
128.34687796344861
 20
288.99866972723481
 30
0.0
 11
133.34834788959159
 21
303.52399309110751
 31
0.0
  0
LINE
  5
344EE
  8
0
 10
133.34834788959159
 20
183.52399309110751
 30
0.0
 11
128.34687796344861
 21
198.04931645498019
 31
0.0
  0
ARC
  5
344EF
  8
0
 10
131.1834336902466
 20
199.02602091835161
 30
0.0
 40
2.9999999999999192
 50
180.0
 51
198.99999999998761
  0
ARC
  5
344F0
  8
0
 10
131.1834336902466
 20
288.02196526386302
 30
0.0
 40
2.9999999999999138
 50
161.00000000001231
 51
180.0
  0
ARC
  5
344F1
  8
0
 10
165.1834336902466
 20
199.02602091835161
 30
0.0
 40
2.99999999999996
 50
341.00000000001239
 51
0.0
  0
ARC
  5
344F2
  8
0
 10
165.1834336902466
 20
288.02196526386302
 30
0.0
 40
2.9999999999999609
 50
0.0
 51
18.999999999987629
  0
LINE
  5
344F3
  8
0
 10
163.0185194909017
 20
303.52399309110751
 30
0.0
 11
168.0199894170446
 21
288.99866972723481
 31
0.0
  0
LINE
  5
344F4
  8
0
 10
168.0199894170446
 20
198.04931645498019
 30
0.0
 11
163.0185194909017
 21
183.52399309110751
 31
0.0
  0
ARC
  5
344F5
  8
0
 10
162.35185282423501
 20
181.58785250599021
 30
0.0
 40
0.6666666666666661
 50
180.0
 51
0.0
  0
ARC
  5
344F7
  8
0
 10
161.01851949090181
 20
177.71557133575561
 30
0.0
 40
0.6666666666666679
 50
180.0
 51
0.0
  0
ARC
  5
344F9
  8
0
 10
157.35185282423521
 20
176.2814585778828
 30
0.0
 40
2.9999999999998268
 50
341.00000000001239
 51
0.0
  0
ARC
  5
344FC
  8
0
 10
157.08854482708921
 20
169.52399309110751
 30
0.0
 40
1.000000000000014
 50
270.0
 51
341.00000000001239
  0
LINE
  5
344FF
  8
0
 10
157.08854482708921
 20
168.52399309110751
 30
0.0
 11
154.13166629367601
 21
168.52399309110751
 31
0.0
  0
ARC
  5
34500
  8
0
 10
154.13166629367601
 20
168.82399309110721
 30
0.0
 40
0.3000000000000114
 50
180.0
 51
270.0
  0
LINE
  5
34503
  8
0
 10
153.83166629367611
 20
168.82399309110721
 30
0.0
 11
151.43166629367599
 21
168.82399309110721
 31
0.0
  0
ARC
  5
34504
  8
0
 10
151.13166629367601
 20
168.82399309110721
 30
0.0
 40
0.3000000000000038
 50
270.0
 51
0.0
  0
LINE
  5
34506
  8
0
 10
144.83166629367611
 20
168.82399309110721
 30
0.0
 11
144.83166629367611
 21
318.21140104651607
 31
0.0
  0
LINE
  5
34507
  8
0
 10
142.43166629367599
 20
168.82399309110721
 30
0.0
 11
142.43166629367579
 21
318.21140104651658
 31
0.0
  0
LINE
  5
34508
  8
0
 10
136.01501455625839
 20
176.2814585778828
 30
0.0
 11
136.01501455625839
 21
310.76652760433223
 31
0.0
  0
LINE
  5
34509
  8
0
 10
134.68168122292491
 20
177.71557133575561
 30
0.0
 11
134.68168122292491
 21
309.3324148464589
 31
0.0
  0
LINE
  5
3450A
  8
0
 10
133.34834788959159
 20
181.58785250599021
 30
0.0
 11
133.34834788959159
 21
305.46013367622481
 31
0.0
  0
LINE
  5
3450B
  8
0
 10
128.1834336902466
 20
199.02602091835161
 30
0.0
 11
128.1834336902466
 21
288.02196526386302
 31
0.0
  0
LINE
  5
3450C
  8
0
 10
168.1834336902466
 20
199.02602091835161
 30
0.0
 11
168.1834336902466
 21
288.02196526386302
 31
0.0
  0
LINE
  5
3450D
  8
0
 10
163.0185194909017
 20
181.58785250599021
 30
0.0
 11
163.0185194909017
 21
305.46013367622481
 31
0.0
  0
LINE
  5
3450E
  8
0
 10
161.6851861575683
 20
177.71557133575561
 30
0.0
 11
161.6851861575683
 21
309.3324148464589
 31
0.0
  0
LINE
  5
3450F
  8
0
 10
160.35185282423501
 20
176.2814585778828
 30
0.0
 11
160.35185282423501
 21
310.76652760433223
 31
0.0
  0
LINE
  5
34510
  8
0
 10
153.83166629367611
 20
168.82399309110721
 30
0.0
 11
153.83166629367591
 21
318.21140104651607
 31
0.0
  0
LINE
  5
34511
  8
0
 10
151.43166629367599
 20
168.82399309110721
 30
0.0
 11
151.43166629367619
 21
318.21140104651658
 31
0.0
  0
LINE
  5
34512
  8
1
 10
104.3986912434134
 20
243.52399309110751
 30
0.0
 11
191.9681761370793
 21
243.52399309110751
 31
0.0
  0
LINE
  5
34513
  8
1
 10
148.1834336902464
 20
155.83508543651439
 30
0.0
 11
148.1834336902466
 21
363.69499032171871
 31
0.0
  0
LINE
  5
34515
  8
3
 10
113.1834336902466
 20
246.7569930911072
 30
0.0
 11
115.1834336902466
 21
246.7569930911072
 31
0.0
  0
LINE
  5
34516
  8
3
 10
113.1834336902466
 20
240.29099309110731
 30
0.0
 11
115.1834336902466
 21
240.29099309110731
 31
0.0
  0
LINE
  5
34517
  8
0
 10
136.1784588294602
 20
175.30475411451201
 30
0.0
 11
138.22926918466371
 21
169.1984249366501
 31
0.0
  0
LINE
  5
34518
  8
0
 10
160.18840855103321
 20
175.30475411451201
 30
0.0
 11
158.03406340268859
 21
169.1984249366505
 31
0.0
  0
LINE
  5
3451A
  8
0
 10
123.1834336902466
 20
323.98488252886273
 30
0.0
 11
129.1834336902466
 21
323.98488252886273
 31
0.0
  0
ARC
  5
34536
  8
0
 10
139.17478776026309
 20
317.52399309110751
 30
0.0
 40
1.000000000000014
 50
136.5747253035033
 51
161.00000000001231
  0
ARC
  5
34537
  8
0
 10
139.01501455625839
 20
310.76652760433223
 30
0.0
 40
3.0000000000000391
 50
161.00000000001231
 51
180.0000008537736
  0
ARC
  5
34538
  8
0
 10
135.34834788959159
 20
309.33241484645941
 30
0.0
 40
0.6666666666666661
 50
0.0
 51
180.0
  0
ARC
  5
34539
  8
0
 10
134.01501455625839
 20
305.46013367622481
 30
0.0
 40
0.6666666666666661
 50
0.0
 51
180.0
  0
ARC
  5
3453A
  8
0
 10
162.35185282423501
 20
305.46013367622481
 30
0.0
 40
0.6666666666666661
 50
0.0
 51
180.0
  0
ARC
  5
3453B
  8
0
 10
161.01851949090181
 20
309.33241484645941
 30
0.0
 40
0.6666666666666679
 50
0.0
 51
180.0
  0
ARC
  5
3453C
  8
0
 10
157.35185282423521
 20
310.76652760433223
 30
0.0
 40
2.9999999999998268
 50
0.0
 51
18.999999999987629
  0
ARC
  5
3453D
  8
0
 10
157.08854482708921
 20
317.52399309110751
 30
0.0
 40
1.000000000000014
 50
18.999999999987629
 51
43.425274696496679
  0
LINE
  5
34542
  8
0
 10
136.1784588294602
 20
311.7432320677031
 30
0.0
 11
138.22926918466371
 21
317.84956124556493
 31
0.0
  0
LINE
  5
34543
  8
0
 10
160.18840855103321
 20
311.7432320677031
 30
0.0
 11
158.03406340268859
 21
317.84956124556447
 31
0.0
  0
LINE
  5
34544
  8
0
 10
173.1834336902466
 20
310.523993091107
 30
0.0
 11
170.6834336902466
 21
310.523993091107
 31
0.0
  0
LINE
  5
34545
  8
0
 10
125.6834336902468
 20
310.523993091107
 30
0.0
 11
123.1834336902466
 21
310.523993091107
 31
0.0
  0
LINE
  5
34587
  8
0
 10
167.1834336902466
 20
318.21140104651658
 30
0.0
 11
129.1834336902466
 21
318.21140104651658
 31
0.0
  0
LINE
  5
34588
  8
0
 10
167.1834336902466
 20
318.21140104651658
 30
0.0
 11
167.1834336902466
 21
326.25331495133202
 31
0.0
  0
LINE
  5
34589
  8
0
 10
164.1834336902468
 20
326.25331495133202
 30
0.0
 11
164.1834336902468
 21
327.38245403234851
 31
0.0
  0
LINE
  5
3458A
  8
0
 10
167.1834336902466
 20
326.25331495133202
 30
0.0
 11
129.1834336902466
 21
326.25331495133202
 31
0.0
  0
LINE
  5
3458B
  8
0
 10
129.1834336902466
 20
318.21140104651658
 30
0.0
 11
129.1834336902466
 21
326.25331495133202
 31
0.0
  0
LINE
  5
3458C
  8
0
 10
164.1834336902468
 20
327.38245403234851
 30
0.0
 11
132.1834336902464
 21
327.38245403234851
 31
0.0
  0
LINE
  5
3458D
  8
0
 10
132.1834336902464
 20
326.25331495133202
 30
0.0
 11
132.1834336902464
 21
327.38245403234851
 31
0.0
  0
LINE
  5
3458E
  8
0
 10
129.1834336902466
 20
320.81612371151999
 30
0.0
 11
167.1834336902466
 21
320.81612371151999
 31
0.0
  0
LINE
  5
34590
  8
0
 10
167.1834336902466
 20
323.98488252886273
 30
0.0
 11
173.1834336902466
 21
323.98488252886273
 31
0.0
  0
LINE
  5
34591
  8
0
 10
647.62288443126488
 20
318.21140104651658
 30
0.0
 11
656.60199245262766
 21
318.21140104651658
 31
0.0
  0
LINE
  5
34592
  8
1
 10
622.55216744343852
 20
243.52399309110709
 30
0.0
 11
710.12165233710448
 21
243.52399309110709
 31
0.0
  0
LINE
  5
34593
  8
1
 10
666.33690989027127
 20
155.83508543651391
 30
0.0
 11
666.33690989027173
 21
363.69499032171819
 31
0.0
  0
LINE
  5
34596
  8
0
 10
675.96829253477506
 20
318.21140104651658
 30
0.0
 11
684.94740055613738
 21
318.21140104651658
 31
0.0
  0
ARC
  5
3469F
  8
0
 10
407.2342880919727
 20
243.52399309110521
 30
0.0
 40
62.602807251783879
 50
99.269034275754805
 51
46.111883423238169
  0
ARC
  5
346A0
  8
0
 10
407.2342880919727
 20
243.52399309110521
 30
0.0
 40
66.475088422018331
 50
98.464887192575944
 51
46.878317255339439
  0
ARC
  5
346A1
  8
0
 10
407.2342880919727
 20
243.52399309110521
 30
0.0
 40
37.5
 50
108.7578820923642
 51
37.090776584511929
  0
ARC
  5
346A2
  8
0
 10
407.2342880919727
 20
243.52399309110521
 30
0.0
 40
60.000000000000028
 50
99.869649863925076
 51
45.539590480164811
  0
ARC
  5
346A3
  8
0
 10
407.2342880919727
 20
243.52399309110521
 30
0.0
 40
75.000000000000014
 50
116.70485224757761
 51
48.281086862407442
  0
ARC
  5
346A4
  8
0
 10
407.23428809197321
 20
243.52399309110621
 30
0.0
 40
44.98860367036832
 50
104.7546183240935
 51
40.890795069763122
  0
LINE
  5
383A9
  8
3
 10
688.78514249370119
 20
246.7569930911072
 30
0.0
 11
686.28514249370107
 21
246.7569930911072
 31
0.0
  0
LINE
  5
383AB
  8
3
 10
688.78514249370119
 20
240.2909930911068
 30
0.0
 11
686.28514249370107
 21
240.2909930911068
 31
0.0
  0
LINE
  5
383AC
  8
3
 10
646.28514249370119
 20
240.2909930911068
 30
0.0
 11
643.78514249370119
 21
240.2909930911068
 31
0.0
  0
LINE
  5
383AD
  8
3
 10
646.28514249370119
 20
246.7569930911072
 30
0.0
 11
643.78514249370119
 21
246.75699309110729
 31
0.0
  0
LINE
  5
383AE
  8
3
 10
170.6834336902466
 20
246.75699309110769
 30
0.0
 11
168.1834336902466
 21
246.75699309110769
 31
0.0
  0
LINE
  5
383AF
  8
3
 10
170.6834336902466
 20
240.29099309110731
 30
0.0
 11
168.1834336902466
 21
240.29099309110731
 31
0.0
  0
LINE
  5
383B0
  8
3
 10
128.1834336902466
 20
246.7569930911086
 30
0.0
 11
125.6834336902466
 21
246.7569930911086
 31
0.0
  0
LINE
  5
383B1
  8
3
 10
128.1834336902466
 20
240.29099309110831
 30
0.0
 11
125.6834336902466
 21
240.29099309110819
 31
0.0
  0
TEXT
  5
3840D
  8
0
 62
     3
 10
0.0
 20
0.0
 30
0.0
 40
10.0
  1
CAE3-150SBF
  7
STANDARD1
  0
ENDSEC
  0
EOF
