  0
SECTION
  2
HEADER
  9
$ACADVER
  1
AC1009
  9
$INSBASE
 10
0.0
 20
0.0
 30
0.0
  9
$EXTMIN
 10
0.0
 20
-2.960436562073669
 30
0.0
  9
$EXTMAX
 10
511.8879477503765
 20
451.90814032437402
 30
0.0
  9
$LIMMIN
 10
0.0
 20
0.0
  9
$LIMMAX
 10
375.0
 20
270.0
  9
$ORTHOMODE
 70
     0
  9
$REGENMODE
 70
     1
  9
$FILLMODE
 70
     1
  9
$QTEXTMODE
 70
     0
  9
$MIRRTEXT
 70
     1
  9
$DRAGMODE
 70
     2
  9
$LTSCALE
 40
10.0
  9
$OSMODE
 70
    37
  9
$ATTMODE
 70
     1
  9
$TEXTSIZE
 40
5.0
  9
$TRACEWID
 40
0.05
  9
$TEXTSTYLE
  7
STANDARD
  9
$CLAYER
  8
0
  9
$CELTYPE
  6
BYLAYER
  9
$CECOLOR
 62
     6
  9
$DIMSCALE
 40
2.0
  9
$DIMASZ
 40
3.0
  9
$DIMEXO
 40
2.0
  9
$DIMDLI
 40
0.38
  9
$DIMRND
 40
0.0
  9
$DIMDLE
 40
0.0
  9
$DIMEXE
 40
2.0
  9
$DIMTP
 40
0.0
  9
$DIMTM
 40
0.0
  9
$DIMTXT
 40
3.2000000000000002
  9
$DIMCEN
 40
0.0
  9
$DIMTSZ
 40
0.0
  9
$DIMTOL
 70
     0
  9
$DIMLIM
 70
     0
  9
$DIMTIH
 70
     0
  9
$DIMTOH
 70
     0
  9
$DIMSE1
 70
     0
  9
$DIMSE2
 70
     0
  9
$DIMTAD
 70
     1
  9
$DIMZIN
 70
     8
  9
$DIMBLK
  1

  9
$DIMASO
 70
     0
  9
$DIMSHO
 70
     0
  9
$DIMPOST
  1

  9
$DIMAPOST
  1

  9
$DIMALT
 70
     0
  9
$DIMALTD
 70
     2
  9
$DIMALTF
 40
25.399999999999999
  9
$DIMLFAC
 40
1.0
  9
$DIMTOFL
 70
     0
  9
$DIMTVP
 40
1.6000000000000001
  9
$DIMTIX
 70
     1
  9
$DIMSOXD
 70
     0
  9
$DIMSAH
 70
     0
  9
$DIMBLK1
  1

  9
$DIMBLK2
  1

  9
$DIMSTYLE
  2
STANDARD
  9
$DIMCLRD
 70
     0
  9
$DIMCLRE
 70
     0
  9
$DIMCLRT
 70
     0
  9
$DIMTFAC
 40
1.0
  9
$DIMGAP
 40
1.1999999999999991
  9
$LUNITS
 70
     2
  9
$LUPREC
 70
     4
  9
$SKETCHINC
 40
0.1
  9
$FILLETRAD
 40
0.0
  9
$AUNITS
 70
     0
  9
$AUPREC
 70
     4
  9
$MENU
  1
ACAD
  9
$ELEVATION
 40
0.0
  9
$PELEVATION
 40
0.0
  9
$THICKNESS
 40
0.0
  9
$LIMCHECK
 70
     0
  9
$BLIPMODE
 70
     0
  9
$CHAMFERA
 40
0.0
  9
$CHAMFERB
 40
0.0
  9
$SKPOLY
 70
     0
  9
$TDCREATE
 40
2448055.7149187499
  9
$TDUPDATE
 40
2459565.4848959139
  9
$TDINDWG
 40
2.9793205208
  9
$TDUSRTIMER
 40
2.9793205208
  9
$USRTIMER
 70
     1
  9
$ANGBASE
 50
0.0
  9
$ANGDIR
 70
     0
  9
$PDMODE
 70
     0
  9
$PDSIZE
 40
0.0
  9
$PLINEWID
 40
0.0
  9
$COORDS
 70
     1
  9
$SPLFRAME
 70
     0
  9
$SPLINETYPE
 70
     6
  9
$SPLINESEGS
 70
     8
  9
$ATTDIA
 70
     0
  9
$ATTREQ
 70
     1
  9
$HANDLING
 70
     1
  9
$HANDSEED
  5
2CCEA
  9
$SURFTAB1
 70
     6
  9
$SURFTAB2
 70
     6
  9
$SURFTYPE
 70
     6
  9
$SURFU
 70
     6
  9
$SURFV
 70
     6
  9
$UCSNAME
  2

  9
$UCSORG
 10
0.0
 20
0.0
 30
0.0
  9
$UCSXDIR
 10
1.0
 20
0.0
 30
0.0
  9
$UCSYDIR
 10
0.0
 20
1.0
 30
0.0
  9
$PUCSNAME
  2

  9
$PUCSORG
 10
0.0
 20
0.0
 30
0.0
  9
$PUCSXDIR
 10
1.0
 20
0.0
 30
0.0
  9
$PUCSYDIR
 10
0.0
 20
1.0
 30
0.0
  9
$USERI1
 70
     0
  9
$USERI2
 70
     0
  9
$USERI3
 70
     0
  9
$USERI4
 70
     0
  9
$USERI5
 70
     0
  9
$USERR1
 40
0.0
  9
$USERR2
 40
0.0
  9
$USERR3
 40
0.0
  9
$USERR4
 40
0.0
  9
$USERR5
 40
0.0
  9
$WORLDVIEW
 70
     1
  9
$SHADEDGE
 70
     3
  9
$SHADEDIF
 70
    70
  9
$TILEMODE
 70
     1
  9
$MAXACTVP
 70
    16
  9
$PLIMCHECK
 70
     0
  9
$PEXTMIN
 10
1.0000000000000000E+020
 20
1.0000000000000000E+020
 30
1.0000000000000000E+020
  9
$PEXTMAX
 10
-1.0000000000000000E+020
 20
-1.0000000000000000E+020
 30
-1.0000000000000000E+020
  9
$PLIMMIN
 10
0.0
 20
0.0
  9
$PLIMMAX
 10
12.0
 20
9.0
  9
$UNITMODE
 70
     0
  9
$VISRETAIN
 70
     0
  9
$PLINEGEN
 70
     1
  9
$PSLTSCALE
 70
     0
  0
ENDSEC
  0
SECTION
  2
TABLES
  0
TABLE
  2
VPORT
 70
     1
  0
VPORT
  2
*ACTIVE
 70
     0
 10
0.0
 20
0.0
 11
1.0
 21
1.0
 12
467.78985835816297
 22
224.48888130523639
 13
0.0
 23
0.0
 14
5.0
 24
5.0
 15
10.0
 25
10.0
 16
0.0
 26
0.0
 36
1.0
 17
0.0
 27
0.0
 37
0.0
 40
458.98155656939412
 41
2.3805970149253728
 42
50.0
 43
0.0
 44
0.0
 50
0.0
 51
0.0
 71
     0
 72
   500
 73
     1
 74
     1
 75
     0
 76
     0
 77
     0
 78
     2
  0
ENDTAB
  0
TABLE
  2
LTYPE
 70
     4
  0
LTYPE
  2
CONTINUOUS
 70
     0
  3
実線
 72
    65
 73
     0
 40
0.0
  0
LTYPE
  2
CENTER
 70
     0
  3
____ _ ____ _ ____ _ ____ _ ____ _ ____ _ ____
 72
    65
 73
     4
 40
2.0
 49
1.25
 49
-0.25
 49
0.25
 49
-0.25
  0
LTYPE
  2
HIDDEN
 70
     0
  3
_ _ _ _ _ _ _ _ _ _ _ _ _ _ _ _ _ _ _ _ _ _ _
 72
    65
 73
     2
 40
0.375
 49
0.25
 49
-0.125
  0
LTYPE
  2
PHANTOM2
 70
     0
  3
___ _ _ ___ _ _ ___ _ _ ___ _ _
 72
    65
 73
     6
 40
1.25
 49
0.625
 49
-0.125
 49
0.125
 49
-0.125
 49
0.125
 49
-0.125
  0
ENDTAB
  0
TABLE
  2
LAYER
 70
     5
  0
LAYER
  2
0
 70
     0
 62
     7
  6
CONTINUOUS
  0
LAYER
  2
1
 70
     0
 62
     1
  6
CENTER
  0
LAYER
  2
2
 70
     0
 62
     2
  6
HIDDEN
  0
LAYER
  2
DEFPOINTS
 70
     0
 62
     7
  6
CONTINUOUS
  0
LAYER
  2
3
 70
     0
 62
     3
  6
CONTINUOUS
  0
ENDTAB
  0
TABLE
  2
STYLE
 70
     3
  0
STYLE
  2
STANDARD
 70
     0
 40
0.0
 41
1.0
 50
0.0
 71
     0
 42
5.0
  3
simplex.shx
  4
bigfont.shx
  0
STYLE
  2
07500
 70
     0
 40
0.0
 41
0.75
 50
0.0
 71
     0
 42
0.2
  3
simplex.shx
  4
bigfont.shx
  0
STYLE
  2
STANDARD1
 70
     0
 40
0.0
 41
1.0
 50
0.0
 71
     0
 42
3.0
  3
txt
  4

  0
ENDTAB
  0
TABLE
  2
VIEW
 70
     2
  0
VIEW
  2
ALL
 70
     0
 40
270.0
 10
220.99159663865549
 20
135.0
 41
0.0
 11
0.0
 21
0.0
 31
1.0
 12
0.0
 22
0.0
 32
0.0
 42
0.0
 43
0.0
 44
0.0
 50
0.0
 71
     0
  0
VIEW
  2
OLE1
 70
     0
 40
168.2487151179721
 10
2892.3009567448912
 20
702.51600084347126
 41
162.5749581879237
 11
0.0
 21
0.0
 31
1.0
 12
0.0
 22
0.0
 32
0.0
 42
50.0
 43
0.0
 44
0.0
 50
0.0
 71
     0
  0
ENDTAB
  0
TABLE
  2
UCS
 70
     0
  0
ENDTAB
  0
TABLE
  2
APPID
 70
    48
  0
APPID
  2
ACAD
 70
     0
  0
APPID
  2
DCO15
 70
     0
  0
APPID
  2
GENIUS_GENOREF_13
 70
     0
  0
APPID
  2
GENIUS_GENOENT_13
 70
     0
  0
APPID
  2
GENIUS_GENBH_13
 70
     0
  0
APPID
  2
GENIUS_GENOBJ_13
 70
     0
  0
APPID
  2
GENIUS_GENODEF_13
 70
     0
  0
APPID
  2
GENIUS_GENOLIS_13
 70
     0
  0
APPID
  2
GENIUS_GENOBJ-NBEHI-BHF_13
 70
     0
  0
APPID
  2
GENIUS_GENOBJ-NBEHI-BHB_13
 70
     0
  0
APPID
  2
GENIUS_GENOBJ-F-PART_13
 70
     0
  0
APPID
  2
GENIUS_GEFSTDP_13
 70
     0
  0
APPID
  2
GENIUS_GENOBJ-N-RSSYM_13
 70
     0
  0
APPID
  2
GENIUS_GENSYMENT_13
 70
     0
  0
APPID
  2
GENIUS_GENOBJ-N-TIT_13
 70
     0
  0
APPID
  2
GENIUS_GENTITLE_13
 70
     0
  0
APPID
  2
GENIUS_GENZVEED_13
 70
     0
  0
APPID
  2
GENIUS_GENOBJ-N-LEADER_13
 70
     0
  0
APPID
  2
GENIUS_GENOBJ-N-FIL_13
 70
     0
  0
APPID
  2
GENIUS_GENOBJ-N-SEC_13
 70
     0
  0
APPID
  2
GENIUS_GENOBJ-N-CRS_13
 70
     0
  0
APPID
  2
GENIUS_GENOBJ-N-ZOO_13
 70
     0
  0
APPID
  2
GENIUS_GENZOO_13
 70
     0
  0
APPID
  2
GENIUS_GENOBJ-F-TOL_13
 70
     0
  0
APPID
  2
GENIUS_GENFIL_13
 70
     0
  0
APPID
  2
GENIUS_GENOBJ-N-CHA_13
 70
     0
  0
APPID
  2
_CALL_MAC$
 70
     0
  0
APPID
  2
ASM_BASE
 70
     0
  0
APPID
  2
ASM_EXPLO_VER_2_00
 70
     0
  0
APPID
  2
ASM_CADM_VER_12_00
 70
     0
  0
APPID
  2
ASM_BASEFORO
 70
     0
  0
APPID
  2
ASM_BASETRAVI
 70
     0
  0
APPID
  2
ASM_BASETRAVI1
 70
     0
  0
APPID
  2
ASM_GRUPPI
 70
     0
  0
APPID
  2
ASM_CADM_ALBERO
 70
     0
  0
APPID
  2
ASM_GOLE
 70
     0
  0
APPID
  2
ACAD_MLEADERVER
 70
     0
  0
APPID
  2
ACAD_DSTYLE_DIMJAG
 70
     0
  0
APPID
  2
ACAD_DSTYLE_DIMTALN
 70
     0
  0
APPID
  2
ACAD_EXEMPT_FROM_CAD_STANDARDS
 70
     0
  0
APPID
  2
ACAD_DSTYLE_DIMRADIAL_EXTENSION
 70
     0
  0
APPID
  2
ACAD_PSEXT
 70
     0
  0
APPID
  2
ACAD_DSTYLE_DIMBREAK
 70
     0
  0
APPID
  2
ACAECLAYERSTANDARD
 70
     0
  0
APPID
  2
ACCMTRANSPARENCY
 70
     0
  0
APPID
  2
GRADIENTCOLOR1ACI
 70
     0
  0
APPID
  2
GRADIENTCOLOR2ACI
 70
     0
  0
APPID
  2
ACAD_NAV_VCDISPLAY
 70
     0
  0
ENDTAB
  0
TABLE
  2
DIMSTYLE
 70
     1
  0
DIMSTYLE
  2
STANDARD
 70
     0
  3

  4

  5

  6

  7

 40
1.0
 41
0.18
 42
0.0625
 43
0.38
 44
0.18
 45
0.0
 46
0.0
 47
0.0
 48
0.0
140
0.18
141
0.09
142
0.0
143
25.399999999999999
144
1.0
145
0.0
146
1.0
147
0.09
 71
     0
 72
     0
 73
     1
 74
     1
 75
     0
 76
     0
 77
     0
 78
     0
170
     0
171
     2
172
     0
173
     0
174
     0
175
     0
176
     0
177
     0
178
     0
  0
ENDTAB
  0
ENDSEC
  0
SECTION
  2
BLOCKS
  0
BLOCK
  8
0
  2
$MODEL_SPACE
 70
     0
 10
0.0
 20
0.0
 30
0.0
  3
$MODEL_SPACE
  1

  0
ENDBLK
  5
36
  8
0
  0
BLOCK
 67
     1
  8
0
  2
$PAPER_SPACE
 70
     0
 10
0.0
 20
0.0
 30
0.0
  3
$PAPER_SPACE
  1

  0
ENDBLK
  5
34
 67
     1
  8
0
  0
ENDSEC
  0
SECTION
  2
ENTITIES
  0
ARC
  5
1EA65
  8
0
 10
444.11137808470488
 20
240.44368873142
 30
0.0
 40
2.9999999999999778
 50
90.0
 51
180.0
  0
ARC
  5
1EA66
  8
0
 10
500.16137808470501
 20
240.44368873142
 30
0.0
 40
2.999999999999992
 50
0.0
 51
90.0
  0
LINE
  5
1EA67
  8
0
 10
503.16137808470512
 20
239.94368873142
 30
0.0
 11
503.16137808470512
 21
240.44368873142
 31
0.0
  0
LINE
  5
1EA68
  8
0
 10
441.11137808470488
 20
240.44368873142
 30
0.0
 11
441.11137808470488
 21
239.94368873142
 31
0.0
  0
ARC
  5
1EA69
  8
0
 10
439.6365294489201
 20
235.94368873142
 30
0.0
 40
4.0000000000000142
 50
90.0
 51
180.0
  0
ARC
  5
1EA6A
  8
0
 10
504.63637808470497
 20
235.94368873142
 30
0.0
 40
4.0000000000000142
 50
0.0
 51
90.0
  0
LINE
  5
1EA6B
  8
0
 10
508.63637808470497
 20
234.94368873142
 30
0.0
 11
508.63637808470497
 21
235.94368873142
 31
0.0
  0
LINE
  5
1EA6C
  8
0
 10
435.6365294489201
 20
235.94368873142
 30
0.0
 11
435.6365294489201
 21
234.94368873142
 31
0.0
  0
LINE
  5
1EA6D
  8
0
 10
505.13637808470497
 20
199.12553236232449
 30
0.0
 11
505.13637808470497
 21
234.94368873142
 31
0.0
  0
LINE
  5
1EA6E
  8
0
 10
439.13637808470497
 20
234.94368873142
 30
0.0
 11
439.13637808470497
 21
199.12553236232449
 31
0.0
  0
LINE
  5
1EA6F
  8
2
 10
502.63637808470497
 20
199.12553236232449
 30
0.0
 11
502.63637808470497
 21
232.74368873142021
 31
0.0
  0
LINE
  5
1EA70
  8
2
 10
441.63637808470497
 20
232.74368873142021
 30
0.0
 11
441.63637808470497
 21
199.12553236232449
 31
0.0
  0
LINE
  5
1EA75
  8
2
 10
478.13637808470497
 20
232.74368873142021
 30
0.0
 11
478.13637808470497
 21
246.74368873142021
 31
0.0
  0
LINE
  5
1EA76
  8
2
 10
466.13637808470497
 20
246.74368873142021
 30
0.0
 11
466.13637808470497
 21
232.74368873142021
 31
0.0
  0
LINE
  5
1EA78
  8
0
 10
444.11137808470488
 20
243.44368873142
 30
0.0
 11
500.16137808470501
 21
243.44368873142
 31
0.0
  0
LINE
  5
1EA7A
  8
0
 10
439.63637808470497
 20
239.94368873142
 30
0.0
 11
504.63637808470497
 21
239.94368873142
 31
0.0
  0
LINE
  5
1EA7C
  8
0
 10
435.6365294489201
 20
234.94368873142
 30
0.0
 11
508.63652944891999
 21
234.94368873142
 31
0.0
  0
LINE
  5
1EA80
  8
0
 10
447.13637808470497
 20
169.74368873142021
 30
0.0
 11
447.13637808470497
 21
178.1976309772117
 31
0.0
  0
LINE
  5
1EA81
  8
0
 10
460.82266958572018
 20
229.24368873142021
 30
0.0
 11
483.45008658368988
 21
229.24368873142021
 31
0.0
  0
LINE
  5
1EA82
  8
0
 10
447.13637808470497
 20
169.74368873142021
 30
0.0
 11
451.63637808470497
 21
169.74368873142021
 31
0.0
  0
POLYLINE
  5
1EA86
  8
0
 66
     1
 10
0.0
 20
0.0
 30
0.0
  0
VERTEX
  5
2C97A
  8
0
 10
447.13637808470497
 20
178.1976309772117
 30
0.0
  0
VERTEX
  5
2C97B
  8
0
 10
446.71573342110781
 20
178.68152651295941
 30
0.0
  0
VERTEX
  5
2C97C
  8
0
 10
445.9043675116522
 20
179.673061968409
 30
0.0
  0
VERTEX
  5
2C97D
  8
0
 10
445.13394839330567
 20
180.69496170872981
 30
0.0
  0
VERTEX
  5
2C97E
  8
0
 10
444.76447223696817
 20
181.21680149087069
 30
0.0
  0
VERTEX
  5
2C97F
  8
0
 10
444.40567864985991
 20
181.74563060208541
 30
0.0
  0
VERTEX
  5
2C980
  8
0
 10
443.72069507214331
 20
182.8234286095016
 30
0.0
  0
VERTEX
  5
2C981
  8
0
 10
443.08006688355408
 20
183.9266733448826
 30
0.0
  0
VERTEX
  5
2C982
  8
0
 10
442.484794071056
 20
185.0536427011256
 30
0.0
  0
VERTEX
  5
2C983
  8
0
 10
441.93580582425278
 20
186.2025775382408
 30
0.0
  0
VERTEX
  5
2C984
  8
0
 10
441.43395908497172
 20
187.37168442927529
 30
0.0
  0
VERTEX
  5
2C985
  8
0
 10
441.20096148818902
 20
187.96323326164739
 30
0.0
  0
VERTEX
  5
2C986
  8
0
 10
440.980037209621
 20
188.5591384597605
 30
0.0
  0
VERTEX
  5
2C987
  8
0
 10
440.574748746414
 20
189.7630860763056
 30
0.0
  0
VERTEX
  5
2C988
  8
0
 10
440.21872632936129
 20
190.9816479798983
 30
0.0
  0
VERTEX
  5
2C989
  8
0
 10
439.9125256907605
 20
192.2129220593911
 30
0.0
  0
VERTEX
  5
2C98A
  8
0
 10
439.65662479373123
 20
193.45498636059889
 30
0.0
  0
VERTEX
  5
2C98B
  8
0
 10
439.45142308613731
 20
194.7059020863648
 30
0.0
  0
VERTEX
  5
2C98C
  8
0
 10
439.36793763084682
 20
195.3340694981521
 30
0.0
  0
VERTEX
  5
2C98D
  8
0
 10
439.2972408770687
 20
195.96371662292489
 30
0.0
  0
VERTEX
  5
2C98E
  8
0
 10
439.1943188368582
 20
197.2264665878333
 30
0.0
  0
VERTEX
  5
2C98F
  8
0
 10
439.14281762140621
 20
198.4921808946992
 30
0.0
  0
VERTEX
  5
2C990
  8
0
 10
439.13637808470497
 20
199.12553236232449
 30
0.0
  0
SEQEND
  5
2C991
  8
0
  0
POLYLINE
  5
1EA87
  8
0
 66
     1
 10
0.0
 20
0.0
 30
0.0
  0
VERTEX
  5
2C992
  8
0
 10
439.13637808470497
 20
199.12553236232449
 30
0.0
  0
VERTEX
  5
2C993
  8
0
 10
439.15535247344633
 20
200.2126088885407
 30
0.0
  0
VERTEX
  5
2C994
  8
0
 10
439.30701668940299
 20
202.3817629876057
 30
0.0
  0
VERTEX
  5
2C995
  8
0
 10
439.60964768896019
 20
204.5359432144032
 30
0.0
  0
VERTEX
  5
2C996
  8
0
 10
439.81716780450182
 20
205.6043185431613
 30
0.0
  0
VERTEX
  5
2C997
  8
0
 10
440.06185381456908
 20
206.6652435078245
 30
0.0
  0
VERTEX
  5
2C998
  8
0
 10
440.66155558306491
 20
208.7598722178659
 30
0.0
  0
VERTEX
  5
2C999
  8
0
 10
441.40599524823392
 20
210.8101971328206
 30
0.0
  0
VERTEX
  5
2C99A
  8
0
 10
442.29174948238767
 20
212.80678977328401
 30
0.0
  0
VERTEX
  5
2C99B
  8
0
 10
443.31474511863922
 20
214.74046874929721
 30
0.0
  0
VERTEX
  5
2C99C
  8
0
 10
444.47027788147659
 20
216.60234198123641
 30
0.0
  0
VERTEX
  5
2C99D
  8
0
 10
445.09610829623489
 20
217.50366186981819
 30
0.0
  0
VERTEX
  5
2C99E
  8
0
 10
445.75303401951669
 20
218.38384759030259
 30
0.0
  0
VERTEX
  5
2C99F
  8
0
 10
447.15711474094411
 20
220.0767932705748
 30
0.0
  0
VERTEX
  5
2C9A0
  8
0
 10
448.6760633392787
 20
221.67339396156689
 30
0.0
  0
VERTEX
  5
2C9A1
  8
0
 10
450.30289488473312
 20
223.16630764806001
 30
0.0
  0
VERTEX
  5
2C9A2
  8
0
 10
452.03012834461418
 20
224.54866912257239
 30
0.0
  0
VERTEX
  5
2C9A3
  8
0
 10
453.0809068588236
 20
225.3014431856318
 30
0.0
  0
VERTEX
  5
2C9A4
  8
0
 10
453.38668048579427
 20
225.50904635648661
 30
0.0
  0
VERTEX
  5
2C9A5
  8
0
 10
453.69485003438382
 20
225.71327812195071
 30
0.0
  0
VERTEX
  5
2C9A6
  8
0
 10
453.84982098507402
 20
225.81412155522099
 30
0.0
  0
VERTEX
  5
2C9A7
  8
0
 10
454.00537612528518
 20
225.9141123843601
 30
0.0
  0
VERTEX
  5
2C9A8
  8
0
 10
454.31821907806398
 20
226.11152348020011
 30
0.0
  0
VERTEX
  5
2C9A9
  8
0
 10
454.63333891622369
 20
226.30548618338301
 30
0.0
  0
VERTEX
  5
2C9AA
  8
0
 10
454.79174009497001
 20
226.401166624979
 30
0.0
  0
VERTEX
  5
2C9AB
  8
0
 10
454.95069537231927
 20
226.49597570847209
 30
0.0
  0
VERTEX
  5
2C9AC
  8
0
 10
455.27024789309962
 20
226.6829677138507
 30
0.0
  0
VERTEX
  5
2C9AD
  8
0
 10
455.59195564469019
 20
226.86643830482899
 30
0.0
  0
VERTEX
  5
2C9AE
  8
0
 10
455.75360489600422
 20
226.9568457257879
 30
0.0
  0
VERTEX
  5
2C9AF
  8
0
 10
455.91577751781182
 20
227.04636403670159
 30
0.0
  0
VERTEX
  5
2C9B0
  8
0
 10
456.24167213303332
 20
227.22272191773939
 30
0.0
  0
VERTEX
  5
2C9B1
  8
0
 10
456.56959784605851
 20
227.3954894121307
 30
0.0
  0
VERTEX
  5
2C9B2
  8
0
 10
456.89951275304838
 20
227.56464444285979
 30
0.0
  0
VERTEX
  5
2C9B3
  8
0
 10
457.23137469597623
 20
227.7301653945274
 30
0.0
  0
VERTEX
  5
2C9B4
  8
0
 10
457.56514126801397
 20
227.89203111611371
 30
0.0
  0
VERTEX
  5
2C9B5
  8
0
 10
457.73272547111668
 20
227.971586783578
 30
0.0
  0
VERTEX
  5
2C9B6
  8
0
 10
457.90076981895118
 20
228.0502209236806
 30
0.0
  0
VERTEX
  5
2C9B7
  8
0
 10
458.2382174606459
 20
228.20471460301539
 30
0.0
  0
VERTEX
  5
2C9B8
  8
0
 10
458.57744107250289
 20
228.35549241221321
 30
0.0
  0
VERTEX
  5
2C9B9
  8
0
 10
458.91839730698752
 20
228.50253508419971
 30
0.0
  0
VERTEX
  5
2C9BA
  8
0
 10
459.26104259516148
 20
228.64582382919389
 30
0.0
  0
VERTEX
  5
2C9BB
  8
0
 10
459.605333152252
 20
228.78534033710821
 30
0.0
  0
VERTEX
  5
2C9BC
  8
0
 10
459.778081666258
 20
228.8536784120015
 30
0.0
  0
VERTEX
  5
2C9BD
  8
0
 10
459.95122498324548
 20
228.92106677988889
 30
0.0
  0
VERTEX
  5
2C9BE
  8
0
 10
460.29867388851102
 20
229.05298581379381
 30
0.0
  0
VERTEX
  5
2C9BF
  8
0
 10
460.64763546944818
 20
229.181080581609
 30
0.0
  0
VERTEX
  5
2C9C0
  8
0
 10
460.82266958572018
 20
229.24368873142021
 30
0.0
  0
SEQEND
  5
2C9C1
  8
0
  0
POLYLINE
  5
1EA88
  8
0
 66
     1
 10
0.0
 20
0.0
 30
0.0
  0
VERTEX
  5
2C9C2
  8
0
 10
483.45008658368988
 20
229.24368873142021
 30
0.0
  0
VERTEX
  5
2C9C3
  8
0
 10
483.62512069996183
 20
229.181080581609
 30
0.0
  0
VERTEX
  5
2C9C4
  8
0
 10
483.97408228089893
 20
229.05298581379381
 30
0.0
  0
VERTEX
  5
2C9C5
  8
0
 10
484.32153118616498
 20
228.92106677988889
 30
0.0
  0
VERTEX
  5
2C9C6
  8
0
 10
484.494674503152
 20
228.8536784120015
 30
0.0
  0
VERTEX
  5
2C9C7
  8
0
 10
484.6674230171584
 20
228.78534033710821
 30
0.0
  0
VERTEX
  5
2C9C8
  8
0
 10
485.0117135742484
 20
228.64582382919389
 30
0.0
  0
VERTEX
  5
2C9C9
  8
0
 10
485.35435886242249
 20
228.50253508419971
 30
0.0
  0
VERTEX
  5
2C9CA
  8
0
 10
485.695315096907
 20
228.35549241221321
 30
0.0
  0
VERTEX
  5
2C9CB
  8
0
 10
486.03453870876461
 20
228.20471460301539
 30
0.0
  0
VERTEX
  5
2C9CC
  8
0
 10
486.37198635045888
 20
228.0502209236806
 30
0.0
  0
VERTEX
  5
2C9CD
  8
0
 10
486.54003069829332
 20
227.971586783578
 30
0.0
  0
VERTEX
  5
2C9CE
  8
0
 10
486.70761490139603
 20
227.89203111611371
 30
0.0
  0
VERTEX
  5
2C9CF
  8
0
 10
487.04138147343377
 20
227.7301653945274
 30
0.0
  0
VERTEX
  5
2C9D0
  8
0
 10
487.37324341636162
 20
227.56464444285979
 30
0.0
  0
VERTEX
  5
2C9D1
  8
0
 10
487.70315832335189
 20
227.3954894121307
 30
0.0
  0
VERTEX
  5
2C9D2
  8
0
 10
488.0310840363768
 20
227.22272191773939
 30
0.0
  0
VERTEX
  5
2C9D3
  8
0
 10
488.35697865159813
 20
227.04636403670159
 30
0.0
  0
VERTEX
  5
2C9D4
  8
0
 10
488.5191512734059
 20
226.9568457257879
 30
0.0
  0
VERTEX
  5
2C9D5
  8
0
 10
488.68080052471981
 20
226.86643830482899
 30
0.0
  0
VERTEX
  5
2C9D6
  8
0
 10
489.00250827631038
 20
226.6829677138507
 30
0.0
  0
VERTEX
  5
2C9D7
  8
0
 10
489.32206079709061
 20
226.49597570847209
 30
0.0
  0
VERTEX
  5
2C9D8
  8
0
 10
489.4810160744405
 20
226.401166624979
 30
0.0
  0
VERTEX
  5
2C9D9
  8
0
 10
489.63941725318631
 20
226.30548618338301
 30
0.0
  0
VERTEX
  5
2C9DA
  8
0
 10
489.95453709134648
 20
226.11152348020011
 30
0.0
  0
VERTEX
  5
2C9DB
  8
0
 10
490.26738004412482
 20
225.9141123843601
 30
0.0
  0
VERTEX
  5
2C9DC
  8
0
 10
490.42293518433593
 20
225.81412155522099
 30
0.0
  0
VERTEX
  5
2C9DD
  8
0
 10
490.57790613502669
 20
225.71327812195071
 30
0.0
  0
VERTEX
  5
2C9DE
  8
0
 10
490.88607568361567
 20
225.50904635648661
 30
0.0
  0
VERTEX
  5
2C9DF
  8
0
 10
491.19184931058629
 20
225.30144318563219
 30
0.0
  0
VERTEX
  5
2C9E0
  8
0
 10
491.49518794279362
 20
225.09049513786391
 30
0.0
  0
VERTEX
  5
2C9E1
  8
0
 10
491.79605281824752
 20
224.87622916908319
 30
0.0
  0
VERTEX
  5
2C9E2
  8
0
 10
492.09440549106688
 20
224.6586726591695
 30
0.0
  0
VERTEX
  5
2C9E3
  8
0
 10
492.24262782479582
 20
224.54866912257239
 30
0.0
  0
VERTEX
  5
2C9E4
  8
0
 10
492.39020783638989
 20
224.43785340848311
 30
0.0
  0
VERTEX
  5
2C9E5
  8
0
 10
492.68342205524772
 20
224.21379963431221
 30
0.0
  0
VERTEX
  5
2C9E6
  8
0
 10
492.97401067939472
 20
223.9865399672662
 30
0.0
  0
VERTEX
  5
2C9E7
  8
0
 10
493.96986128467682
 20
223.16630764806001
 30
0.0
  0
VERTEX
  5
2C9E8
  8
0
 10
495.59669283013142
 20
221.67339396156689
 30
0.0
  0
VERTEX
  5
2C9E9
  8
0
 10
497.1156414284664
 20
220.0767932705748
 30
0.0
  0
VERTEX
  5
2C9EA
  8
0
 10
498.51972214989343
 20
218.38384759030259
 30
0.0
  0
VERTEX
  5
2C9EB
  8
0
 10
499.17664787317523
 20
217.50366186981819
 30
0.0
  0
VERTEX
  5
2C9EC
  8
0
 10
499.80247828793381
 20
216.60234198123641
 30
0.0
  0
VERTEX
  5
2C9ED
  8
0
 10
500.95801105077129
 20
214.74046874929721
 30
0.0
  0
VERTEX
  5
2C9EE
  8
0
 10
501.98100668702222
 20
212.80678977328401
 30
0.0
  0
VERTEX
  5
2C9EF
  8
0
 10
502.86676092117648
 20
210.8101971328206
 30
0.0
  0
VERTEX
  5
2C9F0
  8
0
 10
503.61120058634509
 20
208.7598722178659
 30
0.0
  0
VERTEX
  5
2C9F1
  8
0
 10
504.21090235484138
 20
206.6652435078245
 30
0.0
  0
VERTEX
  5
2C9F2
  8
0
 10
504.45558836490812
 20
205.6043185431613
 30
0.0
  0
VERTEX
  5
2C9F3
  8
0
 10
504.66310848044992
 20
204.5359432144032
 30
0.0
  0
VERTEX
  5
2C9F4
  8
0
 10
504.9657394800069
 20
202.3817629876057
 30
0.0
  0
VERTEX
  5
2C9F5
  8
0
 10
505.11740369596367
 20
200.2126088885407
 30
0.0
  0
VERTEX
  5
2C9F6
  8
0
 10
505.13637808470497
 20
199.12553236232449
 30
0.0
  0
SEQEND
  5
2C9F7
  8
0
  0
POLYLINE
  5
1EA89
  8
0
 66
     1
 10
0.0
 20
0.0
 30
0.0
  0
VERTEX
  5
2C9F8
  8
0
 10
505.13637808470497
 20
199.12553236232449
 30
0.0
  0
VERTEX
  5
2C9F9
  8
0
 10
505.12993854800379
 20
198.4921808946992
 30
0.0
  0
VERTEX
  5
2C9FA
  8
0
 10
505.07843733255191
 20
197.2264665878333
 30
0.0
  0
VERTEX
  5
2C9FB
  8
0
 10
504.9755152923417
 20
195.96371662292489
 30
0.0
  0
VERTEX
  5
2C9FC
  8
0
 10
504.90481853856318
 20
195.3340694981521
 30
0.0
  0
VERTEX
  5
2C9FD
  8
0
 10
504.8213330832732
 20
194.7059020863648
 30
0.0
  0
VERTEX
  5
2C9FE
  8
0
 10
504.61613137567878
 20
193.45498636059889
 30
0.0
  0
VERTEX
  5
2C9FF
  8
0
 10
504.3602304786495
 20
192.2129220593911
 30
0.0
  0
VERTEX
  5
2CA00
  8
0
 10
504.05402984004922
 20
190.9816479798983
 30
0.0
  0
VERTEX
  5
2CA01
  8
0
 10
503.69800742299589
 20
189.7630860763056
 30
0.0
  0
VERTEX
  5
2CA02
  8
0
 10
503.292718959789
 20
188.5591384597605
 30
0.0
  0
VERTEX
  5
2CA03
  8
0
 10
503.07179468122098
 20
187.96323326164739
 30
0.0
  0
VERTEX
  5
2CA04
  8
0
 10
502.83879708443868
 20
187.37168442927529
 30
0.0
  0
VERTEX
  5
2CA05
  8
0
 10
502.33695034515722
 20
186.2025775382408
 30
0.0
  0
VERTEX
  5
2CA06
  8
0
 10
501.78796209835389
 20
185.0536427011256
 30
0.0
  0
VERTEX
  5
2CA07
  8
0
 10
501.19268928585598
 20
183.926673344883
 30
0.0
  0
VERTEX
  5
2CA08
  8
0
 10
500.55206109726657
 20
182.8234286095016
 30
0.0
  0
VERTEX
  5
2CA09
  8
0
 10
499.86707751955049
 20
181.74563060208541
 30
0.0
  0
VERTEX
  5
2CA0A
  8
0
 10
499.50828393244228
 20
181.21680149087069
 30
0.0
  0
VERTEX
  5
2CA0B
  8
0
 10
499.13880777610427
 20
180.69496170872981
 30
0.0
  0
VERTEX
  5
2CA0C
  8
0
 10
498.3683886577582
 20
179.673061968409
 30
0.0
  0
VERTEX
  5
2CA0D
  8
0
 10
497.55702274830219
 20
178.68152651295941
 30
0.0
  0
VERTEX
  5
2CA0E
  8
0
 10
497.13637808470497
 20
178.1976309772117
 30
0.0
  0
SEQEND
  5
2CA0F
  8
0
  0
LINE
  5
1EA8A
  8
0
 10
497.13637808470497
 20
178.1976309772117
 30
0.0
 11
497.13637808470497
 21
169.74368873142021
 31
0.0
  0
LINE
  5
1EA8D
  8
0
 10
492.63637808470497
 20
169.74368873142021
 30
0.0
 11
497.13637808470497
 21
169.74368873142021
 31
0.0
  0
POLYLINE
  5
1EA8E
  8
0
 66
     1
 10
0.0
 20
0.0
 30
0.0
  0
VERTEX
  5
2CA10
  8
0
 10
451.63637808470497
 20
177.18476675135301
 30
0.0
  0
VERTEX
  5
2CA11
  8
0
 10
451.11892494132871
 20
177.65185710833251
 30
0.0
  0
VERTEX
  5
2CA12
  8
0
 10
450.11810517672939
 20
178.62033021876499
 30
0.0
  0
VERTEX
  5
2CA13
  8
0
 10
449.16451278454861
 20
179.63278529009901
 30
0.0
  0
VERTEX
  5
2CA14
  8
0
 10
448.70607011181659
 20
180.15483098504771
 30
0.0
  0
VERTEX
  5
2CA15
  8
0
 10
448.26019314151648
 20
180.6870506900309
 30
0.0
  0
VERTEX
  5
2CA16
  8
0
 10
447.40708593839548
 20
181.78086510656379
 30
0.0
  0
VERTEX
  5
2CA17
  8
0
 10
446.60702101950432
 20
182.91188239833531
 30
0.0
  0
VERTEX
  5
2CA18
  8
0
 10
445.86171445785379
 20
184.07767662689551
 30
0.0
  0
VERTEX
  5
2CA19
  8
0
 10
445.17276487431258
 20
185.27574726014379
 30
0.0
  0
VERTEX
  5
2CA1A
  8
0
 10
444.5416500086971
 20
186.5035245357644
 30
0.0
  0
VERTEX
  5
2CA1B
  8
0
 10
444.24820854993641
 20
187.1277325371988
 30
0.0
  0
VERTEX
  5
2CA1C
  8
0
 10
443.96972355014111
 20
187.75837497315339
 30
0.0
  0
VERTEX
  5
2CA1D
  8
0
 10
443.45821223354682
 20
189.03760702201589
 30
0.0
  0
VERTEX
  5
2CA1E
  8
0
 10
443.00821320833842
 20
190.338476835519
 30
0.0
  0
VERTEX
  5
2CA1F
  8
0
 10
442.62069168516791
 20
191.6581941556164
 30
0.0
  0
VERTEX
  5
2CA20
  8
0
 10
442.29647886561901
 20
192.99392829792029
 30
0.0
  0
VERTEX
  5
2CA21
  8
0
 10
442.03627015934569
 20
194.34281422328559
 30
0.0
  0
VERTEX
  5
2CA22
  8
0
 10
441.93034716050067
 20
195.021285897018
 30
0.0
  0
VERTEX
  5
2CA23
  8
0
 10
441.84062369248062
 20
195.7019586830811
 30
0.0
  0
VERTEX
  5
2CA24
  8
0
 10
441.70995911049607
 20
197.0684464249693
 30
0.0
  0
VERTEX
  5
2CA25
  8
0
 10
441.64455667810262
 20
198.43934644587989
 30
0.0
  0
VERTEX
  5
2CA26
  8
0
 10
441.63637808470497
 20
199.12553236232449
 30
0.0
  0
SEQEND
  5
2CA27
  8
0
  0
POLYLINE
  5
1EA8F
  8
0
 66
     1
 10
0.0
 20
0.0
 30
0.0
  0
VERTEX
  5
2CA28
  8
0
 10
441.63637808470497
 20
199.12553236232449
 30
0.0
  0
VERTEX
  5
2CA29
  8
0
 10
441.63960401092839
 20
199.55650265917751
 30
0.0
  0
VERTEX
  5
2CA2A
  8
0
 10
441.66540732645848
 20
200.41807860898601
 30
0.0
  0
VERTEX
  5
2CA2B
  8
0
 10
441.71699212533758
 20
201.27856093562741
 30
0.0
  0
VERTEX
  5
2CA2C
  8
0
 10
441.7524397929069
 20
201.70816442040319
 30
0.0
  0
VERTEX
  5
2CA2D
  8
0
 10
441.79431476167599
 20
202.13722158514699
 30
0.0
  0
VERTEX
  5
2CA2E
  8
0
 10
441.897309812804
 20
202.9933340449102
 30
0.0
  0
VERTEX
  5
2CA2F
  8
0
 10
442.02589013462512
 20
203.8461739583058
 30
0.0
  0
VERTEX
  5
2CA30
  8
0
 10
442.17994693535081
 20
204.6950197376232
 30
0.0
  0
VERTEX
  5
2CA31
  8
0
 10
442.35934986754722
 20
205.53915317458771
 30
0.0
  0
VERTEX
  5
2CA32
  8
0
 10
442.56394713842241
 20
206.37786004803769
 30
0.0
  0
VERTEX
  5
2CA33
  8
0
 10
442.67564038288862
 20
206.79495656834979
 30
0.0
  0
VERTEX
  5
2CA34
  8
0
 10
442.79356563826008
 20
207.21043072822479
 30
0.0
  0
VERTEX
  5
2CA35
  8
0
 10
443.04801108688429
 20
208.03616077723379
 30
0.0
  0
VERTEX
  5
2CA36
  8
0
 10
443.32706819804292
 20
208.85435154500601
 30
0.0
  0
VERTEX
  5
2CA37
  8
0
 10
443.6305008615609
 20
209.6643107604668
 30
0.0
  0
VERTEX
  5
2CA38
  8
0
 10
443.95805234311092
 20
210.46535311725799
 30
0.0
  0
VERTEX
  5
2CA39
  8
0
 10
444.30944550143829
 20
211.25680085357229
 30
0.0
  0
VERTEX
  5
2CA3A
  8
0
 10
444.49399058008743
 20
211.64871714271251
 30
0.0
  0
VERTEX
  5
2CA3B
  8
0
 10
444.68438302284949
 20
212.03798432561101
 30
0.0
  0
VERTEX
  5
2CA3C
  8
0
 10
445.08254767276952
 20
212.80824257416589
 30
0.0
  0
VERTEX
  5
2CA3D
  8
0
 10
445.50360256415291
 20
213.5669238838604
 30
0.0
  0
VERTEX
  5
2CA3E
  8
0
 10
445.72260326927972
 20
213.9417221890572
 30
0.0
  0
VERTEX
  5
2CA3F
  8
0
 10
445.94719144252622
 20
214.31338633456241
 30
0.0
  0
VERTEX
  5
2CA40
  8
0
 10
446.41293898741191
 20
215.04699834451549
 30
0.0
  0
VERTEX
  5
2CA41
  8
0
 10
446.90045112988901
 20
215.76713920471869
 30
0.0
  0
VERTEX
  5
2CA42
  8
0
 10
447.15224073389072
 20
216.12196708456031
 30
0.0
  0
VERTEX
  5
2CA43
  8
0
 10
447.40931538601347
 20
216.4731996041082
 30
0.0
  0
VERTEX
  5
2CA44
  8
0
 10
447.93910120582223
 20
217.164582145097
 30
0.0
  0
VERTEX
  5
2CA45
  8
0
 10
448.48936033762033
 20
217.84070184902981
 30
0.0
  0
VERTEX
  5
2CA46
  8
0
 10
449.05962720724659
 20
218.5009866511364
 30
0.0
  0
VERTEX
  5
2CA47
  8
0
 10
449.6494193119965
 20
219.1448778845552
 30
0.0
  0
VERTEX
  5
2CA48
  8
0
 10
450.25823762886688
 20
219.77183075301809
 30
0.0
  0
VERTEX
  5
2CA49
  8
0
 10
450.56962125851533
 20
220.07878895798379
 30
0.0
  0
VERTEX
  5
2CA4A
  8
0
 10
450.88556703678017
 20
220.38131479180771
 30
0.0
  0
VERTEX
  5
2CA4B
  8
0
 10
451.5308767524275
 20
220.9728143165776
 30
0.0
  0
VERTEX
  5
2CA4C
  8
0
 10
452.19362077936461
 20
221.54582885967781
 30
0.0
  0
VERTEX
  5
2CA4D
  8
0
 10
452.87323836997888
 20
222.09987359359781
 30
0.0
  0
VERTEX
  5
2CA4E
  8
0
 10
453.56915449993897
 20
222.63447974117889
 30
0.0
  0
VERTEX
  5
2CA4F
  8
0
 10
454.28078035472203
 20
223.14919497224761
 30
0.0
  0
VERTEX
  5
2CA50
  8
0
 10
454.64229677599809
 20
223.39895673260801
 30
0.0
  0
VERTEX
  5
2CA51
  8
0
 10
455.0075138278084
 20
223.6435837863319
 30
0.0
  0
VERTEX
  5
2CA52
  8
0
 10
455.74874003012701
 20
224.11722788113681
 30
0.0
  0
VERTEX
  5
2CA53
  8
0
 10
456.50383181030918
 20
224.5697265064718
 30
0.0
  0
VERTEX
  5
2CA54
  8
0
 10
457.27215028532419
 20
225.0006968033245
 30
0.0
  0
VERTEX
  5
2CA55
  8
0
 10
458.0530453810365
 20
225.40977412779779
 30
0.0
  0
VERTEX
  5
2CA56
  8
0
 10
458.8458563822341
 20
225.79661235963431
 30
0.0
  0
VERTEX
  5
2CA57
  8
0
 10
459.24652110161372
 20
225.98158879068609
 30
0.0
  0
VERTEX
  5
2CA58
  8
0
 10
459.64991249165939
 20
226.16088419507011
 30
0.0
  0
VERTEX
  5
2CA59
  8
0
 10
460.46453339756999
 20
226.50228142376449
 30
0.0
  0
VERTEX
  5
2CA5A
  8
0
 10
461.2890298493511
 20
226.82051518957911
 30
0.0
  0
VERTEX
  5
2CA5B
  8
0
 10
462.12270424069118
 20
227.11531623497649
 30
0.0
  0
VERTEX
  5
2CA5C
  8
0
 10
462.96485119982469
 20
227.3864351288407
 30
0.0
  0
VERTEX
  5
2CA5D
  8
0
 10
463.81475818634772
 20
227.6336424775204
 30
0.0
  0
VERTEX
  5
2CA5E
  8
0
 10
464.24239720907821
 20
227.748213164009
 30
0.0
  0
VERTEX
  5
2CA5F
  8
0
 10
464.67170609409823
 20
227.85672911891879
 30
0.0
  0
VERTEX
  5
2CA60
  8
0
 10
465.53496985959271
 20
228.0555062994645
 30
0.0
  0
VERTEX
  5
2CA61
  8
0
 10
466.40381907550181
 20
228.22980583381789
 30
0.0
  0
VERTEX
  5
2CA62
  8
0
 10
467.27751860864549
 20
228.3794802471721
 30
0.0
  0
VERTEX
  5
2CA63
  8
0
 10
468.15532922199372
 20
228.5044029000301
 30
0.0
  0
VERTEX
  5
2CA64
  8
0
 10
469.03650820012939
 20
228.6044680953564
 30
0.0
  0
VERTEX
  5
2CA65
  8
0
 10
469.47812793090128
 20
228.64515186494779
 30
0.0
  0
VERTEX
  5
2CA66
  8
0
 10
469.92030997766551
 20
228.67959116800509
 30
0.0
  0
VERTEX
  5
2CA67
  8
0
 10
470.80598677006219
 20
228.72970855635731
 30
0.0
  0
VERTEX
  5
2CA68
  8
0
 10
471.69278920633172
 20
228.7547778560984
 30
0.0
  0
VERTEX
  5
2CA69
  8
0
 10
472.13637808470497
 20
228.75791201578929
 30
0.0
  0
VERTEX
  5
2CA6A
  8
0
 10
472.57996696307828
 20
228.7547778560984
 30
0.0
  0
VERTEX
  5
2CA6B
  8
0
 10
473.46676939934781
 20
228.72970855635731
 30
0.0
  0
VERTEX
  5
2CA6C
  8
0
 10
474.35244619174449
 20
228.67959116800509
 30
0.0
  0
VERTEX
  5
2CA6D
  8
0
 10
474.79462823850872
 20
228.64515186494779
 30
0.0
  0
VERTEX
  5
2CA6E
  8
0
 10
475.23624796928061
 20
228.6044680953564
 30
0.0
  0
VERTEX
  5
2CA6F
  8
0
 10
476.11742694741667
 20
228.5044029000301
 30
0.0
  0
VERTEX
  5
2CA70
  8
0
 10
476.99523756076451
 20
228.3794802471721
 30
0.0
  0
VERTEX
  5
2CA71
  8
0
 10
477.8689370939087
 20
228.22980583381789
 30
0.0
  0
VERTEX
  5
2CA72
  8
0
 10
478.73778630981718
 20
228.0555062994645
 30
0.0
  0
VERTEX
  5
2CA73
  8
0
 10
479.60105007531178
 20
227.85672911891879
 30
0.0
  0
VERTEX
  5
2CA74
  8
0
 10
480.03035896033168
 20
227.748213164009
 30
0.0
  0
VERTEX
  5
2CA75
  8
0
 10
480.45799798306268
 20
227.6336424775204
 30
0.0
  0
VERTEX
  5
2CA76
  8
0
 10
481.30790496958519
 20
227.3864351288407
 30
0.0
  0
VERTEX
  5
2CA77
  8
0
 10
482.15005192871871
 20
227.11531623497649
 30
0.0
  0
VERTEX
  5
2CA78
  8
0
 10
482.98372632005879
 20
226.82051518957911
 30
0.0
  0
VERTEX
  5
2CA79
  8
0
 10
483.80822277184052
 20
226.50228142376449
 30
0.0
  0
VERTEX
  5
2CA7A
  8
0
 10
484.62284367775101
 20
226.16088419507011
 30
0.0
  0
VERTEX
  5
2CA7B
  8
0
 10
485.02623506779622
 20
225.98158879068609
 30
0.0
  0
VERTEX
  5
2CA7C
  8
0
 10
485.42689978717578
 20
225.79661235963431
 30
0.0
  0
VERTEX
  5
2CA7D
  8
0
 10
486.21971078837339
 20
225.40977412779779
 30
0.0
  0
VERTEX
  5
2CA7E
  8
0
 10
487.00060588408581
 20
225.0006968033245
 30
0.0
  0
VERTEX
  5
2CA7F
  8
0
 10
487.76892435910122
 20
224.5697265064718
 30
0.0
  0
VERTEX
  5
2CA80
  8
0
 10
488.52401613928299
 20
224.11722788113681
 30
0.0
  0
VERTEX
  5
2CA81
  8
0
 10
489.26524234160161
 20
223.6435837863319
 30
0.0
  0
VERTEX
  5
2CA82
  8
0
 10
489.63045939341191
 20
223.39895673260801
 30
0.0
  0
VERTEX
  5
2CA83
  8
0
 10
489.99197581468837
 20
223.14919497224761
 30
0.0
  0
VERTEX
  5
2CA84
  8
0
 10
490.70360166947103
 20
222.63447974117889
 30
0.0
  0
VERTEX
  5
2CA85
  8
0
 10
491.39951779943112
 20
222.09987359359781
 30
0.0
  0
VERTEX
  5
2CA86
  8
0
 10
492.07913539004579
 20
221.54582885967781
 30
0.0
  0
VERTEX
  5
2CA87
  8
0
 10
492.7418794169825
 20
220.9728143165776
 30
0.0
  0
VERTEX
  5
2CA88
  8
0
 10
493.38718913263028
 20
220.38131479180771
 30
0.0
  0
VERTEX
  5
2CA89
  8
0
 10
493.70313491089468
 20
220.07878895798379
 30
0.0
  0
VERTEX
  5
2CA8A
  8
0
 10
494.01451854054358
 20
219.77183075301809
 30
0.0
  0
VERTEX
  5
2CA8B
  8
0
 10
494.6233368574139
 20
219.1448778845552
 30
0.0
  0
VERTEX
  5
2CA8C
  8
0
 10
495.2131289621633
 20
218.5009866511364
 30
0.0
  0
VERTEX
  5
2CA8D
  8
0
 10
495.78339583178962
 20
217.84070184902981
 30
0.0
  0
VERTEX
  5
2CA8E
  8
0
 10
496.33365496358778
 20
217.164582145097
 30
0.0
  0
VERTEX
  5
2CA8F
  8
0
 10
496.86344078339653
 20
216.4731996041082
 30
0.0
  0
VERTEX
  5
2CA90
  8
0
 10
497.12051543551928
 20
216.12196708456031
 30
0.0
  0
VERTEX
  5
2CA91
  8
0
 10
497.372305039521
 20
215.76713920471869
 30
0.0
  0
VERTEX
  5
2CA92
  8
0
 10
497.8598171819981
 20
215.04699834451549
 30
0.0
  0
VERTEX
  5
2CA93
  8
0
 10
498.32556472688378
 20
214.31338633456241
 30
0.0
  0
VERTEX
  5
2CA94
  8
0
 10
498.55015290013029
 20
213.9417221890572
 30
0.0
  0
VERTEX
  5
2CA95
  8
0
 10
498.76915360525709
 20
213.5669238838604
 30
0.0
  0
VERTEX
  5
2CA96
  8
0
 10
499.19020849664088
 20
212.80824257416589
 30
0.0
  0
VERTEX
  5
2CA97
  8
0
 10
499.58837314656091
 20
212.03798432561101
 30
0.0
  0
VERTEX
  5
2CA98
  8
0
 10
499.77876558932297
 20
211.64871714271251
 30
0.0
  0
VERTEX
  5
2CA99
  8
0
 10
499.96331066797211
 20
211.25680085357229
 30
0.0
  0
VERTEX
  5
2CA9A
  8
0
 10
500.31470382629908
 20
210.46535311725799
 30
0.0
  0
VERTEX
  5
2CA9B
  8
0
 10
500.64225530784921
 20
209.6643107604668
 30
0.0
  0
VERTEX
  5
2CA9C
  8
0
 10
500.94568797136702
 20
208.85435154500601
 30
0.0
  0
VERTEX
  5
2CA9D
  8
0
 10
501.22474508252611
 20
208.03616077723379
 30
0.0
  0
VERTEX
  5
2CA9E
  8
0
 10
501.47919053115032
 20
207.21043072822479
 30
0.0
  0
VERTEX
  5
2CA9F
  8
0
 10
501.5971157865215
 20
206.79495656834979
 30
0.0
  0
VERTEX
  5
2CAA0
  8
0
 10
501.7088090309876
 20
206.37786004803769
 30
0.0
  0
VERTEX
  5
2CAA1
  8
0
 10
501.91340630186318
 20
205.53915317458771
 30
0.0
  0
VERTEX
  5
2CAA2
  8
0
 10
502.09280923405908
 20
204.6950197376232
 30
0.0
  0
VERTEX
  5
2CAA3
  8
0
 10
502.24686603478489
 20
203.8461739583058
 30
0.0
  0
VERTEX
  5
2CAA4
  8
0
 10
502.3754463566064
 20
202.9933340449102
 30
0.0
  0
VERTEX
  5
2CAA5
  8
0
 10
502.4784414077339
 20
202.13722158514699
 30
0.0
  0
VERTEX
  5
2CAA6
  8
0
 10
502.52031637650322
 20
201.70816442040319
 30
0.0
  0
VERTEX
  5
2CAA7
  8
0
 10
502.55576404407242
 20
201.27856093562741
 30
0.0
  0
VERTEX
  5
2CAA8
  8
0
 10
502.60734884295198
 20
200.41807860898601
 30
0.0
  0
VERTEX
  5
2CAA9
  8
0
 10
502.63315215848201
 20
199.55650265917751
 30
0.0
  0
VERTEX
  5
2CAAA
  8
0
 10
502.63637808470497
 20
199.12553236232449
 30
0.0
  0
SEQEND
  5
2CAAB
  8
0
  0
POLYLINE
  5
1EA90
  8
0
 66
     1
 10
0.0
 20
0.0
 30
0.0
  0
VERTEX
  5
2CAAC
  8
0
 10
502.63637808470497
 20
199.12553236232449
 30
0.0
  0
VERTEX
  5
2CAAD
  8
0
 10
502.6281994913079
 20
198.43934644587989
 30
0.0
  0
VERTEX
  5
2CAAE
  8
0
 10
502.56279705891438
 20
197.0684464249693
 30
0.0
  0
VERTEX
  5
2CAAF
  8
0
 10
502.43213247692978
 20
195.7019586830811
 30
0.0
  0
VERTEX
  5
2CAB0
  8
0
 10
502.34240900890921
 20
195.021285897018
 30
0.0
  0
VERTEX
  5
2CAB1
  8
0
 10
502.2364860100642
 20
194.34281422328559
 30
0.0
  0
VERTEX
  5
2CAB2
  8
0
 10
501.97627730379139
 20
192.99392829792029
 30
0.0
  0
VERTEX
  5
2CAB3
  8
0
 10
501.65206448424209
 20
191.6581941556164
 30
0.0
  0
VERTEX
  5
2CAB4
  8
0
 10
501.26454296107198
 20
190.338476835519
 30
0.0
  0
VERTEX
  5
2CAB5
  8
0
 10
500.81454393586358
 20
189.03760702201589
 30
0.0
  0
VERTEX
  5
2CAB6
  8
0
 10
500.30303261926929
 20
187.75837497315339
 30
0.0
  0
VERTEX
  5
2CAB7
  8
0
 10
500.02454761947359
 20
187.1277325371988
 30
0.0
  0
VERTEX
  5
2CAB8
  8
0
 10
499.7311061607133
 20
186.5035245357644
 30
0.0
  0
VERTEX
  5
2CAB9
  8
0
 10
499.09999129509742
 20
185.27574726014379
 30
0.0
  0
VERTEX
  5
2CABA
  8
0
 10
498.41104171155609
 20
184.07767662689551
 30
0.0
  0
VERTEX
  5
2CABB
  8
0
 10
497.66573514990608
 20
182.91188239833531
 30
0.0
  0
VERTEX
  5
2CABC
  8
0
 10
496.86567023101492
 20
181.78086510656379
 30
0.0
  0
VERTEX
  5
2CABD
  8
0
 10
496.01256302789352
 20
180.6870506900309
 30
0.0
  0
VERTEX
  5
2CABE
  8
0
 10
495.5666860575933
 20
180.15483098504771
 30
0.0
  0
VERTEX
  5
2CABF
  8
0
 10
495.1082433848614
 20
179.63278529009901
 30
0.0
  0
VERTEX
  5
2CAC0
  8
0
 10
494.15465099268067
 20
178.62033021876499
 30
0.0
  0
VERTEX
  5
2CAC1
  8
0
 10
493.15383122808169
 20
177.65185710833251
 30
0.0
  0
VERTEX
  5
2CAC2
  8
0
 10
492.63637808470497
 20
177.18476675135301
 30
0.0
  0
SEQEND
  5
2CAC3
  8
0
  0
LINE
  5
1EA91
  8
2
 10
441.63637808470497
 20
232.74368873142021
 30
0.0
 11
502.63637808470497
 21
232.74368873142021
 31
0.0
  0
LINE
  5
1EA92
  8
0
 10
451.63637808470497
 20
169.74368873142021
 30
0.0
 11
451.63637808470497
 21
221.06629690728639
 31
0.0
  0
LINE
  5
1EA95
  8
0
 10
466.47223244675251
 20
228.24368873142021
 30
0.0
 11
477.80052372265789
 21
228.24368873142021
 31
0.0
  0
LINE
  5
1EA98
  8
0
 10
492.63637808470497
 20
221.06629690728639
 30
0.0
 11
492.63637808470497
 21
169.74368873142021
 31
0.0
  0
LINE
  5
1EA9B
  8
0
 10
446.53637808470501
 20
173.9286887314201
 30
0.0
 11
447.13637808470497
 21
173.9286887314201
 31
0.0
  0
LINE
  5
1EA9C
  8
0
 10
506.3693780847052
 20
183.74368873142021
 30
0.0
 11
505.13637808470497
 21
183.74368873142021
 31
0.0
  0
LINE
  5
1EA9D
  8
0
 10
505.13637808470497
 20
175.74368873142021
 30
0.0
 11
506.3693780847052
 21
175.74368873142021
 31
0.0
  0
LINE
  5
1EA9E
  8
0
 10
507.13637808470492
 20
182.9766887314199
 30
0.0
 11
506.3693780847052
 21
183.74368873142021
 31
0.0
  0
LINE
  5
1EA9F
  8
0
 10
506.3693780847052
 20
175.74368873142021
 30
0.0
 11
507.13637808470492
 21
176.51068873142
 31
0.0
  0
LINE
  5
1EAA1
  8
0
 10
492.63637808470497
 20
183.74368873142021
 30
0.0
 11
492.13637808470497
 21
183.74368873142021
 31
0.0
  0
LINE
  5
1EAA2
  8
0
 10
492.13637808470497
 20
175.74368873142021
 30
0.0
 11
492.63637808470497
 21
175.74368873142021
 31
0.0
  0
LINE
  5
1EAA4
  8
0
 10
505.13637808470497
 20
185.55868873141981
 30
0.0
 11
502.63637808470497
 21
185.55868873141981
 31
0.0
  0
LINE
  5
1EAA5
  8
0
 10
502.63637808470497
 20
173.9286887314201
 30
0.0
 11
505.13637808470497
 21
173.9286887314201
 31
0.0
  0
LINE
  5
1EAA6
  8
0
 10
452.13637808470497
 20
183.74368873142021
 30
0.0
 11
451.63637808470497
 21
183.74368873142021
 31
0.0
  0
LINE
  5
1EAA9
  8
0
 10
451.63637808470497
 20
175.74368873142021
 30
0.0
 11
452.13637808470497
 21
175.74368873142021
 31
0.0
  0
LINE
  5
1EAAA
  8
0
 10
492.13637808470497
 20
185.74368873142021
 30
0.0
 11
484.63637808470497
 21
185.74368873142021
 31
0.0
  0
LINE
  5
1EAAC
  8
0
 10
459.63637808470497
 20
185.74368873142021
 30
0.0
 11
452.13637808470497
 21
185.74368873142021
 31
0.0
  0
LINE
  5
1EAAD
  8
0
 10
452.13637808470497
 20
173.74368873142021
 30
0.0
 11
459.63637808470497
 21
173.74368873142021
 31
0.0
  0
LINE
  5
1EAAF
  8
0
 10
484.63637808470497
 20
173.74368873142021
 30
0.0
 11
492.13637808470497
 21
173.74368873142021
 31
0.0
  0
LINE
  5
1EAB0
  8
0
 10
506.3693780847052
 20
175.74368873142021
 30
0.0
 11
506.3693780847052
 21
183.74368873142021
 31
0.0
  0
LINE
  5
1EAB1
  8
0
 10
507.13637808470492
 20
176.51068873142
 30
0.0
 11
507.13637808470492
 21
182.9766887314199
 31
0.0
  0
LINE
  5
1EAB2
  8
0
 10
441.8363780847053
 20
173.48535539808651
 30
0.0
 11
441.8363780847053
 21
186.00202206475339
 31
0.0
  0
LINE
  5
1EAB3
  8
0
 10
446.53637808470501
 20
173.48535539808651
 30
0.0
 11
446.53637808470501
 21
178.8936488593217
 31
0.0
  0
POLYLINE
  5
1EAC0
  8
0
 66
     1
 10
0.0
 20
0.0
 30
0.0
  0
VERTEX
  5
2CAC4
  8
0
 10
442.09579779412059
 20
179.74368873142021
 30
0.0
  0
VERTEX
  5
2CAC5
  8
0
 10
442.01495314086242
 20
180.30586720953491
 30
0.0
  0
VERTEX
  5
2CAC6
  8
0
 10
441.90034280210921
 20
181.3616571022589
 30
0.0
  0
VERTEX
  5
2CAC7
  8
0
 10
441.84356821832489
 20
182.37041764617101
 30
0.0
  0
VERTEX
  5
2CAC8
  8
0
 10
441.8363780847053
 20
182.87285539808681
 30
0.0
  0
SEQEND
  5
2CAC9
  8
0
  0
POLYLINE
  5
1EAC1
  8
0
 66
     1
 10
0.0
 20
0.0
 30
0.0
  0
VERTEX
  5
2CACA
  8
0
 10
441.8363780847053
 20
182.87285539808681
 30
0.0
  0
VERTEX
  5
2CACB
  8
0
 10
441.84310061002088
 20
183.3586467656319
 30
0.0
  0
VERTEX
  5
2CACC
  8
0
 10
441.89617377227569
 20
184.33308485914489
 30
0.0
  0
VERTEX
  5
2CACD
  8
0
 10
442.00310819449942
 20
185.34908621403611
 30
0.0
  0
VERTEX
  5
2CACE
  8
0
 10
442.07833807130282
 20
185.88757662079931
 30
0.0
  0
SEQEND
  5
2CACF
  8
0
  0
POLYLINE
  5
1EAC4
  8
0
 66
     1
 10
0.0
 20
0.0
 30
0.0
  0
VERTEX
  5
2CAD0
  8
0
 10
446.53637808470501
 20
176.61452206475309
 30
0.0
  0
VERTEX
  5
2CAD1
  8
0
 10
446.52918795108502
 20
176.11208431283779
 30
0.0
  0
VERTEX
  5
2CAD2
  8
0
 10
446.47241336730082
 20
175.10332376892529
 30
0.0
  0
VERTEX
  5
2CAD3
  8
0
 10
446.35780302854749
 20
174.04753387620161
 30
0.0
  0
VERTEX
  5
2CAD4
  8
0
 10
446.27695837528972
 20
173.48535539808651
 30
0.0
  0
SEQEND
  5
2CAD5
  8
0
  0
POLYLINE
  5
1EAC6
  8
0
 66
     1
 10
0.0
 20
0.0
 30
0.0
  0
VERTEX
  5
2CAD6
  8
0
 10
442.09579779412059
 20
173.48535539808651
 30
0.0
  0
VERTEX
  5
2CAD7
  8
0
 10
442.01495314086242
 20
174.04753387620161
 30
0.0
  0
VERTEX
  5
2CAD8
  8
0
 10
441.90034280210921
 20
175.10332376892529
 30
0.0
  0
VERTEX
  5
2CAD9
  8
0
 10
441.84356821832489
 20
176.11208431283779
 30
0.0
  0
VERTEX
  5
2CADA
  8
0
 10
441.8363780847053
 20
176.61452206475309
 30
0.0
  0
SEQEND
  5
2CADB
  8
0
  0
POLYLINE
  5
1EAC7
  8
0
 66
     1
 10
0.0
 20
0.0
 30
0.0
  0
VERTEX
  5
2CADC
  8
0
 10
441.8363780847053
 20
176.61452206475309
 30
0.0
  0
VERTEX
  5
2CADD
  8
0
 10
441.84356821832489
 20
177.1169598166689
 30
0.0
  0
VERTEX
  5
2CADE
  8
0
 10
441.90034280210921
 20
178.1257203605814
 30
0.0
  0
VERTEX
  5
2CADF
  8
0
 10
442.01495314086242
 20
179.18151025330511
 30
0.0
  0
VERTEX
  5
2CAE0
  8
0
 10
442.09579779412059
 20
179.74368873142021
 30
0.0
  0
SEQEND
  5
2CAE1
  8
0
  0
LINE
  5
1EAC8
  8
0
 10
442.09579779412059
 20
179.74368873142021
 30
0.0
 11
445.84905718311887
 21
179.74368873142021
 31
0.0
  0
POLYLINE
  5
1EACB
  8
0
 66
     1
 10
0.0
 20
0.0
 30
0.0
  0
VERTEX
  5
2CAE2
  8
0
 10
446.36973819891222
 20
179.09005107700881
 30
0.0
  0
VERTEX
  5
2CAE3
  8
0
 10
446.42105555357421
 20
178.65883325153931
 30
0.0
  0
VERTEX
  5
2CAE4
  8
0
 10
446.49481419682292
 20
177.82869735201569
 30
0.0
  0
VERTEX
  5
2CAE5
  8
0
 10
446.53170423590831
 20
177.01946001530811
 30
0.0
  0
VERTEX
  5
2CAE6
  8
0
 10
446.53637808470501
 20
176.61452206475309
 30
0.0
  0
SEQEND
  5
2CAE7
  8
0
  0
POLYLINE
  5
1EACF
  8
0
 66
     1
 10
0.0
 20
0.0
 30
0.0
  0
VERTEX
  5
2CAE8
  8
0
 10
442.0231649967709
 20
186.00202206475339
 30
0.0
  0
VERTEX
  5
2CAE9
  8
0
 10
441.96549995549128
 20
186.00202206475339
 30
0.0
  0
VERTEX
  5
2CAEA
  8
0
 10
441.88285746678361
 20
186.00202206475339
 30
0.0
  0
VERTEX
  5
2CAEB
  8
0
 10
441.84160480829132
 20
186.00202206475339
 30
0.0
  0
VERTEX
  5
2CAEC
  8
0
 10
441.8363780847053
 20
186.00202206475339
 30
0.0
  0
SEQEND
  5
2CAED
  8
0
  0
LINE
  5
1EAD0
  8
0
 10
505.13637808470497
 20
173.9286887314201
 30
0.0
 11
505.13637808470497
 21
185.55868873141981
 31
0.0
  0
LINE
  5
1EAD1
  8
0
 10
502.63637808470497
 20
173.48535539808651
 30
0.0
 11
502.63637808470497
 21
186.00202206475339
 31
0.0
  0
POLYLINE
  5
1EADC
  8
0
 66
     1
 10
0.0
 20
0.0
 30
0.0
  0
VERTEX
  5
2CAEE
  8
0
 10
502.63637808470497
 20
182.87285539808681
 30
0.0
  0
VERTEX
  5
2CAEF
  8
0
 10
502.62918795108487
 20
182.37041764617101
 30
0.0
  0
VERTEX
  5
2CAF0
  8
0
 10
502.57241336730073
 20
181.3616571022589
 30
0.0
  0
VERTEX
  5
2CAF1
  8
0
 10
502.45780302854791
 20
180.30586720953491
 30
0.0
  0
VERTEX
  5
2CAF2
  8
0
 10
502.37695837528958
 20
179.74368873142021
 30
0.0
  0
SEQEND
  5
2CAF3
  8
0
  0
POLYLINE
  5
1EADF
  8
0
 66
     1
 10
0.0
 20
0.0
 30
0.0
  0
VERTEX
  5
2CAF4
  8
0
 10
502.37695837528958
 20
186.00202206475339
 30
0.0
  0
VERTEX
  5
2CAF5
  8
0
 10
502.45780302854791
 20
185.43984358663869
 30
0.0
  0
VERTEX
  5
2CAF6
  8
0
 10
502.57241336730073
 20
184.38405369391461
 30
0.0
  0
VERTEX
  5
2CAF7
  8
0
 10
502.62918795108487
 20
183.37529315000211
 30
0.0
  0
VERTEX
  5
2CAF8
  8
0
 10
502.63637808470497
 20
182.87285539808681
 30
0.0
  0
SEQEND
  5
2CAF9
  8
0
  0
POLYLINE
  5
1EAE0
  8
0
 66
     1
 10
0.0
 20
0.0
 30
0.0
  0
VERTEX
  5
2CAFA
  8
0
 10
502.63637808470497
 20
176.61452206475309
 30
0.0
  0
VERTEX
  5
2CAFB
  8
0
 10
502.62918795108487
 20
176.11208431283779
 30
0.0
  0
VERTEX
  5
2CAFC
  8
0
 10
502.57241336730073
 20
175.10332376892529
 30
0.0
  0
VERTEX
  5
2CAFD
  8
0
 10
502.45780302854791
 20
174.04753387620161
 30
0.0
  0
VERTEX
  5
2CAFE
  8
0
 10
502.37695837528958
 20
173.48535539808651
 30
0.0
  0
SEQEND
  5
2CAFF
  8
0
  0
POLYLINE
  5
1EAE2
  8
0
 66
     1
 10
0.0
 20
0.0
 30
0.0
  0
VERTEX
  5
2CB00
  8
0
 10
497.39579779412031
 20
173.48535539808651
 30
0.0
  0
VERTEX
  5
2CB01
  8
0
 10
497.31495314086402
 20
174.0475338761903
 30
0.0
  0
VERTEX
  5
2CB02
  8
0
 10
497.20034280211212
 20
175.10332376889431
 30
0.0
  0
VERTEX
  5
2CB03
  8
0
 10
497.14356821832638
 20
176.11208431278689
 30
0.0
  0
VERTEX
  5
2CB04
  8
0
 10
497.13637808470497
 20
176.6145220646917
 30
0.0
  0
SEQEND
  5
2CB05
  8
0
  0
POLYLINE
  5
1EAE3
  8
0
 66
     1
 10
0.0
 20
0.0
 30
0.0
  0
VERTEX
  5
2CB06
  8
0
 10
497.13637808470497
 20
176.61452206475309
 30
0.0
  0
VERTEX
  5
2CB07
  8
0
 10
497.138571376784
 20
176.8918150890554
 30
0.0
  0
VERTEX
  5
2CB08
  8
0
 10
497.15591020262673
 20
177.44415192808131
 30
0.0
  0
VERTEX
  5
2CB09
  8
0
 10
497.19033939361128
 20
178.00049885857149
 30
0.0
  0
VERTEX
  5
2CB0A
  8
0
 10
497.21401793337549
 20
178.2827702413947
 30
0.0
  0
SEQEND
  5
2CB0B
  8
0
  0
LINE
  5
1EAE6
  8
0
 10
498.42369898629107
 20
179.74368873142021
 30
0.0
 11
502.37695837528958
 21
179.74368873142021
 31
0.0
  0
POLYLINE
  5
1EAE7
  8
0
 66
     1
 10
0.0
 20
0.0
 30
0.0
  0
VERTEX
  5
2CB0C
  8
0
 10
502.37695837528958
 20
179.74368873142021
 30
0.0
  0
VERTEX
  5
2CB0D
  8
0
 10
502.45780302854791
 20
179.18151025330511
 30
0.0
  0
VERTEX
  5
2CB0E
  8
0
 10
502.57241336730073
 20
178.1257203605814
 30
0.0
  0
VERTEX
  5
2CB0F
  8
0
 10
502.62918795108487
 20
177.1169598166689
 30
0.0
  0
VERTEX
  5
2CB10
  8
0
 10
502.63637808470497
 20
176.61452206475309
 30
0.0
  0
SEQEND
  5
2CB11
  8
0
  0
LINE
  5
1EAEC
  8
0
 10
452.13637808470497
 20
173.74368873142021
 30
0.0
 11
452.13637808470497
 21
185.74368873142021
 31
0.0
  0
LINE
  5
1EAED
  8
0
 10
492.13637808470497
 20
173.74368873142021
 30
0.0
 11
492.13637808470497
 21
185.74368873142021
 31
0.0
  0
LINE
  5
1EAF4
  8
0
 10
481.378314652602
 20
219.74368873142021
 30
0.0
 11
462.894441516808
 21
219.74368873142021
 31
0.0
  0
LINE
  5
1EAF5
  8
0
 10
462.894441516808
 20
139.74368873142021
 30
0.0
 11
481.378314652602
 21
139.74368873142021
 31
0.0
  0
ARC
  5
1EAF6
  8
0
 10
481.378314652602
 20
142.24368873142021
 30
0.0
 40
2.499999999999992
 50
270.0
 51
345.00000000000563
  0
ARC
  5
1EAF7
  8
0
 10
481.378314652602
 20
217.24368873142021
 30
0.0
 40
2.4999999999999938
 50
14.999999999994451
 51
90.0
  0
LINE
  5
1EAF8
  8
0
 10
484.63637808470497
 20
214.74368873142021
 30
0.0
 11
483.79312921832479
 21
217.8907363441763
 31
0.0
  0
LINE
  5
1EAF9
  8
0
 10
483.79312921832479
 20
141.5966411186636
 30
0.0
 11
484.63637808470497
 21
144.74368873142021
 31
0.0
  0
LINE
  5
1EB0C
  8
0
 10
460.47962695108532
 20
217.8907363441763
 30
0.0
 11
459.63637808470497
 21
214.74368873142021
 31
0.0
  0
LINE
  5
1EB0D
  8
0
 10
459.63637808470497
 20
144.74368873142021
 30
0.0
 11
460.47962695108532
 21
141.5966411186636
 31
0.0
  0
ARC
  5
1EB0E
  8
0
 10
462.894441516808
 20
142.24368873142021
 30
0.0
 40
2.4999999999999778
 50
194.9999999999944
 51
270.0
  0
ARC
  5
1EB0F
  8
0
 10
462.894441516808
 20
217.24368873142021
 30
0.0
 40
2.4999999999999778
 50
90.0
 51
165.00000000000551
  0
LINE
  5
1EB22
  8
0
 10
481.378314652602
 20
139.74368873142021
 30
0.0
 11
481.378314652602
 21
219.74368873142021
 31
0.0
  0
LINE
  5
1EB24
  8
0
 10
484.63637808470497
 20
144.74368873142021
 30
0.0
 11
484.63637808470497
 21
214.74368873142021
 31
0.0
  0
LINE
  5
1EB27
  8
0
 10
459.63637808470497
 20
144.74368873142021
 30
0.0
 11
459.63637808470497
 21
214.74368873142021
 31
0.0
  0
LINE
  5
1EB28
  8
0
 10
462.894441516808
 20
139.74368873142021
 30
0.0
 11
462.894441516808
 21
219.74368873142021
 31
0.0
  0
CIRCLE
  5
24F19
  8
0
 10
349.9504830537166
 20
406.2797765702262
 30
0.0
 40
11.0
  0
CIRCLE
  5
24F1A
  8
0
 10
349.9504830537166
 20
406.2797765702262
 30
0.0
 40
28.025000000000009
  0
CIRCLE
  5
24F1B
  8
0
 10
349.9504830537166
 20
406.2797765702262
 30
0.0
 40
31.025000000000009
  0
CIRCLE
  5
24F1C
  8
0
 10
349.9504830537166
 20
406.2797765702262
 30
0.0
 40
32.5
  0
CIRCLE
  5
24F1D
  8
0
 10
349.9504830537166
 20
406.2797765702262
 30
0.0
 40
36.5
  0
LINE
  5
24F20
  8
0
 10
323.3563107597725
 20
381.2797765702262
 30
0.0
 11
296.25048305371678
 21
381.2797765702262
 31
0.0
  0
LINE
  5
24F21
  8
0
 10
296.25048305371678
 20
431.2797765702262
 30
0.0
 11
323.3563107597725
 21
431.2797765702262
 31
0.0
  0
CIRCLE
  5
24F2E
  8
0
 10
349.9504830537166
 20
406.2797765702262
 30
0.0
 40
6.0
  0
LINE
  5
24F2F
  8
1
 10
261.82211929956878
 20
406.2797765702262
 30
0.0
 11
395.57884680786492
 21
406.2797765702262
 31
0.0
  0
LINE
  5
24F30
  8
1
 10
349.9504830537166
 20
360.65141281607788
 30
0.0
 11
349.9504830537166
 21
451.90814032437402
 31
0.0
  0
LINE
  5
24F31
  8
0
 10
305.1354830537166
 20
381.2797765702262
 30
0.0
 11
305.1354830537166
 21
380.67977657022578
 31
0.0
  0
LINE
  5
24F32
  8
0
 10
316.76548305371671
 20
380.67977657022578
 30
0.0
 11
316.76548305371671
 21
381.2797765702262
 31
0.0
  0
LINE
  5
24F33
  8
0
 10
306.9504830537166
 20
440.51277657022592
 30
0.0
 11
306.9504830537166
 21
439.2797765702262
 31
0.0
  0
LINE
  5
24F34
  8
0
 10
314.9504830537166
 20
439.2797765702262
 30
0.0
 11
314.9504830537166
 21
440.51277657022592
 31
0.0
  0
LINE
  5
24F35
  8
0
 10
307.71748305371648
 20
441.27977657022609
 30
0.0
 11
306.9504830537166
 21
440.51277657022592
 31
0.0
  0
LINE
  5
24F36
  8
0
 10
314.9504830537166
 20
440.51277657022592
 30
0.0
 11
314.18348305371683
 21
441.27977657022609
 31
0.0
  0
LINE
  5
24F37
  8
0
 10
317.20881638704981
 20
375.97977657022602
 30
0.0
 11
318.17698392307329
 21
376.23919627964142
 31
0.0
  0
LINE
  5
24F38
  8
0
 10
303.72398218436001
 20
376.23919627964142
 30
0.0
 11
304.69214972038338
 21
375.97977657022602
 31
0.0
  0
LINE
  5
24F39
  8
0
 10
318.17698392307329
 20
380.42035686081039
 30
0.0
 11
317.20881638704981
 21
380.67977657022578
 31
0.0
  0
LINE
  5
24F3A
  8
0
 10
304.69214972038338
 20
380.67977657022578
 30
0.0
 11
303.72398218436001
 21
380.42035686081039
 31
0.0
  0
LINE
  5
24F3B
  8
0
 10
305.1354830537166
 20
439.2797765702262
 30
0.0
 11
305.1354830537166
 21
436.77977657022609
 31
0.0
  0
LINE
  5
24F3C
  8
0
 10
316.76548305371671
 20
436.77977657022609
 30
0.0
 11
316.76548305371671
 21
439.2797765702262
 31
0.0
  0
LINE
  5
24F3D
  8
0
 10
317.20881638704981
 20
431.2797765702262
 30
0.0
 11
318.17698392307329
 21
431.53919627964149
 31
0.0
  0
LINE
  5
24F3E
  8
0
 10
303.72398218436001
 20
431.53919627964149
 30
0.0
 11
304.69214972038338
 21
431.2797765702262
 31
0.0
  0
LINE
  5
24F3F
  8
0
 10
318.17698392307329
 20
436.5203568608103
 30
0.0
 11
317.20881638704981
 21
436.77977657022609
 31
0.0
  0
LINE
  5
24F40
  8
0
 10
304.69214972038338
 20
436.77977657022609
 30
0.0
 11
303.72398218436001
 21
436.5203568608103
 31
0.0
  0
LINE
  5
24F41
  8
0
 10
314.9504830537166
 20
440.51277657022592
 30
0.0
 11
306.9504830537166
 21
440.51277657022592
 31
0.0
  0
LINE
  5
24F42
  8
0
 10
314.18348305371683
 20
441.27977657022609
 30
0.0
 11
307.71748305371648
 21
441.27977657022609
 31
0.0
  0
LINE
  5
24F43
  8
0
 10
317.20881638704981
 20
375.97977657022602
 30
0.0
 11
304.69214972038338
 21
375.97977657022602
 31
0.0
  0
LINE
  5
24F44
  8
0
 10
317.20881638704981
 20
380.67977657022578
 30
0.0
 11
304.69214972038338
 21
380.67977657022578
 31
0.0
  0
POLYLINE
  5
24F45
  8
0
 66
     1
 10
0.0
 20
0.0
 30
0.0
  0
VERTEX
  5
2CB12
  8
0
 10
307.33723261903839
 20
376.23919627964142
 30
0.0
  0
VERTEX
  5
2CB13
  8
0
 10
307.0126587233658
 20
376.15835162638319
 30
0.0
  0
VERTEX
  5
2CB14
  8
0
 10
306.40309814459442
 20
376.04374128763038
 30
0.0
  0
VERTEX
  5
2CB15
  8
0
 10
305.82068997301849
 20
375.98696670384612
 30
0.0
  0
VERTEX
  5
2CB16
  8
0
 10
305.530607401699
 20
375.97977657022602
 30
0.0
  0
SEQEND
  5
2CB17
  8
0
  0
POLYLINE
  5
24F46
  8
0
 66
     1
 10
0.0
 20
0.0
 30
0.0
  0
VERTEX
  5
2CB18
  8
0
 10
305.530607401699
 20
375.97977657022602
 30
0.0
  0
VERTEX
  5
2CB19
  8
0
 10
305.2405248303794
 20
375.98696670384612
 30
0.0
  0
VERTEX
  5
2CB1A
  8
0
 10
304.65811665880392
 20
376.04374128763038
 30
0.0
  0
VERTEX
  5
2CB1B
  8
0
 10
304.04855608003209
 20
376.15835162638319
 30
0.0
  0
VERTEX
  5
2CB1C
  8
0
 10
303.72398218436001
 20
376.23919627964142
 30
0.0
  0
SEQEND
  5
2CB1D
  8
0
  0
POLYLINE
  5
24F47
  8
0
 66
     1
 10
0.0
 20
0.0
 30
0.0
  0
VERTEX
  5
2CB1E
  8
0
 10
303.72398218436001
 20
380.42035686081039
 30
0.0
  0
VERTEX
  5
2CB1F
  8
0
 10
304.04855608003209
 20
380.50120151406873
 30
0.0
  0
VERTEX
  5
2CB20
  8
0
 10
304.65811665880392
 20
380.61581185282148
 30
0.0
  0
VERTEX
  5
2CB21
  8
0
 10
305.2405248303794
 20
380.6725864366062
 30
0.0
  0
VERTEX
  5
2CB22
  8
0
 10
305.530607401699
 20
380.67977657022578
 30
0.0
  0
SEQEND
  5
2CB23
  8
0
  0
POLYLINE
  5
24F48
  8
0
 66
     1
 10
0.0
 20
0.0
 30
0.0
  0
VERTEX
  5
2CB24
  8
0
 10
305.530607401699
 20
380.67977657022578
 30
0.0
  0
VERTEX
  5
2CB25
  8
0
 10
305.82068997301849
 20
380.6725864366062
 30
0.0
  0
VERTEX
  5
2CB26
  8
0
 10
306.40309814459442
 20
380.61581185282148
 30
0.0
  0
VERTEX
  5
2CB27
  8
0
 10
307.0126587233658
 20
380.50120151406873
 30
0.0
  0
VERTEX
  5
2CB28
  8
0
 10
307.33723261903839
 20
380.42035686081039
 30
0.0
  0
SEQEND
  5
2CB29
  8
0
  0
LINE
  5
24F49
  8
0
 10
303.72398218436001
 20
376.23919627964142
 30
0.0
 11
303.72398218436001
 21
380.42035686081039
 31
0.0
  0
POLYLINE
  5
24F4A
  8
0
 66
     1
 10
0.0
 20
0.0
 30
0.0
  0
VERTEX
  5
2CB2A
  8
0
 10
316.37035870573442
 20
380.67977657022578
 30
0.0
  0
VERTEX
  5
2CB2B
  8
0
 10
316.66044127705391
 20
380.6725864366062
 30
0.0
  0
VERTEX
  5
2CB2C
  8
0
 10
317.24284944862939
 20
380.61581185282148
 30
0.0
  0
VERTEX
  5
2CB2D
  8
0
 10
317.85241002740122
 20
380.50120151406873
 30
0.0
  0
VERTEX
  5
2CB2E
  8
0
 10
318.17698392307329
 20
380.42035686081039
 30
0.0
  0
SEQEND
  5
2CB2F
  8
0
  0
POLYLINE
  5
24F4B
  8
0
 66
     1
 10
0.0
 20
0.0
 30
0.0
  0
VERTEX
  5
2CB30
  8
0
 10
318.17698392307329
 20
376.23919627964142
 30
0.0
  0
VERTEX
  5
2CB31
  8
0
 10
317.85241002740122
 20
376.15835162638319
 30
0.0
  0
VERTEX
  5
2CB32
  8
0
 10
317.24284944862939
 20
376.04374128763038
 30
0.0
  0
VERTEX
  5
2CB33
  8
0
 10
316.66044127705391
 20
375.98696670384612
 30
0.0
  0
VERTEX
  5
2CB34
  8
0
 10
316.37035870573442
 20
375.97977657022602
 30
0.0
  0
SEQEND
  5
2CB35
  8
0
  0
POLYLINE
  5
24F4C
  8
0
 66
     1
 10
0.0
 20
0.0
 30
0.0
  0
VERTEX
  5
2CB36
  8
0
 10
316.37035870573442
 20
375.97977657022602
 30
0.0
  0
VERTEX
  5
2CB37
  8
0
 10
316.08027613441482
 20
375.98696670384612
 30
0.0
  0
VERTEX
  5
2CB38
  8
0
 10
315.49786796283888
 20
376.04374128763038
 30
0.0
  0
VERTEX
  5
2CB39
  8
0
 10
314.8883073840675
 20
376.15835162638319
 30
0.0
  0
VERTEX
  5
2CB3A
  8
0
 10
314.56373348839497
 20
376.23919627964142
 30
0.0
  0
SEQEND
  5
2CB3B
  8
0
  0
POLYLINE
  5
24F4D
  8
0
 66
     1
 10
0.0
 20
0.0
 30
0.0
  0
VERTEX
  5
2CB3C
  8
0
 10
314.56373348839497
 20
380.42035686081039
 30
0.0
  0
VERTEX
  5
2CB3D
  8
0
 10
314.8883073840675
 20
380.50120151406873
 30
0.0
  0
VERTEX
  5
2CB3E
  8
0
 10
315.49786796283888
 20
380.61581185282148
 30
0.0
  0
VERTEX
  5
2CB3F
  8
0
 10
316.08027613441482
 20
380.6725864366062
 30
0.0
  0
VERTEX
  5
2CB40
  8
0
 10
316.37035870573442
 20
380.67977657022578
 30
0.0
  0
SEQEND
  5
2CB41
  8
0
  0
LINE
  5
24F4E
  8
0
 10
318.17698392307329
 20
376.23919627964142
 30
0.0
 11
318.17698392307329
 21
380.42035686081039
 31
0.0
  0
POLYLINE
  5
24F4F
  8
0
 66
     1
 10
0.0
 20
0.0
 30
0.0
  0
VERTEX
  5
2CB42
  8
0
 10
310.9504830537166
 20
380.67977657022578
 30
0.0
  0
VERTEX
  5
2CB43
  8
0
 10
311.53064819635568
 20
380.6725864366062
 30
0.0
  0
VERTEX
  5
2CB44
  8
0
 10
312.6954645395067
 20
380.61581185282148
 30
0.0
  0
VERTEX
  5
2CB45
  8
0
 10
313.91458569705082
 20
380.50120151406873
 30
0.0
  0
VERTEX
  5
2CB46
  8
0
 10
314.56373348839497
 20
380.42035686081039
 30
0.0
  0
SEQEND
  5
2CB47
  8
0
  0
LINE
  5
24F50
  8
0
 10
314.56373348839497
 20
376.23919627964142
 30
0.0
 11
314.56373348839497
 21
380.42035686081039
 31
0.0
  0
POLYLINE
  5
24F51
  8
0
 66
     1
 10
0.0
 20
0.0
 30
0.0
  0
VERTEX
  5
2CB48
  8
0
 10
314.56373348839497
 20
376.23919627964142
 30
0.0
  0
VERTEX
  5
2CB49
  8
0
 10
313.91458569705082
 20
376.15835162638319
 30
0.0
  0
VERTEX
  5
2CB4A
  8
0
 10
312.6954645395067
 20
376.04374128763038
 30
0.0
  0
VERTEX
  5
2CB4B
  8
0
 10
311.53064819635568
 20
375.98696670384612
 30
0.0
  0
VERTEX
  5
2CB4C
  8
0
 10
310.9504830537166
 20
375.97977657022602
 30
0.0
  0
SEQEND
  5
2CB4D
  8
0
  0
POLYLINE
  5
24F52
  8
0
 66
     1
 10
0.0
 20
0.0
 30
0.0
  0
VERTEX
  5
2CB4E
  8
0
 10
310.9504830537166
 20
375.97977657022602
 30
0.0
  0
VERTEX
  5
2CB4F
  8
0
 10
310.37031791107762
 20
375.98696670384612
 30
0.0
  0
VERTEX
  5
2CB50
  8
0
 10
309.2055015679266
 20
376.04374128763038
 30
0.0
  0
VERTEX
  5
2CB51
  8
0
 10
307.98638041038248
 20
376.15835162638319
 30
0.0
  0
VERTEX
  5
2CB52
  8
0
 10
307.33723261903839
 20
376.23919627964142
 30
0.0
  0
SEQEND
  5
2CB53
  8
0
  0
LINE
  5
24F53
  8
0
 10
307.33723261903839
 20
376.23919627964142
 30
0.0
 11
307.33723261903839
 21
380.42035686081039
 31
0.0
  0
POLYLINE
  5
24F54
  8
0
 66
     1
 10
0.0
 20
0.0
 30
0.0
  0
VERTEX
  5
2CB54
  8
0
 10
307.33723261903839
 20
380.42035686081039
 30
0.0
  0
VERTEX
  5
2CB55
  8
0
 10
307.98638041038248
 20
380.50120151406873
 30
0.0
  0
VERTEX
  5
2CB56
  8
0
 10
309.2055015679266
 20
380.61581185282148
 30
0.0
  0
VERTEX
  5
2CB57
  8
0
 10
310.37031791107762
 20
380.6725864366062
 30
0.0
  0
VERTEX
  5
2CB58
  8
0
 10
310.9504830537166
 20
380.67977657022578
 30
0.0
  0
SEQEND
  5
2CB59
  8
0
  0
LINE
  5
24F55
  8
0
 10
316.76548305371671
 20
439.2797765702262
 30
0.0
 11
305.1354830537166
 21
439.2797765702262
 31
0.0
  0
LINE
  5
24F56
  8
0
 10
317.20881638704981
 20
436.77977657022609
 30
0.0
 11
304.69214972038338
 21
436.77977657022609
 31
0.0
  0
POLYLINE
  5
24F57
  8
0
 66
     1
 10
0.0
 20
0.0
 30
0.0
  0
VERTEX
  5
2CB5A
  8
0
 10
307.33723261903839
 20
431.53919627964149
 30
0.0
  0
VERTEX
  5
2CB5B
  8
0
 10
307.0126587233658
 20
431.45835162638332
 30
0.0
  0
VERTEX
  5
2CB5C
  8
0
 10
306.40309814459442
 20
431.34374128763011
 30
0.0
  0
VERTEX
  5
2CB5D
  8
0
 10
305.82068997301849
 20
431.28696670384579
 30
0.0
  0
VERTEX
  5
2CB5E
  8
0
 10
305.530607401699
 20
431.2797765702262
 30
0.0
  0
SEQEND
  5
2CB5F
  8
0
  0
POLYLINE
  5
24F58
  8
0
 66
     1
 10
0.0
 20
0.0
 30
0.0
  0
VERTEX
  5
2CB60
  8
0
 10
305.530607401699
 20
431.2797765702262
 30
0.0
  0
VERTEX
  5
2CB61
  8
0
 10
305.2405248303794
 20
431.28696670384579
 30
0.0
  0
VERTEX
  5
2CB62
  8
0
 10
304.65811665880392
 20
431.34374128763011
 30
0.0
  0
VERTEX
  5
2CB63
  8
0
 10
304.04855608003209
 20
431.45835162638332
 30
0.0
  0
VERTEX
  5
2CB64
  8
0
 10
303.72398218436001
 20
431.53919627964149
 30
0.0
  0
SEQEND
  5
2CB65
  8
0
  0
POLYLINE
  5
24F59
  8
0
 66
     1
 10
0.0
 20
0.0
 30
0.0
  0
VERTEX
  5
2CB66
  8
0
 10
303.72398218436001
 20
436.5203568608103
 30
0.0
  0
VERTEX
  5
2CB67
  8
0
 10
304.04855608003209
 20
436.60120151406858
 30
0.0
  0
VERTEX
  5
2CB68
  8
0
 10
304.65811665880392
 20
436.71581185282179
 30
0.0
  0
VERTEX
  5
2CB69
  8
0
 10
305.2405248303794
 20
436.7725864366061
 30
0.0
  0
VERTEX
  5
2CB6A
  8
0
 10
305.530607401699
 20
436.77977657022609
 30
0.0
  0
SEQEND
  5
2CB6B
  8
0
  0
POLYLINE
  5
24F5A
  8
0
 66
     1
 10
0.0
 20
0.0
 30
0.0
  0
VERTEX
  5
2CB6C
  8
0
 10
305.530607401699
 20
436.77977657022609
 30
0.0
  0
VERTEX
  5
2CB6D
  8
0
 10
305.82068997301849
 20
436.7725864366061
 30
0.0
  0
VERTEX
  5
2CB6E
  8
0
 10
306.40309814459442
 20
436.71581185282179
 30
0.0
  0
VERTEX
  5
2CB6F
  8
0
 10
307.0126587233658
 20
436.60120151406858
 30
0.0
  0
VERTEX
  5
2CB70
  8
0
 10
307.33723261903839
 20
436.5203568608103
 30
0.0
  0
SEQEND
  5
2CB71
  8
0
  0
LINE
  5
24F5B
  8
0
 10
303.72398218436001
 20
431.53919627964149
 30
0.0
 11
303.72398218436001
 21
436.5203568608103
 31
0.0
  0
POLYLINE
  5
24F5C
  8
0
 66
     1
 10
0.0
 20
0.0
 30
0.0
  0
VERTEX
  5
2CB72
  8
0
 10
316.37035870573442
 20
436.77977657022609
 30
0.0
  0
VERTEX
  5
2CB73
  8
0
 10
316.66044127705391
 20
436.7725864366061
 30
0.0
  0
VERTEX
  5
2CB74
  8
0
 10
317.24284944862939
 20
436.71581185282179
 30
0.0
  0
VERTEX
  5
2CB75
  8
0
 10
317.85241002740122
 20
436.60120151406858
 30
0.0
  0
VERTEX
  5
2CB76
  8
0
 10
318.17698392307329
 20
436.5203568608103
 30
0.0
  0
SEQEND
  5
2CB77
  8
0
  0
POLYLINE
  5
24F5D
  8
0
 66
     1
 10
0.0
 20
0.0
 30
0.0
  0
VERTEX
  5
2CB78
  8
0
 10
318.17698392307329
 20
431.53919627964149
 30
0.0
  0
VERTEX
  5
2CB79
  8
0
 10
317.85241002740122
 20
431.45835162638332
 30
0.0
  0
VERTEX
  5
2CB7A
  8
0
 10
317.24284944862939
 20
431.34374128763011
 30
0.0
  0
VERTEX
  5
2CB7B
  8
0
 10
316.66044127705391
 20
431.28696670384579
 30
0.0
  0
VERTEX
  5
2CB7C
  8
0
 10
316.37035870573442
 20
431.2797765702262
 30
0.0
  0
SEQEND
  5
2CB7D
  8
0
  0
POLYLINE
  5
24F5E
  8
0
 66
     1
 10
0.0
 20
0.0
 30
0.0
  0
VERTEX
  5
2CB7E
  8
0
 10
316.37035870573442
 20
431.2797765702262
 30
0.0
  0
VERTEX
  5
2CB7F
  8
0
 10
316.08027613441482
 20
431.28696670384579
 30
0.0
  0
VERTEX
  5
2CB80
  8
0
 10
315.49786796283928
 20
431.34374128763011
 30
0.0
  0
VERTEX
  5
2CB81
  8
0
 10
314.8883073840675
 20
431.45835162638332
 30
0.0
  0
VERTEX
  5
2CB82
  8
0
 10
314.56373348839497
 20
431.53919627964149
 30
0.0
  0
SEQEND
  5
2CB83
  8
0
  0
POLYLINE
  5
24F5F
  8
0
 66
     1
 10
0.0
 20
0.0
 30
0.0
  0
VERTEX
  5
2CB84
  8
0
 10
314.56373348839497
 20
436.5203568608103
 30
0.0
  0
VERTEX
  5
2CB85
  8
0
 10
314.8883073840675
 20
436.60120151406858
 30
0.0
  0
VERTEX
  5
2CB86
  8
0
 10
315.49786796283928
 20
436.71581185282179
 30
0.0
  0
VERTEX
  5
2CB87
  8
0
 10
316.08027613441482
 20
436.7725864366061
 30
0.0
  0
VERTEX
  5
2CB88
  8
0
 10
316.37035870573442
 20
436.77977657022609
 30
0.0
  0
SEQEND
  5
2CB89
  8
0
  0
LINE
  5
24F60
  8
0
 10
318.17698392307329
 20
431.53919627964149
 30
0.0
 11
318.17698392307329
 21
436.5203568608103
 31
0.0
  0
POLYLINE
  5
24F61
  8
0
 66
     1
 10
0.0
 20
0.0
 30
0.0
  0
VERTEX
  5
2CB8A
  8
0
 10
310.9504830537166
 20
436.77977657022609
 30
0.0
  0
VERTEX
  5
2CB8B
  8
0
 10
311.53064819635568
 20
436.7725864366061
 30
0.0
  0
VERTEX
  5
2CB8C
  8
0
 10
312.6954645395067
 20
436.71581185282179
 30
0.0
  0
VERTEX
  5
2CB8D
  8
0
 10
313.91458569705082
 20
436.60120151406858
 30
0.0
  0
VERTEX
  5
2CB8E
  8
0
 10
314.56373348839497
 20
436.5203568608103
 30
0.0
  0
SEQEND
  5
2CB8F
  8
0
  0
LINE
  5
24F62
  8
0
 10
314.56373348839497
 20
431.53919627964149
 30
0.0
 11
314.56373348839497
 21
436.5203568608103
 31
0.0
  0
POLYLINE
  5
24F63
  8
0
 66
     1
 10
0.0
 20
0.0
 30
0.0
  0
VERTEX
  5
2CB90
  8
0
 10
314.56373348839497
 20
431.53919627964149
 30
0.0
  0
VERTEX
  5
2CB91
  8
0
 10
313.91458569705082
 20
431.45835162638332
 30
0.0
  0
VERTEX
  5
2CB92
  8
0
 10
312.6954645395067
 20
431.34374128763011
 30
0.0
  0
VERTEX
  5
2CB93
  8
0
 10
311.53064819635568
 20
431.28696670384579
 30
0.0
  0
VERTEX
  5
2CB94
  8
0
 10
310.9504830537166
 20
431.2797765702262
 30
0.0
  0
SEQEND
  5
2CB95
  8
0
  0
POLYLINE
  5
24F64
  8
0
 66
     1
 10
0.0
 20
0.0
 30
0.0
  0
VERTEX
  5
2CB96
  8
0
 10
310.9504830537166
 20
431.2797765702262
 30
0.0
  0
VERTEX
  5
2CB97
  8
0
 10
310.37031791107762
 20
431.28696670384579
 30
0.0
  0
VERTEX
  5
2CB98
  8
0
 10
309.2055015679266
 20
431.34374128763011
 30
0.0
  0
VERTEX
  5
2CB99
  8
0
 10
307.98638041038248
 20
431.45835162638332
 30
0.0
  0
VERTEX
  5
2CB9A
  8
0
 10
307.33723261903839
 20
431.53919627964149
 30
0.0
  0
SEQEND
  5
2CB9B
  8
0
  0
LINE
  5
24F65
  8
0
 10
307.33723261903839
 20
431.53919627964149
 30
0.0
 11
307.33723261903839
 21
436.5203568608103
 31
0.0
  0
POLYLINE
  5
24F66
  8
0
 66
     1
 10
0.0
 20
0.0
 30
0.0
  0
VERTEX
  5
2CB9C
  8
0
 10
307.33723261903839
 20
436.5203568608103
 30
0.0
  0
VERTEX
  5
2CB9D
  8
0
 10
307.98638041038248
 20
436.60120151406858
 30
0.0
  0
VERTEX
  5
2CB9E
  8
0
 10
309.2055015679266
 20
436.71581185282179
 30
0.0
  0
VERTEX
  5
2CB9F
  8
0
 10
310.37031791107762
 20
436.7725864366061
 30
0.0
  0
VERTEX
  5
2CBA0
  8
0
 10
310.9504830537166
 20
436.77977657022609
 30
0.0
  0
SEQEND
  5
2CBA1
  8
0
  0
LINE
  5
24F67
  8
1
 10
310.9504830537166
 20
366.85141281607781
 30
0.0
 11
310.9504830537166
 21
450.4081403243739
 31
0.0
  0
LINE
  5
24F68
  8
0
 10
350.95048305371671
 20
400.36369678712651
 30
0.0
 11
350.95048305371671
 21
412.19585635332572
 31
0.0
  0
LINE
  5
24F93
  8
1
 10
472.13637808470497
 20
255.84099212308499
 30
0.0
 11
472.13637808470497
 21
128.59280666813581
 31
0.0
  0
LINE
  5
24FBC
  8
1
 10
511.8879477503765
 20
179.74368873142021
 30
0.0
 11
432.3848084190335
 21
179.74368873142021
 31
0.0
  0
LINE
  5
24FCB
  8
0
 10
360.9504830537166
 20
243.44368873142
 30
0.0
 11
360.9504830537166
 21
246.74368873142021
 31
0.0
  0
LINE
  5
24FCC
  8
0
 10
338.95048305371671
 20
246.74368873142021
 30
0.0
 11
338.95048305371671
 21
243.44368873142
 31
0.0
  0
ARC
  5
24FCD
  8
0
 10
321.9254830537165
 20
240.44368873142
 30
0.0
 40
2.9999999999999778
 50
90.0
 51
179.99999914622629
  0
ARC
  5
24FCE
  8
0
 10
377.97548305371669
 20
240.44368873142
 30
0.0
 40
2.9999999999999711
 50
0.0
 51
90.0
  0
LINE
  5
24FCF
  8
0
 10
380.97548305371669
 20
239.94368873142
 30
0.0
 11
380.97548305371669
 21
240.44368873142
 31
0.0
  0
LINE
  5
24FD0
  8
0
 10
318.92548305371662
 20
240.44368873142
 30
0.0
 11
318.92548305371662
 21
239.94368873142
 31
0.0
  0
ARC
  5
24FD1
  8
0
 10
317.45048305371671
 20
235.94368873142
 30
0.0
 40
4.0000000000000071
 50
90.0
 51
180.0
  0
ARC
  5
24FD2
  8
0
 10
382.45048305371671
 20
235.94368873142
 30
0.0
 40
4.0
 50
0.0
 51
90.0
  0
LINE
  5
24FD3
  8
0
 10
386.45048305371671
 20
234.94368873142
 30
0.0
 11
386.45048305371671
 21
235.94368873142
 31
0.0
  0
LINE
  5
24FD4
  8
0
 10
313.45048305371671
 20
235.94368873142
 30
0.0
 11
313.45048305371671
 21
234.94368873142
 31
0.0
  0
LINE
  5
24FD5
  8
0
 10
382.95048305371671
 20
229.24368873142021
 30
0.0
 11
382.95048305371671
 21
234.94368873142
 31
0.0
  0
LINE
  5
24FD6
  8
0
 10
316.9504830537166
 20
234.94368873142
 30
0.0
 11
316.9504830537166
 21
232.94368873142
 31
0.0
  0
LINE
  5
24FD7
  8
0
 10
338.95048305371671
 20
246.74368873142021
 30
0.0
 11
360.9504830537166
 21
246.74368873142021
 31
0.0
  0
LINE
  5
24FD8
  8
0
 10
321.9254830537165
 20
243.44368873142
 30
0.0
 11
377.97548305371669
 21
243.44368873142
 31
0.0
  0
LINE
  5
24FD9
  8
0
 10
317.45048305371671
 20
239.94368873142
 30
0.0
 11
382.45048305371671
 21
239.94368873142
 31
0.0
  0
LINE
  5
24FDA
  8
0
 10
313.45048305371671
 20
234.94368873142
 30
0.0
 11
386.45048305371671
 21
234.94368873142
 31
0.0
  0
LINE
  5
24FDB
  8
0
 10
328.40982382517859
 20
232.94368873142
 30
0.0
 11
302.95048305371671
 21
232.94368873142
 31
0.0
  0
LINE
  5
24FDC
  8
0
 10
328.40982382517859
 20
232.94368873142
 30
0.0
 11
328.40982382517859
 21
178.1976309772117
 31
0.0
  0
LINE
  5
24FDD
  8
0
 10
302.95048305371671
 20
232.94368873142
 30
0.0
 11
302.95048305371671
 21
229.24368873142021
 31
0.0
  0
ARC
  5
24FDE
  8
0
 10
315.65048305371653
 20
179.74368873142021
 30
0.0
 40
10.0
 50
270.0
 51
314.17336491335777
  0
LINE
  5
24FDF
  8
0
 10
380.9504830537166
 20
229.24368873142021
 30
0.0
 11
382.95048305371671
 21
229.24368873142021
 31
0.0
  0
LINE
  5
24FE0
  8
0
 10
306.25048305371678
 20
169.74368873142021
 30
0.0
 11
315.65048305371653
 21
169.74368873142021
 31
0.0
  0
LINE
  5
24FE1
  8
0
 10
302.95048305371671
 20
229.24368873142021
 30
0.0
 11
296.34335720489338
 21
181.10341569503359
 31
0.0
  0
LINE
  5
24FE2
  8
0
 10
322.61880062703273
 20
172.57134251853989
 30
0.0
 11
328.40982382517859
 21
178.1976309772117
 31
0.0
  0
POLYLINE
  5
24FE3
  8
0
 66
     1
 10
0.0
 20
0.0
 30
0.0
  0
VERTEX
  5
2CBA2
  8
0
 10
328.40982382517859
 20
178.1976309772117
 30
0.0
  0
VERTEX
  5
2CBA3
  8
0
 10
328.63430100295909
 20
178.41572254952411
 30
0.0
  0
VERTEX
  5
2CBA4
  8
0
 10
329.08835364488459
 20
178.85685895175951
 30
0.0
  0
VERTEX
  5
2CBA5
  8
0
 10
329.54908268590088
 20
179.30448183244059
 30
0.0
  0
VERTEX
  5
2CBA6
  8
0
 10
329.78190486176709
 20
179.53068101627741
 30
0.0
  0
VERTEX
  5
2CBA7
  8
0
 10
330.0163406812822
 20
179.758447941138
 30
0.0
  0
VERTEX
  5
2CBA8
  8
0
 10
330.48997809687631
 20
180.21861199743171
 30
0.0
  0
VERTEX
  5
2CBA9
  8
0
 10
330.96984335695612
 20
180.68482673740519
 30
0.0
  0
VERTEX
  5
2CBAA
  8
0
 10
331.45578289273089
 20
181.15694296077299
 30
0.0
  0
VERTEX
  5
2CBAB
  8
0
 10
331.94764119149158
 20
181.63480957862791
 30
0.0
  0
VERTEX
  5
2CBAC
  8
0
 10
332.4452608463771
 20
182.1182736617952
 30
0.0
  0
VERTEX
  5
2CBAD
  8
0
 10
332.69618148717518
 20
182.3620564713369
 30
0.0
  0
VERTEX
  5
2CBAE
  8
0
 10
332.94848260674962
 20
182.60718048977009
 30
0.0
  0
VERTEX
  5
2CBAF
  8
0
 10
333.45714542915903
 20
183.10137360023691
 30
0.0
  0
VERTEX
  5
2CBB0
  8
0
 10
333.97108652887982
 20
183.60069483913679
 30
0.0
  0
VERTEX
  5
2CBB1
  8
0
 10
334.49014143200702
 20
184.10498441128311
 30
0.0
  0
VERTEX
  5
2CBB2
  8
0
 10
335.01414402809132
 20
184.61408093149839
 30
0.0
  0
VERTEX
  5
2CBB3
  8
0
 10
335.54292662329959
 20
185.12782147626419
 30
0.0
  0
VERTEX
  5
2CBB4
  8
0
 10
335.80905759649198
 20
185.38638193643459
 30
0.0
  0
VERTEX
  5
2CBB5
  8
0
 10
336.07631999407982
 20
185.6460416358577
 30
0.0
  0
VERTEX
  5
2CBB6
  8
0
 10
336.61415344131768
 20
186.16857556696871
 30
0.0
  0
VERTEX
  5
2CBB7
  8
0
 10
337.15625484496383
 20
186.69525604577251
 30
0.0
  0
VERTEX
  5
2CBB8
  8
0
 10
337.4288518679341
 20
186.96009861879111
 30
0.0
  0
VERTEX
  5
2CBB9
  8
0
 10
337.70245071911722
 20
187.22591452144709
 30
0.0
  0
VERTEX
  5
2CBBA
  8
0
 10
338.25256626754481
 20
187.76038117011191
 30
0.0
  0
VERTEX
  5
2CBBB
  8
0
 10
338.80642543962
 20
188.29848494917721
 30
0.0
  0
VERTEX
  5
2CBBC
  8
0
 10
339.08470353956409
 20
188.56884699202229
 30
0.0
  0
VERTEX
  5
2CBBD
  8
0
 10
339.3638509866646
 20
188.84005365208071
 30
0.0
  0
VERTEX
  5
2CBBE
  8
0
 10
339.92466451867091
 20
189.38491396339941
 30
0.0
  0
VERTEX
  5
2CBBF
  8
0
 10
340.48868656139263
 20
189.93289151431279
 30
0.0
  0
VERTEX
  5
2CBC0
  8
0
 10
341.05573661378048
 20
190.4838109384068
 30
0.0
  0
VERTEX
  5
2CBC1
  8
0
 10
341.62563320574651
 20
191.03749592779511
 30
0.0
  0
VERTEX
  5
2CBC2
  8
0
 10
342.19819395623932
 20
191.59376928954219
 30
0.0
  0
VERTEX
  5
2CBC3
  8
0
 10
342.48541616212151
 20
191.87282100920129
 30
0.0
  0
VERTEX
  5
2CBC4
  8
0
 10
342.7732356316119
 20
192.15245300236839
 30
0.0
  0
VERTEX
  5
2CBC5
  8
0
 10
343.35057420425801
 20
192.71336827362211
 30
0.0
  0
VERTEX
  5
2CBC6
  8
0
 10
343.93002491150861
 20
193.276335596498
 30
0.0
  0
VERTEX
  5
2CBC7
  8
0
 10
344.51140231475802
 20
193.84117480748321
 30
0.0
  0
VERTEX
  5
2CBC8
  8
0
 10
345.09452035881168
 20
194.40770514401351
 30
0.0
  0
VERTEX
  5
2CBC9
  8
0
 10
345.67919243142529
 20
194.9757453023235
 30
0.0
  0
VERTEX
  5
2CBCA
  8
0
 10
345.9720527744912
 20
195.26027477350999
 30
0.0
  0
VERTEX
  5
2CBCB
  8
0
 10
346.26523142302682
 20
195.54511349546729
 30
0.0
  0
VERTEX
  5
2CBCC
  8
0
 10
346.8524497865979
 20
196.11562751149401
 30
0.0
  0
VERTEX
  5
2CBCD
  8
0
 10
347.44065959768977
 20
196.68710477176231
 30
0.0
  0
VERTEX
  5
2CBCE
  8
0
 10
348.02967261456752
 20
197.2593623893672
 30
0.0
  0
VERTEX
  5
2CBCF
  8
0
 10
348.61930033844919
 20
197.83221722767121
 30
0.0
  0
VERTEX
  5
2CBD0
  8
0
 10
349.2093540738324
 20
198.4054859589109
 30
0.0
  0
VERTEX
  5
2CBD1
  8
0
 10
349.5044816895616
 20
198.6922182066323
 30
0.0
  0
VERTEX
  5
2CBD2
  8
0
 10
349.79964498888012
 20
198.97898512286741
 30
0.0
  0
VERTEX
  5
2CBD3
  8
0
 10
350.38998417585071
 20
199.55253118557721
 30
0.0
  0
VERTEX
  5
2CBD4
  8
0
 10
350.98018271155712
 20
200.1259405980677
 30
0.0
  0
VERTEX
  5
2CBD5
  8
0
 10
351.57005171782112
 20
200.69902985509819
 30
0.0
  0
VERTEX
  5
2CBD6
  8
0
 10
352.15940242192443
 20
201.27161555388599
 30
0.0
  0
VERTEX
  5
2CBD7
  8
0
 10
352.74804621701651
 20
201.84351445279839
 30
0.0
  0
VERTEX
  5
2CBD8
  8
0
 10
353.0420441442534
 20
202.12914914778909
 30
0.0
  0
VERTEX
  5
2CBD9
  8
0
 10
353.3357947224772
 20
202.41454352999699
 30
0.0
  0
VERTEX
  5
2CBDA
  8
0
 10
353.92245984419918
 20
202.98452004200769
 30
0.0
  0
VERTEX
  5
2CBDB
  8
0
 10
354.5078538347862
 20
203.55326158220211
 30
0.0
  0
VERTEX
  5
2CBDC
  8
0
 10
355.09178935363531
 20
204.120586139175
 30
0.0
  0
VERTEX
  5
2CBDD
  8
0
 10
355.67407952688973
 20
204.68631215499039
 30
0.0
  0
VERTEX
  5
2CBDE
  8
0
 10
356.25453800724608
 20
205.2502585832849
 30
0.0
  0
VERTEX
  5
2CBDF
  8
0
 10
356.54402228771278
 20
205.53150802926851
 30
0.0
  0
VERTEX
  5
2CBE0
  8
0
 10
356.83297903358562
 20
205.8122449472076
 30
0.0
  0
VERTEX
  5
2CBE1
  8
0
 10
357.40921749042718
 20
206.37209139717649
 30
0.0
  0
VERTEX
  5
2CBE2
  8
0
 10
357.98306896716531
 20
206.9296187684354
 30
0.0
  0
VERTEX
  5
2CBE3
  8
0
 10
358.26904216694948
 20
207.20745701193479
 30
0.0
  0
VERTEX
  5
2CBE4
  8
0
 10
358.55434981708783
 20
207.48464863839129
 30
0.0
  0
VERTEX
  5
2CBE5
  8
0
 10
359.12287721614621
 20
208.037003383713
 30
0.0
  0
VERTEX
  5
2CBE6
  8
0
 10
359.68846922146582
 20
208.586506237175
 30
0.0
  0
VERTEX
  5
2CBE7
  8
0
 10
359.97010784960588
 20
208.86013321272
 30
0.0
  0
VERTEX
  5
2CBE8
  8
0
 10
360.25094482957002
 20
209.13298134422939
 30
0.0
  0
VERTEX
  5
2CBE9
  8
0
 10
360.81012403430668
 20
209.6762538192811
 30
0.0
  0
VERTEX
  5
2CBEA
  8
0
 10
361.36582788445457
 20
210.21614980165711
 30
0.0
  0
VERTEX
  5
2CBEB
  8
0
 10
361.91787854099181
 20
210.75249651124611
 30
0.0
  0
VERTEX
  5
2CBEC
  8
0
 10
362.46609933401032
 20
211.2851223037915
 30
0.0
  0
VERTEX
  5
2CBED
  8
0
 10
363.01031481925202
 20
211.8138567258238
 30
0.0
  0
VERTEX
  5
2CBEE
  8
0
 10
363.28086609409092
 20
212.07671174522559
 30
0.0
  0
VERTEX
  5
2CBEF
  8
0
 10
363.55035083425719
 20
212.3385305692068
 30
0.0
  0
VERTEX
  5
2CBF0
  8
0
 10
364.08603455410099
 20
212.85897592529179
 30
0.0
  0
VERTEX
  5
2CBF1
  8
0
 10
364.61719454669992
 20
213.3750262386497
 30
0.0
  0
VERTEX
  5
2CBF2
  8
0
 10
365.14366082767629
 20
213.88651636037551
 30
0.0
  0
VERTEX
  5
2CBF3
  8
0
 10
365.66526491475588
 20
214.39328260093771
 30
0.0
  0
VERTEX
  5
2CBF4
  8
0
 10
366.18183988168812
 20
214.89516278256411
 30
0.0
  0
VERTEX
  5
2CBF5
  8
0
 10
366.43818971927698
 20
215.14422034687689
 30
0.0
  0
VERTEX
  5
2CBF6
  8
0
 10
366.69322041166419
 20
215.3919962911427
 30
0.0
  0
VERTEX
  5
2CBF7
  8
0
 10
367.1992428502258
 20
215.8836241276226
 30
0.0
  0
VERTEX
  5
2CBF8
  8
0
 10
367.69974525763558
 20
216.3698889588959
 30
0.0
  0
VERTEX
  5
2CBF9
  8
0
 10
368.19456746070358
 20
216.8506351681508
 30
0.0
  0
VERTEX
  5
2CBFA
  8
0
 10
368.68355110404673
 20
217.32570890467099
 30
0.0
  0
VERTEX
  5
2CBFB
  8
0
 10
369.16653970076408
 20
217.79495813307221
 30
0.0
  0
VERTEX
  5
2CBFC
  8
0
 10
369.4057374777326
 20
218.02735155403619
 30
0.0
  0
VERTEX
  5
2CBFD
  8
0
 10
369.64337868252051
 20
218.2582326819566
 30
0.0
  0
VERTEX
  5
2CBFE
  8
0
 10
370.11391544900931
 20
218.71538429197329
 30
0.0
  0
VERTEX
  5
2CBFF
  8
0
 10
370.57799941678883
 20
219.1662666632628
 30
0.0
  0
VERTEX
  5
2CC00
  8
0
 10
371.03548206747382
 20
219.6107355022782
 30
0.0
  0
VERTEX
  5
2CC01
  8
0
 10
371.48621699526387
 20
220.04864856796169
 30
0.0
  0
VERTEX
  5
2CC02
  8
0
 10
371.9300599537969
 20
220.47986571726599
 30
0.0
  0
VERTEX
  5
2CC03
  8
0
 10
372.1493524694506
 20
220.6929201132989
 30
0.0
  0
VERTEX
  5
2CC04
  8
0
 10
372.3668689023134
 20
220.90424895000251
 30
0.0
  0
VERTEX
  5
2CC05
  8
0
 10
372.79650405110988
 20
221.32166245300601
 30
0.0
  0
VERTEX
  5
2CC06
  8
0
 10
373.21882790627802
 20
221.731972643598
 30
0.0
  0
VERTEX
  5
2CC07
  8
0
 10
373.63370531370401
 20
222.1350482123357
 30
0.0
  0
VERTEX
  5
2CC08
  8
0
 10
374.04100350232329
 20
222.53076016503519
 30
0.0
  0
VERTEX
  5
2CC09
  8
0
 10
374.4405921266079
 20
222.91898186405211
 30
0.0
  0
VERTEX
  5
2CC0A
  8
0
 10
374.63745529266271
 20
223.11024494852111
 30
0.0
  0
VERTEX
  5
2CC0B
  8
0
 10
374.83234330828333
 20
223.2995890688089
 30
0.0
  0
VERTEX
  5
2CC0C
  8
0
 10
375.2161316772499
 20
223.67245997555671
 30
0.0
  0
VERTEX
  5
2CC0D
  8
0
 10
375.5918344117058
 20
224.0374752563516
 30
0.0
  0
VERTEX
  5
2CC0E
  8
0
 10
375.77661599067
 20
224.21700043342801
 30
0.0
  0
VERTEX
  5
2CC0F
  8
0
 10
375.95933127745411
 20
224.3945180972469
 30
0.0
  0
VERTEX
  5
2CC10
  8
0
 10
376.31850466637752
 20
224.7434742356736
 30
0.0
  0
VERTEX
  5
2CC11
  8
0
 10
376.66923963407999
 20
225.08423199700749
 30
0.0
  0
VERTEX
  5
2CC12
  8
0
 10
376.8414075272799
 20
225.25150230439891
 30
0.0
  0
VERTEX
  5
2CC13
  8
0
 10
377.0114239366676
 20
225.41668233031029
 30
0.0
  0
VERTEX
  5
2CC14
  8
0
 10
377.34494806667271
 20
225.74071884322569
 30
0.0
  0
VERTEX
  5
2CC15
  8
0
 10
377.66970528809821
 20
226.0562378360282
 30
0.0
  0
VERTEX
  5
2CC16
  8
0
 10
377.98559167057368
 20
226.36313833481111
 30
0.0
  0
VERTEX
  5
2CC17
  8
0
 10
378.29250612261882
 20
226.66132212379901
 30
0.0
  0
VERTEX
  5
2CC18
  8
0
 10
378.59035042399267
 20
226.9506937767805
 30
0.0
  0
VERTEX
  5
2CC19
  8
0
 10
378.73584136721229
 20
227.09204600188241
 30
0.0
  0
VERTEX
  5
2CC1A
  8
0
 10
378.87902925712842
 20
227.2311606876456
 30
0.0
  0
VERTEX
  5
2CC1B
  8
0
 10
379.15845023763592
 20
227.50263310002401
 30
0.0
  0
VERTEX
  5
2CC1C
  8
0
 10
379.42852394386728
 20
227.76502413600659
 30
0.0
  0
VERTEX
  5
2CC1D
  8
0
 10
379.68916394553571
 20
228.01824982395149
 30
0.0
  0
VERTEX
  5
2CC1E
  8
0
 10
379.9402868313723
 20
228.2622291253542
 30
0.0
  0
VERTEX
  5
2CC1F
  8
0
 10
380.18181223582229
 20
228.4968839607846
 30
0.0
  0
VERTEX
  5
2CC20
  8
0
 10
380.29895160745309
 20
228.61069111922831
 30
0.0
  0
VERTEX
  5
2CC21
  8
0
 10
380.41366286476301
 20
228.722139234872
 30
0.0
  0
VERTEX
  5
2CC22
  8
0
 10
380.63576452024017
 20
228.9379228603398
 30
0.0
  0
VERTEX
  5
2CC23
  8
0
 10
380.848046124213
 20
229.14416578107279
 30
0.0
  0
VERTEX
  5
2CC24
  8
0
 10
380.9504830537166
 20
229.24368873142021
 30
0.0
  0
SEQEND
  5
2CC25
  8
0
  0
ARC
  5
24FE4
  8
0
 10
306.25048305371678
 20
179.74368873142021
 30
0.0
 40
10.0
 50
172.1851300428774
 51
270.0
  0
LINE
  5
24FF0
  8
1
 10
349.9504830537166
 20
255.84099212308499
 30
0.0
 11
349.9504830537166
 21
209.03805095416831
 31
0.0
  0
LINE
  5
24FF1
  8
1
 10
259.79960099043268
 20
179.74368873142021
 30
0.0
 11
362.10136511700063
 21
179.7436887314197
 31
0.0
  0
LINE
  5
24FF2
  8
1
 10
310.9504830537166
 20
128.59280666813581
 30
0.0
 11
310.9504830537166
 21
230.89457079470409
 31
0.0
  0
LINE
  5
24FF3
  8
2
 10
380.45048305371671
 20
228.75791201578929
 30
0.0
 11
380.45048305371671
 21
232.74368873142021
 31
0.0
  0
LINE
  5
24FF4
  8
2
 10
355.95048305371671
 20
232.74368873142021
 30
0.0
 11
355.95048305371671
 21
246.74368873142021
 31
0.0
  0
LINE
  5
24FF5
  8
2
 10
343.9504830537166
 20
246.74368873142021
 30
0.0
 11
343.9504830537166
 21
232.74368873142021
 31
0.0
  0
LINE
  5
24FF6
  8
2
 10
319.4504830537166
 20
232.74368873142021
 30
0.0
 11
380.45048305371671
 21
232.74368873142021
 31
0.0
  0
CIRCLE
  5
2506B
  8
0
 10
310.9504830537166
 20
179.74368873142021
 30
0.0
 40
6.2583333333333391
  0
LINE
  5
2506C
  8
0
 10
307.33723261903839
 20
186.00202206475339
 30
0.0
 11
314.56373348839497
 21
186.00202206475339
 31
0.0
  0
LINE
  5
2506D
  8
0
 10
307.33723261903839
 20
173.48535539808699
 30
0.0
 11
314.56373348839497
 21
173.48535539808699
 31
0.0
  0
LINE
  5
2506E
  8
0
 10
314.56373348839497
 20
186.00202206475339
 30
0.0
 11
318.17698392307329
 21
179.74368873142021
 31
0.0
  0
LINE
  5
2506F
  8
0
 10
318.17698392307329
 20
179.74368873142021
 30
0.0
 11
314.56373348839497
 21
173.48535539808699
 31
0.0
  0
LINE
  5
25070
  8
0
 10
307.33723261903879
 20
186.00202206475339
 30
0.0
 11
303.72398218436052
 21
179.74368873142021
 31
0.0
  0
LINE
  5
25071
  8
0
 10
303.72398218436052
 20
179.74368873142021
 30
0.0
 11
307.33723261903879
 21
173.48535539808699
 31
0.0
  0
ARC
  5
25075
  8
0
 10
310.9504830537166
 20
179.74368873142021
 30
0.0
 40
13.999999999999989
 50
206.18934930864319
 51
332.69169581090762
  0
ARC
  5
25076
  8
0
 10
310.9504830537166
 20
179.74368873142021
 30
0.0
 40
32.0
 50
109.4439595599347
 51
19.663672848208378
  0
ARC
  5
25077
  8
0
 10
310.9504830537166
 20
179.74368873142021
 30
0.0
 40
39.999999999999972
 50
103.6794340613623
 51
24.790579075682121
  0
ARC
  5
25078
  8
0
 10
310.9504830537166
 20
179.74368873142021
 30
0.0
 40
17.0
 50
141.74264263748509
 51
352.83134147421691
  0
ARC
  5
25079
  8
0
 10
310.9504830537166
 20
179.74368873142021
 30
0.0
 40
29.0
 50
112.5424645338976
 51
16.930552414749592
  0
LINE
  5
2507A
  8
0
 10
296.8568443202808
 20
170.23740937241789
 30
0.0
 11
286.90839344962069
 21
163.52709453076841
 31
0.0
  0
LINE
  5
2507B
  8
0
 10
326.2299818408024
 20
172.29137923600589
 30
0.0
 11
337.01551039639247
 21
167.0309254745371
 31
0.0
  0
ARC
  5
2507C
  8
0
 10
310.9504830537166
 20
179.74368873142021
 30
0.0
 40
25.696248171614329
 50
150.0000000000027
 51
214.0000000000027
  0
LINE
  5
2507D
  8
0
 10
310.9504830537166
 20
150.74368873142021
 30
0.0
 11
310.9504830537166
 21
162.59906166975361
 31
0.0
  0
ARC
  5
2507E
  8
0
 10
310.9504830537166
 20
179.74368873142021
 30
0.0
 40
25.696248171614311
 50
270.0
 51
334.00000000000938
  0
LINE
  5
2507F
  8
0
 10
285.97442331987708
 20
194.1636235420483
 30
0.0
 11
296.10280047990358
 21
188.31600226225279
 31
0.0
  0
LINE
  5
252B9
  8
0
 10
296.25048305371678
 20
385.7797765702262
 30
0.0
 11
296.25048305371678
 21
381.2797765702262
 31
0.0
  0
LINE
  5
252BA
  8
0
 10
296.25048305371678
 20
431.2797765702262
 30
0.0
 11
296.25048305371678
 21
426.7797765702262
 31
0.0
  0
LINE
  5
252BB
  8
0
 10
302.95048305371671
 20
431.2797765702262
 30
0.0
 11
302.95048305371671
 21
381.2797765702262
 31
0.0
  0
LINE
  5
252BE
  8
0
 10
302.81323568405969
 20
385.7797765702262
 30
0.0
 11
296.25048305371678
 21
385.7797765702262
 31
0.0
  0
LINE
  5
252BF
  8
0
 10
302.81323568405969
 20
426.7797765702262
 30
0.0
 11
302.81323568405969
 21
385.7797765702262
 31
0.0
  0
LINE
  5
252C0
  8
0
 10
296.25048305371678
 20
426.7797765702262
 30
0.0
 11
302.81323568405969
 21
426.7797765702262
 31
0.0
  0
LINE
  5
252C1
  8
0
 10
270.9504830537166
 20
415.52171313812318
 30
0.0
 11
270.9504830537166
 21
397.03784000232957
 31
0.0
  0
ARC
  5
252C2
  8
0
 10
273.4504830537166
 20
415.52171313812318
 30
0.0
 40
2.499999999999992
 50
104.9999999999944
 51
180.0
  0
LINE
  5
252C3
  8
0
 10
275.95048305371671
 20
418.7797765702262
 30
0.0
 11
272.80343544096058
 21
417.93652770384591
 31
0.0
  0
LINE
  5
252C4
  8
0
 10
272.80343544096058
 20
394.62302543660689
 30
0.0
 11
275.95048305371671
 21
393.7797765702262
 31
0.0
  0
ARC
  5
252C5
  8
0
 10
273.4504830537166
 20
397.03784000232957
 30
0.0
 40
2.4999999999999778
 50
180.0
 51
255.0000000000056
  0
LINE
  5
252C6
  8
0
 10
302.80969428504432
 20
415.52171313812318
 30
0.0
 11
270.9504830537166
 21
415.52171313812318
 31
0.0
  0
LINE
  5
252C7
  8
0
 10
302.80359867147308
 20
418.7797765702262
 30
0.0
 11
275.95048305371671
 21
418.7797765702262
 31
0.0
  0
LINE
  5
252C8
  8
0
 10
302.80359867147308
 20
393.7797765702262
 30
0.0
 11
275.95048305371671
 21
393.7797765702262
 31
0.0
  0
LINE
  5
252C9
  8
0
 10
302.80969428504432
 20
397.03784000232957
 30
0.0
 11
270.9504830537166
 21
397.03784000232957
 31
0.0
  0
LINE
  5
2B4D8
  8
1
 10
149.76458802272819
 20
255.84099212308499
 30
0.0
 11
149.76458802272819
 21
128.59280666813581
 31
0.0
  0
LINE
  5
2B4D9
  8
1
 10
110.01301835705679
 20
179.74368873142021
 30
0.0
 11
189.51615768839969
 21
179.74368873142021
 31
0.0
  0
LINE
  5
2B4DE
  8
3
 10
114.7645880227283
 20
182.9766887314199
 30
0.0
 11
116.7645880227283
 21
182.9766887314199
 31
0.0
  0
LINE
  5
2B4DF
  8
3
 10
114.7645880227283
 20
176.51068873142
 30
0.0
 11
116.7645880227283
 21
176.51068873142
 31
0.0
  0
LINE
  5
2B4E0
  8
3
 10
129.2645880227283
 20
176.51068873142091
 30
0.0
 11
129.7645880227283
 21
176.51068873142049
 31
0.0
  0
LINE
  5
2B4E1
  8
3
 10
169.76458802272819
 20
176.51068873142049
 30
0.0
 11
170.2645880227283
 21
176.51068873142049
 31
0.0
  0
LINE
  5
2B4E2
  8
3
 10
129.2645880227283
 20
182.97668873141939
 30
0.0
 11
129.7645880227283
 21
182.9766887314199
 31
0.0
  0
LINE
  5
2B4E3
  8
3
 10
169.76458802272819
 20
182.9766887314199
 30
0.0
 11
170.2645880227283
 21
182.9766887314199
 31
0.0
  0
ARC
  5
2B4E6
  8
0
 10
121.7395880227282
 20
240.44368873142
 30
0.0
 40
2.9999999999999778
 50
90.0
 51
180.0
  0
ARC
  5
2B4E7
  8
0
 10
177.78958802272831
 20
240.44368873142
 30
0.0
 40
2.999999999999992
 50
0.0
 51
90.0
  0
LINE
  5
2B4E8
  8
0
 10
180.7895880227284
 20
239.94368873142
 30
0.0
 11
180.7895880227284
 21
240.44368873142
 31
0.0
  0
LINE
  5
2B4E9
  8
0
 10
118.7395880227282
 20
240.44368873142
 30
0.0
 11
118.7395880227282
 21
239.94368873142
 31
0.0
  0
ARC
  5
2B4EA
  8
0
 10
117.2645880227282
 20
235.94368873142
 30
0.0
 40
4.0000000000000142
 50
90.0
 51
180.0
  0
ARC
  5
2B4EB
  8
0
 10
182.26458802272819
 20
235.94368873142
 30
0.0
 40
4.0000000000000142
 50
0.0
 51
90.0
  0
LINE
  5
2B4EC
  8
0
 10
186.26458802272819
 20
234.94368873142
 30
0.0
 11
186.26458802272819
 21
235.94368873142
 31
0.0
  0
LINE
  5
2B4ED
  8
0
 10
113.2645880227282
 20
235.94368873142
 30
0.0
 11
113.2645880227282
 21
234.94368873142
 31
0.0
  0
LINE
  5
2B4EE
  8
0
 10
182.7645880227283
 20
199.12553236232449
 30
0.0
 11
182.7645880227283
 21
234.94368873142
 31
0.0
  0
LINE
  5
2B4EF
  8
0
 10
116.7645880227283
 20
234.94368873142
 30
0.0
 11
116.7645880227283
 21
199.12553236232449
 31
0.0
  0
LINE
  5
2B4F1
  8
0
 10
121.7395880227282
 20
243.44368873142
 30
0.0
 11
177.78958802272831
 21
243.44368873142
 31
0.0
  0
LINE
  5
2B4F2
  8
0
 10
117.2645880227282
 20
239.94368873142
 30
0.0
 11
182.26458802272819
 21
239.94368873142
 31
0.0
  0
LINE
  5
2B4F3
  8
0
 10
113.2645880227282
 20
234.94368873142
 30
0.0
 11
186.26458802272819
 21
234.94368873142
 31
0.0
  0
LINE
  5
2B4F4
  8
0
 10
124.7645880227282
 20
232.94368873142
 30
0.0
 11
174.76458802272819
 21
232.94368873142
 31
0.0
  0
LINE
  5
2B4F5
  8
0
 10
174.76458802272819
 20
232.94368873142
 30
0.0
 11
174.76458802272819
 21
169.74368873142021
 31
0.0
  0
LINE
  5
2B4F6
  8
0
 10
174.76458802272819
 20
169.74368873142021
 30
0.0
 11
170.2645880227283
 21
169.74368873142021
 31
0.0
  0
POLYLINE
  5
2B4F8
  8
0
 66
     1
 10
0.0
 20
0.0
 30
0.0
  0
VERTEX
  5
2CC26
  8
0
 10
179.87359809188359
 20
186.00245577603121
 30
0.0
  0
VERTEX
  5
2CC27
  8
0
 10
180.02975212169389
 20
186.346009315027
 30
0.0
  0
VERTEX
  5
2CC28
  8
0
 10
180.329580919546
 20
187.03832959730289
 30
0.0
  0
VERTEX
  5
2CC29
  8
0
 10
180.6126345233501
 20
187.737283781722
 30
0.0
  0
VERTEX
  5
2CC2A
  8
0
 10
180.74782171852439
 20
188.0891288450261
 30
0.0
  0
VERTEX
  5
2CC2B
  8
0
 10
180.87875758286191
 20
188.44248825647941
 30
0.0
  0
VERTEX
  5
2CC2C
  8
0
 10
181.1278040399425
 20
189.15355597938191
 30
0.0
  0
VERTEX
  5
2CC2D
  8
0
 10
181.35963720872269
 20
189.87009669026841
 30
0.0
  0
VERTEX
  5
2CC2E
  8
0
 10
181.57412985061859
 20
190.59171712520131
 30
0.0
  0
VERTEX
  5
2CC2F
  8
0
 10
181.77116424416681
 20
191.3180212323027
 30
0.0
  0
VERTEX
  5
2CC30
  8
0
 10
181.95063224963451
 20
192.04861038912389
 30
0.0
  0
VERTEX
  5
2CC31
  8
0
 10
182.03374769788979
 20
192.4153866425859
 30
0.0
  0
VERTEX
  5
2CC32
  8
0
 10
182.11243536836849
 20
192.78308362142161
 30
0.0
  0
VERTEX
  5
2CC33
  8
0
 10
182.25648479685691
 20
193.52103782322999
 30
0.0
  0
VERTEX
  5
2CC34
  8
0
 10
182.3827014754674
 20
194.26206797809891
 30
0.0
  0
VERTEX
  5
2CC35
  8
0
 10
182.4910161318362
 20
195.00576738138031
 30
0.0
  0
VERTEX
  5
2CC36
  8
0
 10
182.58136931889109
 20
195.7517278634468
 30
0.0
  0
VERTEX
  5
2CC37
  8
0
 10
182.6537114474736
 20
196.4995400137054
 30
0.0
  0
VERTEX
  5
2CC38
  8
0
 10
182.6831155705585
 20
196.87401223955609
 30
0.0
  0
VERTEX
  5
2CC39
  8
0
 10
182.70800281355881
 20
197.2487934053006
 30
0.0
  0
VERTEX
  5
2CC3A
  8
0
 10
182.7442136200452
 20
197.99907682037019
 30
0.0
  0
VERTEX
  5
2CC3B
  8
0
 10
182.76232399310851
 20
198.74997847573741
 30
0.0
  0
VERTEX
  5
2CC3C
  8
0
 10
182.7645880227283
 20
199.12553236232449
 30
0.0
  0
SEQEND
  5
2CC3D
  8
0
  0
POLYLINE
  5
2B4F9
  8
0
 66
     1
 10
0.0
 20
0.0
 30
0.0
  0
VERTEX
  5
2CC3E
  8
0
 10
116.7645880227283
 20
199.12553236232449
 30
0.0
  0
VERTEX
  5
2CC3F
  8
0
 10
116.7668520523484
 20
198.74997847573741
 30
0.0
  0
VERTEX
  5
2CC40
  8
0
 10
116.78496242541129
 20
197.99907682037019
 30
0.0
  0
VERTEX
  5
2CC41
  8
0
 10
116.8211732318982
 20
197.2487934053006
 30
0.0
  0
VERTEX
  5
2CC42
  8
0
 10
116.8460604748979
 20
196.87401223955609
 30
0.0
  0
VERTEX
  5
2CC43
  8
0
 10
116.8754645979834
 20
196.4995400137054
 30
0.0
  0
VERTEX
  5
2CC44
  8
0
 10
116.9478067265659
 20
195.7517278634468
 30
0.0
  0
VERTEX
  5
2CC45
  8
0
 10
117.03815991362031
 20
195.00576738138031
 30
0.0
  0
VERTEX
  5
2CC46
  8
0
 10
117.14647456998949
 20
194.26206797809891
 30
0.0
  0
VERTEX
  5
2CC47
  8
0
 10
117.2726912485996
 20
193.52103782322999
 30
0.0
  0
VERTEX
  5
2CC48
  8
0
 10
117.4167406770884
 20
192.78308362142161
 30
0.0
  0
VERTEX
  5
2CC49
  8
0
 10
117.4954283475672
 20
192.4153866425859
 30
0.0
  0
VERTEX
  5
2CC4A
  8
0
 10
117.5785437958225
 20
192.04861038912389
 30
0.0
  0
VERTEX
  5
2CC4B
  8
0
 10
117.7580118012897
 20
191.3180212323027
 30
0.0
  0
VERTEX
  5
2CC4C
  8
0
 10
117.9550461948383
 20
190.59171712520131
 30
0.0
  0
VERTEX
  5
2CC4D
  8
0
 10
118.1695388367343
 20
189.87009669026841
 30
0.0
  0
VERTEX
  5
2CC4E
  8
0
 10
118.40137200551411
 20
189.15355597938191
 30
0.0
  0
VERTEX
  5
2CC4F
  8
0
 10
118.6504184625951
 20
188.44248825647941
 30
0.0
  0
VERTEX
  5
2CC50
  8
0
 10
118.7813543269326
 20
188.0891288450261
 30
0.0
  0
VERTEX
  5
2CC51
  8
0
 10
118.9165415221068
 20
187.737283781722
 30
0.0
  0
VERTEX
  5
2CC52
  8
0
 10
119.1995951259109
 20
187.03832959730289
 30
0.0
  0
VERTEX
  5
2CC53
  8
0
 10
119.499423923763
 20
186.346009315027
 30
0.0
  0
VERTEX
  5
2CC54
  8
0
 10
119.6555779535733
 20
186.00245577603121
 30
0.0
  0
SEQEND
  5
2CC55
  8
0
  0
LINE
  5
2B4FA
  8
0
 10
124.7645880227282
 20
169.74368873142021
 30
0.0
 11
124.7645880227282
 21
232.94368873142
 31
0.0
  0
LINE
  5
2B4FB
  8
0
 10
129.2645880227283
 20
169.74368873142021
 30
0.0
 11
124.7645880227282
 21
169.74368873142021
 31
0.0
  0
POLYLINE
  5
2B4FC
  8
0
 66
     1
 10
0.0
 20
0.0
 30
0.0
  0
VERTEX
  5
2CC56
  8
0
 10
170.2653672292426
 20
221.06561074174081
 30
0.0
  0
VERTEX
  5
2CC57
  8
0
 10
169.91763060034461
 20
221.3676323900404
 30
0.0
  0
VERTEX
  5
2CC58
  8
0
 10
169.20810019081409
 20
221.9560009862594
 30
0.0
  0
VERTEX
  5
2CC59
  8
0
 10
168.48038182414211
 20
222.52301337989141
 30
0.0
  0
VERTEX
  5
2CC5A
  8
0
 10
168.1099142365687
 20
222.79834445735511
 30
0.0
  0
VERTEX
  5
2CC5B
  8
0
 10
167.73515622664721
 20
223.06813917308409
 30
0.0
  0
VERTEX
  5
2CC5C
  8
0
 10
166.97312050135901
 20
223.59086844126799
 30
0.0
  0
VERTEX
  5
2CC5D
  8
0
 10
166.1949874759284
 20
224.09071221015481
 30
0.0
  0
VERTEX
  5
2CC5E
  8
0
 10
165.40148503583171
 20
224.56720291313559
 30
0.0
  0
VERTEX
  5
2CC5F
  8
0
 10
164.59335544348821
 20
225.01989482865559
 30
0.0
  0
VERTEX
  5
2CC60
  8
0
 10
163.77135464392771
 20
225.44836449715149
 30
0.0
  0
VERTEX
  5
2CC61
  8
0
 10
163.35539234183349
 20
225.65338984283059
 30
0.0
  0
VERTEX
  5
2CC62
  8
0
 10
162.93625155766131
 20
225.85221111716919
 30
0.0
  0
VERTEX
  5
2CC63
  8
0
 10
162.08882736141319
 20
226.23105692028051
 30
0.0
  0
VERTEX
  5
2CC64
  8
0
 10
161.22987475738771
 20
226.58454752446011
 30
0.0
  0
VERTEX
  5
2CC65
  8
0
 10
160.3601972317565
 20
226.9123522655814
 30
0.0
  0
VERTEX
  5
2CC66
  8
0
 10
159.4806083030557
 20
227.2141645067299
 30
0.0
  0
VERTEX
  5
2CC67
  8
0
 10
158.59193076120161
 20
227.48970192503839
 30
0.0
  0
VERTEX
  5
2CC68
  8
0
 10
158.1444432280914
 20
227.61753606356569
 30
0.0
  0
VERTEX
  5
2CC69
  8
0
 10
157.69499589782981
 20
227.73870677577861
 30
0.0
  0
VERTEX
  5
2CC6A
  8
0
 10
156.79064272868621
 20
227.96094613346349
 30
0.0
  0
VERTEX
  5
2CC6B
  8
0
 10
155.87971720878789
 20
228.15621210972989
 30
0.0
  0
VERTEX
  5
2CC6C
  8
0
 10
155.42205588108661
 20
228.24367200914591
 30
0.0
  0
SEQEND
  5
2CC6D
  8
0
  0
POLYLINE
  5
2B4FD
  8
0
 66
     1
 10
0.0
 20
0.0
 30
0.0
  0
VERTEX
  5
2CC6E
  8
0
 10
144.10712016437029
 20
228.24367200914591
 30
0.0
  0
VERTEX
  5
2CC6F
  8
0
 10
143.649458836669
 20
228.15621210972989
 30
0.0
  0
VERTEX
  5
2CC70
  8
0
 10
142.7385333167708
 20
227.96094613346349
 30
0.0
  0
VERTEX
  5
2CC71
  8
0
 10
141.83418014762671
 20
227.73870677577861
 30
0.0
  0
VERTEX
  5
2CC72
  8
0
 10
141.3847328173656
 20
227.61753606356569
 30
0.0
  0
VERTEX
  5
2CC73
  8
0
 10
140.93724528425531
 20
227.48970192503839
 30
0.0
  0
VERTEX
  5
2CC74
  8
0
 10
140.04856774240079
 20
227.2141645067299
 30
0.0
  0
VERTEX
  5
2CC75
  8
0
 10
139.16897881370051
 20
226.9123522655814
 30
0.0
  0
VERTEX
  5
2CC76
  8
0
 10
138.29930128806919
 20
226.58454752446011
 30
0.0
  0
VERTEX
  5
2CC77
  8
0
 10
137.44034868404381
 20
226.23105692028051
 30
0.0
  0
VERTEX
  5
2CC78
  8
0
 10
136.59292448779519
 20
225.85221111716919
 30
0.0
  0
VERTEX
  5
2CC79
  8
0
 10
136.173783703623
 20
225.65338984283059
 30
0.0
  0
VERTEX
  5
2CC7A
  8
0
 10
135.75782140152879
 20
225.44836449715191
 30
0.0
  0
VERTEX
  5
2CC7B
  8
0
 10
134.93582060196829
 20
225.01989482865559
 30
0.0
  0
VERTEX
  5
2CC7C
  8
0
 10
134.12769100962481
 20
224.56720291313559
 30
0.0
  0
VERTEX
  5
2CC7D
  8
0
 10
133.33418856952861
 20
224.09071221015481
 30
0.0
  0
VERTEX
  5
2CC7E
  8
0
 10
132.55605554409789
 20
223.59086844126799
 30
0.0
  0
VERTEX
  5
2CC7F
  8
0
 10
131.7940198188094
 20
223.06813917308409
 30
0.0
  0
VERTEX
  5
2CC80
  8
0
 10
131.41926180888771
 20
222.79834445735511
 30
0.0
  0
VERTEX
  5
2CC81
  8
0
 10
131.04879422131489
 20
222.52301337989141
 30
0.0
  0
VERTEX
  5
2CC82
  8
0
 10
130.3210758546424
 20
221.9560009862594
 30
0.0
  0
VERTEX
  5
2CC83
  8
0
 10
129.61154544511189
 20
221.3676323900404
 30
0.0
  0
VERTEX
  5
2CC84
  8
0
 10
129.2638088162139
 20
221.06561074174081
 30
0.0
  0
SEQEND
  5
2CC85
  8
0
  0
LINE
  5
2B4FE
  8
0
 10
170.2645880227283
 20
228.24368873142021
 30
0.0
 11
170.2645880227283
 21
169.74368873142021
 31
0.0
  0
LINE
  5
2B4FF
  8
0
 10
129.2645880227283
 20
228.24368873142021
 30
0.0
 11
170.2645880227283
 21
228.24368873142021
 31
0.0
  0
LINE
  5
2B500
  8
0
 10
129.2645880227283
 20
169.74368873142021
 30
0.0
 11
129.2645880227283
 21
228.24368873142021
 31
0.0
  0
LINE
  5
2B501
  8
0
 10
174.76458802272819
 20
173.9286887314201
 30
0.0
 11
175.36458802272861
 21
173.9286887314201
 31
0.0
  0
LINE
  5
2B502
  8
0
 10
175.36458802272861
 20
185.55868873142029
 30
0.0
 11
174.76458802272819
 21
185.55868873142029
 31
0.0
  0
LINE
  5
2B503
  8
0
 10
115.5315880227285
 20
175.74368873142021
 30
0.0
 11
116.7645880227283
 21
175.74368873142021
 31
0.0
  0
LINE
  5
2B504
  8
0
 10
116.7645880227283
 20
183.74368873142021
 30
0.0
 11
115.5315880227285
 21
183.74368873142021
 31
0.0
  0
LINE
  5
2B505
  8
0
 10
114.7645880227283
 20
176.51068873142
 30
0.0
 11
115.5315880227285
 21
175.74368873142021
 31
0.0
  0
LINE
  5
2B506
  8
0
 10
115.5315880227285
 20
183.74368873142021
 30
0.0
 11
114.7645880227283
 21
182.9766887314199
 31
0.0
  0
LINE
  5
2B507
  8
0
 10
129.2645880227283
 20
175.74368873142021
 30
0.0
 11
129.7645880227283
 21
175.74368873142021
 31
0.0
  0
LINE
  5
2B508
  8
0
 10
129.7645880227283
 20
183.74368873142021
 30
0.0
 11
129.2645880227283
 21
183.74368873142021
 31
0.0
  0
LINE
  5
2B509
  8
0
 10
116.7645880227283
 20
173.9286887314201
 30
0.0
 11
119.2645880227283
 21
173.9286887314201
 31
0.0
  0
LINE
  5
2B50A
  8
0
 10
119.2645880227283
 20
185.55868873142029
 30
0.0
 11
116.7645880227283
 21
185.55868873142029
 31
0.0
  0
LINE
  5
2B50B
  8
0
 10
169.76458802272819
 20
175.74368873142021
 30
0.0
 11
170.2645880227283
 21
175.74368873142021
 31
0.0
  0
LINE
  5
2B50C
  8
0
 10
170.2645880227283
 20
183.74368873142021
 30
0.0
 11
169.76458802272819
 21
183.74368873142021
 31
0.0
  0
LINE
  5
2B50D
  8
0
 10
129.7645880227283
 20
173.74368873142021
 30
0.0
 11
137.26458802272819
 21
173.74368873142021
 31
0.0
  0
LINE
  5
2B50E
  8
0
 10
162.26458802272819
 20
173.74368873142021
 30
0.0
 11
169.76458802272819
 21
173.74368873142021
 31
0.0
  0
LINE
  5
2B50F
  8
0
 10
169.76458802272819
 20
185.74368873142021
 30
0.0
 11
162.26458802272819
 21
185.74368873142021
 31
0.0
  0
LINE
  5
2B510
  8
0
 10
137.26458802272819
 20
185.74368873142021
 30
0.0
 11
129.7645880227283
 21
185.74368873142021
 31
0.0
  0
LINE
  5
2B511
  8
0
 10
115.5315880227285
 20
183.74368873142021
 30
0.0
 11
115.5315880227285
 21
175.74368873142021
 31
0.0
  0
LINE
  5
2B512
  8
0
 10
114.7645880227283
 20
182.9766887314199
 30
0.0
 11
114.7645880227283
 21
176.51068873142
 31
0.0
  0
LINE
  5
2B513
  8
0
 10
180.0645880227284
 20
186.00202206475339
 30
0.0
 11
180.0645880227284
 21
173.48535539808651
 31
0.0
  0
LINE
  5
2B514
  8
0
 10
175.36458802272861
 20
186.00202206475339
 30
0.0
 11
175.36458802272861
 21
173.48535539808651
 31
0.0
  0
POLYLINE
  5
2B515
  8
0
 66
     1
 10
0.0
 20
0.0
 30
0.0
  0
VERTEX
  5
2CC86
  8
0
 10
179.805168313313
 20
186.00202206475339
 30
0.0
  0
VERTEX
  5
2CC87
  8
0
 10
179.88601296657089
 20
185.43984358663869
 30
0.0
  0
VERTEX
  5
2CC88
  8
0
 10
180.0006233053241
 20
184.38405369391461
 30
0.0
  0
VERTEX
  5
2CC89
  8
0
 10
180.05739788910839
 20
183.37529315000211
 30
0.0
  0
VERTEX
  5
2CC8A
  8
0
 10
180.0645880227284
 20
182.87285539808681
 30
0.0
  0
SEQEND
  5
2CC8B
  8
0
  0
POLYLINE
  5
2B516
  8
0
 66
     1
 10
0.0
 20
0.0
 30
0.0
  0
VERTEX
  5
2CC8C
  8
0
 10
180.0645880227284
 20
182.87285539808681
 30
0.0
  0
VERTEX
  5
2CC8D
  8
0
 10
180.05739788910839
 20
182.37041764617101
 30
0.0
  0
VERTEX
  5
2CC8E
  8
0
 10
180.0006233053241
 20
181.3616571022589
 30
0.0
  0
VERTEX
  5
2CC8F
  8
0
 10
179.88601296657089
 20
180.30586720953491
 30
0.0
  0
VERTEX
  5
2CC90
  8
0
 10
179.805168313313
 20
179.74368873142021
 30
0.0
  0
SEQEND
  5
2CC91
  8
0
  0
POLYLINE
  5
2B517
  8
0
 66
     1
 10
0.0
 20
0.0
 30
0.0
  0
VERTEX
  5
2CC92
  8
0
 10
175.62400773214401
 20
179.74368873142021
 30
0.0
  0
VERTEX
  5
2CC93
  8
0
 10
175.5431630788857
 20
180.30586720953491
 30
0.0
  0
VERTEX
  5
2CC94
  8
0
 10
175.42855274013249
 20
181.3616571022589
 30
0.0
  0
VERTEX
  5
2CC95
  8
0
 10
175.3717781563482
 20
182.37041764617101
 30
0.0
  0
VERTEX
  5
2CC96
  8
0
 10
175.36458802272861
 20
182.87285539808681
 30
0.0
  0
SEQEND
  5
2CC97
  8
0
  0
POLYLINE
  5
2B518
  8
0
 66
     1
 10
0.0
 20
0.0
 30
0.0
  0
VERTEX
  5
2CC98
  8
0
 10
175.36458802272861
 20
182.87285539808681
 30
0.0
  0
VERTEX
  5
2CC99
  8
0
 10
175.3717781563482
 20
183.37529315000211
 30
0.0
  0
VERTEX
  5
2CC9A
  8
0
 10
175.42855274013249
 20
184.38405369391461
 30
0.0
  0
VERTEX
  5
2CC9B
  8
0
 10
175.5431630788857
 20
185.43984358663869
 30
0.0
  0
VERTEX
  5
2CC9C
  8
0
 10
175.62400773214401
 20
186.00202206475339
 30
0.0
  0
SEQEND
  5
2CC9D
  8
0
  0
LINE
  5
2B519
  8
0
 10
179.805168313313
 20
179.74368873142021
 30
0.0
 11
175.62400773214401
 21
179.74368873142021
 31
0.0
  0
POLYLINE
  5
2B51A
  8
0
 66
     1
 10
0.0
 20
0.0
 30
0.0
  0
VERTEX
  5
2CC9E
  8
0
 10
179.805168313313
 20
179.74368873142021
 30
0.0
  0
VERTEX
  5
2CC9F
  8
0
 10
179.88601296657089
 20
179.18151025330511
 30
0.0
  0
VERTEX
  5
2CCA0
  8
0
 10
180.0006233053241
 20
178.1257203605814
 30
0.0
  0
VERTEX
  5
2CCA1
  8
0
 10
180.05739788910839
 20
177.1169598166689
 30
0.0
  0
VERTEX
  5
2CCA2
  8
0
 10
180.0645880227284
 20
176.6145220647536
 30
0.0
  0
SEQEND
  5
2CCA3
  8
0
  0
POLYLINE
  5
2B51B
  8
0
 66
     1
 10
0.0
 20
0.0
 30
0.0
  0
VERTEX
  5
2CCA4
  8
0
 10
180.0645880227284
 20
176.6145220647536
 30
0.0
  0
VERTEX
  5
2CCA5
  8
0
 10
180.05739788910839
 20
176.11208431283779
 30
0.0
  0
VERTEX
  5
2CCA6
  8
0
 10
180.0006233053241
 20
175.10332376892529
 30
0.0
  0
VERTEX
  5
2CCA7
  8
0
 10
179.88601296657089
 20
174.04753387620161
 30
0.0
  0
VERTEX
  5
2CCA8
  8
0
 10
179.805168313313
 20
173.48535539808651
 30
0.0
  0
SEQEND
  5
2CCA9
  8
0
  0
POLYLINE
  5
2B51C
  8
0
 66
     1
 10
0.0
 20
0.0
 30
0.0
  0
VERTEX
  5
2CCAA
  8
0
 10
175.62400773214401
 20
173.48535539808651
 30
0.0
  0
VERTEX
  5
2CCAB
  8
0
 10
175.5431630788857
 20
174.04753387620161
 30
0.0
  0
VERTEX
  5
2CCAC
  8
0
 10
175.42855274013249
 20
175.10332376892529
 30
0.0
  0
VERTEX
  5
2CCAD
  8
0
 10
175.3717781563482
 20
176.11208431283779
 30
0.0
  0
VERTEX
  5
2CCAE
  8
0
 10
175.36458802272861
 20
176.6145220647536
 30
0.0
  0
SEQEND
  5
2CCAF
  8
0
  0
POLYLINE
  5
2B51D
  8
0
 66
     1
 10
0.0
 20
0.0
 30
0.0
  0
VERTEX
  5
2CCB0
  8
0
 10
175.36458802272861
 20
176.6145220647536
 30
0.0
  0
VERTEX
  5
2CCB1
  8
0
 10
175.3717781563482
 20
177.1169598166689
 30
0.0
  0
VERTEX
  5
2CCB2
  8
0
 10
175.42855274013249
 20
178.1257203605814
 30
0.0
  0
VERTEX
  5
2CCB3
  8
0
 10
175.5431630788857
 20
179.18151025330511
 30
0.0
  0
VERTEX
  5
2CCB4
  8
0
 10
175.62400773214401
 20
179.74368873142021
 30
0.0
  0
SEQEND
  5
2CCB5
  8
0
  0
LINE
  5
2B51E
  8
0
 10
116.7645880227283
 20
185.55868873142029
 30
0.0
 11
116.7645880227283
 21
173.9286887314201
 31
0.0
  0
LINE
  5
2B51F
  8
0
 10
119.2645880227283
 20
186.00202206475339
 30
0.0
 11
119.2645880227283
 21
173.48535539808651
 31
0.0
  0
POLYLINE
  5
2B520
  8
0
 66
     1
 10
0.0
 20
0.0
 30
0.0
  0
VERTEX
  5
2CCB6
  8
0
 10
124.50516831331289
 20
186.00202206475339
 30
0.0
  0
VERTEX
  5
2CCB7
  8
0
 10
124.5860129665711
 20
185.43984358663869
 30
0.0
  0
VERTEX
  5
2CCB8
  8
0
 10
124.7006233053239
 20
184.38405369391461
 30
0.0
  0
VERTEX
  5
2CCB9
  8
0
 10
124.7573978891087
 20
183.37529315000211
 30
0.0
  0
VERTEX
  5
2CCBA
  8
0
 10
124.7645880227282
 20
182.87285539808681
 30
0.0
  0
SEQEND
  5
2CCBB
  8
0
  0
POLYLINE
  5
2B521
  8
0
 66
     1
 10
0.0
 20
0.0
 30
0.0
  0
VERTEX
  5
2CCBC
  8
0
 10
124.7645880227282
 20
182.87285539808681
 30
0.0
  0
VERTEX
  5
2CCBD
  8
0
 10
124.7573978891087
 20
182.37041764617101
 30
0.0
  0
VERTEX
  5
2CCBE
  8
0
 10
124.7006233053239
 20
181.3616571022589
 30
0.0
  0
VERTEX
  5
2CCBF
  8
0
 10
124.5860129665711
 20
180.30586720953491
 30
0.0
  0
VERTEX
  5
2CCC0
  8
0
 10
124.50516831331289
 20
179.74368873142021
 30
0.0
  0
SEQEND
  5
2CCC1
  8
0
  0
POLYLINE
  5
2B522
  8
0
 66
     1
 10
0.0
 20
0.0
 30
0.0
  0
VERTEX
  5
2CCC2
  8
0
 10
119.5240077321441
 20
179.74368873142021
 30
0.0
  0
VERTEX
  5
2CCC3
  8
0
 10
119.4431630788858
 20
180.30586720953491
 30
0.0
  0
VERTEX
  5
2CCC4
  8
0
 10
119.32855274013259
 20
181.3616571022589
 30
0.0
  0
VERTEX
  5
2CCC5
  8
0
 10
119.2717781563483
 20
182.37041764617101
 30
0.0
  0
VERTEX
  5
2CCC6
  8
0
 10
119.2645880227283
 20
182.87285539808681
 30
0.0
  0
SEQEND
  5
2CCC7
  8
0
  0
POLYLINE
  5
2B523
  8
0
 66
     1
 10
0.0
 20
0.0
 30
0.0
  0
VERTEX
  5
2CCC8
  8
0
 10
119.2645880227283
 20
182.87285539808681
 30
0.0
  0
VERTEX
  5
2CCC9
  8
0
 10
119.2717781563483
 20
183.37529315000211
 30
0.0
  0
VERTEX
  5
2CCCA
  8
0
 10
119.32855274013259
 20
184.38405369391461
 30
0.0
  0
VERTEX
  5
2CCCB
  8
0
 10
119.4431630788858
 20
185.43984358663869
 30
0.0
  0
VERTEX
  5
2CCCC
  8
0
 10
119.5240077321441
 20
186.00202206475339
 30
0.0
  0
SEQEND
  5
2CCCD
  8
0
  0
LINE
  5
2B524
  8
0
 10
124.50516831331289
 20
179.74368873142021
 30
0.0
 11
119.5240077321441
 21
179.74368873142021
 31
0.0
  0
POLYLINE
  5
2B525
  8
0
 66
     1
 10
0.0
 20
0.0
 30
0.0
  0
VERTEX
  5
2CCCE
  8
0
 10
124.50516831331289
 20
179.74368873142021
 30
0.0
  0
VERTEX
  5
2CCCF
  8
0
 10
124.5860129665711
 20
179.18151025330511
 30
0.0
  0
VERTEX
  5
2CCD0
  8
0
 10
124.7006233053239
 20
178.1257203605814
 30
0.0
  0
VERTEX
  5
2CCD1
  8
0
 10
124.7573978891087
 20
177.1169598166689
 30
0.0
  0
VERTEX
  5
2CCD2
  8
0
 10
124.7645880227282
 20
176.6145220647536
 30
0.0
  0
SEQEND
  5
2CCD3
  8
0
  0
POLYLINE
  5
2B526
  8
0
 66
     1
 10
0.0
 20
0.0
 30
0.0
  0
VERTEX
  5
2CCD4
  8
0
 10
124.7645880227282
 20
176.6145220647536
 30
0.0
  0
VERTEX
  5
2CCD5
  8
0
 10
124.7573978891087
 20
176.11208431283779
 30
0.0
  0
VERTEX
  5
2CCD6
  8
0
 10
124.7006233053239
 20
175.10332376892569
 30
0.0
  0
VERTEX
  5
2CCD7
  8
0
 10
124.5860129665711
 20
174.04753387620161
 30
0.0
  0
VERTEX
  5
2CCD8
  8
0
 10
124.50516831331289
 20
173.48535539808651
 30
0.0
  0
SEQEND
  5
2CCD9
  8
0
  0
POLYLINE
  5
2B527
  8
0
 66
     1
 10
0.0
 20
0.0
 30
0.0
  0
VERTEX
  5
2CCDA
  8
0
 10
119.5240077321441
 20
173.48535539808651
 30
0.0
  0
VERTEX
  5
2CCDB
  8
0
 10
119.4431630788858
 20
174.04753387620161
 30
0.0
  0
VERTEX
  5
2CCDC
  8
0
 10
119.32855274013259
 20
175.10332376892569
 30
0.0
  0
VERTEX
  5
2CCDD
  8
0
 10
119.2717781563483
 20
176.11208431283779
 30
0.0
  0
VERTEX
  5
2CCDE
  8
0
 10
119.2645880227283
 20
176.6145220647536
 30
0.0
  0
SEQEND
  5
2CCDF
  8
0
  0
POLYLINE
  5
2B528
  8
0
 66
     1
 10
0.0
 20
0.0
 30
0.0
  0
VERTEX
  5
2CCE0
  8
0
 10
119.2645880227283
 20
176.6145220647536
 30
0.0
  0
VERTEX
  5
2CCE1
  8
0
 10
119.2717781563483
 20
177.1169598166689
 30
0.0
  0
VERTEX
  5
2CCE2
  8
0
 10
119.32855274013259
 20
178.1257203605814
 30
0.0
  0
VERTEX
  5
2CCE3
  8
0
 10
119.4431630788858
 20
179.18151025330511
 30
0.0
  0
VERTEX
  5
2CCE4
  8
0
 10
119.5240077321441
 20
179.74368873142021
 30
0.0
  0
SEQEND
  5
2CCE5
  8
0
  0
LINE
  5
2B529
  8
0
 10
169.76458802272819
 20
185.74368873142021
 30
0.0
 11
169.76458802272819
 21
173.74368873142021
 31
0.0
  0
LINE
  5
2B52A
  8
0
 10
129.7645880227283
 20
185.74368873142021
 30
0.0
 11
129.7645880227283
 21
173.74368873142021
 31
0.0
  0
LINE
  5
2B52B
  8
0
 10
140.52265145483119
 20
139.74368873142021
 30
0.0
 11
159.0065245906253
 21
139.74368873142021
 31
0.0
  0
LINE
  5
2B52C
  8
0
 10
159.0065245906253
 20
219.74368873142021
 30
0.0
 11
140.52265145483119
 21
219.74368873142021
 31
0.0
  0
ARC
  5
2B52D
  8
0
 10
140.52265145483119
 20
217.24368873142021
 30
0.0
 40
2.499999999999992
 50
90.0
 51
165.00000000000551
  0
ARC
  5
2B52E
  8
0
 10
140.52265145483119
 20
142.24368873142021
 30
0.0
 40
2.4999999999999938
 50
194.9999999999944
 51
270.0
  0
LINE
  5
2B52F
  8
0
 10
137.26458802272819
 20
144.74368873142021
 30
0.0
 11
138.10783688910851
 21
141.5966411186636
 31
0.0
  0
LINE
  5
2B530
  8
0
 10
138.10783688910851
 20
217.8907363441763
 30
0.0
 11
137.26458802272819
 21
214.74368873142021
 31
0.0
  0
LINE
  5
2B531
  8
0
 10
161.42133915634801
 20
141.5966411186636
 30
0.0
 11
162.26458802272819
 21
144.74368873142021
 31
0.0
  0
LINE
  5
2B532
  8
0
 10
162.26458802272819
 20
214.74368873142021
 30
0.0
 11
161.42133915634801
 21
217.8907363441763
 31
0.0
  0
ARC
  5
2B533
  8
0
 10
159.0065245906253
 20
217.24368873142021
 30
0.0
 40
2.4999999999999778
 50
14.999999999994451
 51
90.0
  0
ARC
  5
2B534
  8
0
 10
159.0065245906253
 20
142.24368873142021
 30
0.0
 40
2.4999999999999778
 50
270.0
 51
345.00000000000563
  0
LINE
  5
2B535
  8
0
 10
140.52265145483119
 20
219.74368873142021
 30
0.0
 11
140.52265145483119
 21
139.74368873142021
 31
0.0
  0
LINE
  5
2B536
  8
0
 10
137.26458802272819
 20
214.74368873142021
 30
0.0
 11
137.26458802272819
 21
144.74368873142021
 31
0.0
  0
LINE
  5
2B537
  8
0
 10
162.26458802272819
 20
214.74368873142021
 30
0.0
 11
162.26458802272819
 21
144.74368873142021
 31
0.0
  0
LINE
  5
2B538
  8
0
 10
159.0065245906253
 20
219.74368873142021
 30
0.0
 11
159.0065245906253
 21
139.74368873142021
 31
0.0
  0
LINE
  5
2B539
  8
0
 10
175.36458802272861
 20
173.48535539808651
 30
0.0
 11
180.0645880227284
 21
173.48535539808651
 31
0.0
  0
LINE
  5
2B53A
  8
0
 10
175.36458802272861
 20
186.00202206475339
 30
0.0
 11
180.0645880227284
 21
186.00202206475339
 31
0.0
  0
LINE
  5
2B53B
  8
0
 10
119.2645880227283
 20
186.00202206475339
 30
0.0
 11
124.7645880227282
 21
186.00202206475339
 31
0.0
  0
LINE
  5
2B53C
  8
0
 10
119.2645880227283
 20
173.48535539808651
 30
0.0
 11
124.7645880227282
 21
173.48535539808651
 31
0.0
  0
LINE
  5
2B53D
  8
0
 10
441.8363780847053
 20
173.48535539808651
 30
0.0
 11
446.53637808470501
 21
173.48535539808651
 31
0.0
  0
LINE
  5
2B53E
  8
0
 10
502.63637808470497
 20
173.48535539808651
 30
0.0
 11
497.13637808470497
 21
173.48535539808651
 31
0.0
  0
LINE
  5
2B53F
  8
0
 10
502.63637808470497
 20
186.00202206475339
 30
0.0
 11
502.24112019516087
 21
186.00202206475339
 31
0.0
  0
LINE
  5
2B540
  8
3
 10
507.13637808470492
 20
182.9766887314199
 30
0.0
 11
505.13637808470497
 21
182.9766887314199
 31
0.0
  0
LINE
  5
2B541
  8
3
 10
507.13637808470492
 20
176.51068873142
 30
0.0
 11
505.13637808470497
 21
176.51068873142
 31
0.0
  0
LINE
  5
2B542
  8
3
 10
492.63637808470497
 20
176.51068873142091
 30
0.0
 11
492.13637808470497
 21
176.51068873142049
 31
0.0
  0
LINE
  5
2B543
  8
3
 10
452.13637808470497
 20
176.51068873142049
 30
0.0
 11
451.63637808470497
 21
176.51068873142049
 31
0.0
  0
LINE
  5
2B544
  8
3
 10
492.63637808470497
 20
182.97668873141939
 30
0.0
 11
492.13637808470497
 21
182.9766887314199
 31
0.0
  0
LINE
  5
2B545
  8
3
 10
452.13637808470497
 20
182.9766887314199
 30
0.0
 11
451.63637808470497
 21
182.9766887314199
 31
0.0
  0
LINE
  5
2B547
  8
3
 10
314.18348305371683
 20
441.27977657022609
 30
0.0
 11
314.18348305371683
 21
439.2797765702262
 31
0.0
  0
LINE
  5
2B548
  8
3
 10
307.71748305371648
 20
441.27977657022609
 30
0.0
 11
307.71748305371648
 21
439.2797765702262
 31
0.0
  0
TEXT
  5
2C7DC
  8
0
 62
     3
 10
0.0
 20
0.0
 30
0.0
 40
10.0
  1
CAF5-080FSL
  7
STANDARD1
  0
LINE
  5
2C7FE
  8
0
 10
483.13637808470497
 20
243.44368873142
 30
0.0
 11
483.13637808470497
 21
246.74368873142021
 31
0.0
  0
LINE
  5
2C7FF
  8
0
 10
461.13637808470497
 20
246.74368873142021
 30
0.0
 11
461.13637808470497
 21
243.44368873142
 31
0.0
  0
LINE
  5
2C800
  8
0
 10
461.13637808470497
 20
246.74368873142021
 30
0.0
 11
483.13637808470497
 21
246.74368873142021
 31
0.0
  0
LINE
  5
2C801
  8
0
 10
160.7645880227283
 20
243.44368873142
 30
0.0
 11
160.7645880227283
 21
246.74368873142021
 31
0.0
  0
LINE
  5
2C802
  8
0
 10
138.7645880227283
 20
246.74368873142021
 30
0.0
 11
138.7645880227283
 21
243.44368873142
 31
0.0
  0
LINE
  5
2C803
  8
0
 10
138.7645880227283
 20
246.74368873142021
 30
0.0
 11
160.7645880227283
 21
246.74368873142021
 31
0.0
  0
ENDSEC
  0
EOF
