  0
SECTION
  2
HEADER
  9
$ACADVER
  1
AC1009
  9
$INSBASE
 10
0.0
 20
0.0
 30
0.0
  9
$EXTMIN
 10
0.0
 20
-2.960436562073669
 30
0.0
  9
$EXTMAX
 10
515.95419758367541
 20
431.21919586362759
 30
0.0
  9
$LIMMIN
 10
0.0
 20
0.0
  9
$LIMMAX
 10
375.0
 20
270.0
  9
$ORTHOMODE
 70
     1
  9
$REGENMODE
 70
     1
  9
$FILLMODE
 70
     1
  9
$QTEXTMODE
 70
     0
  9
$MIRRTEXT
 70
     1
  9
$DRAGMODE
 70
     2
  9
$LTSCALE
 40
10.0
  9
$OSMODE
 70
  3071
  9
$ATTMODE
 70
     1
  9
$TEXTSIZE
 40
5.0
  9
$TRACEWID
 40
0.05
  9
$TEXTSTYLE
  7
STANDARD
  9
$CLAYER
  8
0
  9
$CELTYPE
  6
BYLAYER
  9
$CECOLOR
 62
     6
  9
$DIMSCALE
 40
2.0
  9
$DIMASZ
 40
3.0
  9
$DIMEXO
 40
2.0
  9
$DIMDLI
 40
0.38
  9
$DIMRND
 40
0.0
  9
$DIMDLE
 40
0.0
  9
$DIMEXE
 40
2.0
  9
$DIMTP
 40
0.0
  9
$DIMTM
 40
0.0
  9
$DIMTXT
 40
3.2000000000000002
  9
$DIMCEN
 40
0.0
  9
$DIMTSZ
 40
0.0
  9
$DIMTOL
 70
     0
  9
$DIMLIM
 70
     0
  9
$DIMTIH
 70
     0
  9
$DIMTOH
 70
     0
  9
$DIMSE1
 70
     0
  9
$DIMSE2
 70
     0
  9
$DIMTAD
 70
     1
  9
$DIMZIN
 70
     8
  9
$DIMBLK
  1

  9
$DIMASO
 70
     0
  9
$DIMSHO
 70
     0
  9
$DIMPOST
  1

  9
$DIMAPOST
  1

  9
$DIMALT
 70
     0
  9
$DIMALTD
 70
     2
  9
$DIMALTF
 40
25.399999999999999
  9
$DIMLFAC
 40
1.0
  9
$DIMTOFL
 70
     0
  9
$DIMTVP
 40
1.6000000000000001
  9
$DIMTIX
 70
     1
  9
$DIMSOXD
 70
     0
  9
$DIMSAH
 70
     0
  9
$DIMBLK1
  1

  9
$DIMBLK2
  1

  9
$DIMSTYLE
  2
STANDARD
  9
$DIMCLRD
 70
     0
  9
$DIMCLRE
 70
     0
  9
$DIMCLRT
 70
     0
  9
$DIMTFAC
 40
1.0
  9
$DIMGAP
 40
1.1999999999999991
  9
$LUNITS
 70
     2
  9
$LUPREC
 70
     4
  9
$SKETCHINC
 40
0.1
  9
$FILLETRAD
 40
0.0
  9
$AUNITS
 70
     0
  9
$AUPREC
 70
     4
  9
$MENU
  1
ACAD
  9
$ELEVATION
 40
0.0
  9
$PELEVATION
 40
0.0
  9
$THICKNESS
 40
0.0
  9
$LIMCHECK
 70
     0
  9
$BLIPMODE
 70
     0
  9
$CHAMFERA
 40
0.0
  9
$CHAMFERB
 40
0.0
  9
$SKPOLY
 70
     0
  9
$TDCREATE
 40
2448055.7149187499
  9
$TDUPDATE
 40
2456598.559680521
  9
$TDINDWG
 40
2.8655389814999999
  9
$TDUSRTIMER
 40
2.8655389814999999
  9
$USRTIMER
 70
     1
  9
$ANGBASE
 50
0.0
  9
$ANGDIR
 70
     0
  9
$PDMODE
 70
     0
  9
$PDSIZE
 40
0.0
  9
$PLINEWID
 40
0.0
  9
$COORDS
 70
     1
  9
$SPLFRAME
 70
     0
  9
$SPLINETYPE
 70
     6
  9
$SPLINESEGS
 70
     8
  9
$ATTDIA
 70
     0
  9
$ATTREQ
 70
     1
  9
$HANDLING
 70
     1
  9
$HANDSEED
  5
29A44
  9
$SURFTAB1
 70
     6
  9
$SURFTAB2
 70
     6
  9
$SURFTYPE
 70
     6
  9
$SURFU
 70
     6
  9
$SURFV
 70
     6
  9
$UCSNAME
  2

  9
$UCSORG
 10
0.0
 20
0.0
 30
0.0
  9
$UCSXDIR
 10
1.0
 20
0.0
 30
0.0
  9
$UCSYDIR
 10
0.0
 20
1.0
 30
0.0
  9
$PUCSNAME
  2

  9
$PUCSORG
 10
0.0
 20
0.0
 30
0.0
  9
$PUCSXDIR
 10
1.0
 20
0.0
 30
0.0
  9
$PUCSYDIR
 10
0.0
 20
1.0
 30
0.0
  9
$USERI1
 70
     0
  9
$USERI2
 70
     0
  9
$USERI3
 70
     0
  9
$USERI4
 70
     0
  9
$USERI5
 70
     0
  9
$USERR1
 40
0.0
  9
$USERR2
 40
0.0
  9
$USERR3
 40
0.0
  9
$USERR4
 40
0.0
  9
$USERR5
 40
0.0
  9
$WORLDVIEW
 70
     1
  9
$SHADEDGE
 70
     3
  9
$SHADEDIF
 70
    70
  9
$TILEMODE
 70
     1
  9
$MAXACTVP
 70
    16
  9
$PLIMCHECK
 70
     0
  9
$PEXTMIN
 10
1.0000000000000000E+020
 20
1.0000000000000000E+020
 30
1.0000000000000000E+020
  9
$PEXTMAX
 10
-1.0000000000000000E+020
 20
-1.0000000000000000E+020
 30
-1.0000000000000000E+020
  9
$PLIMMIN
 10
0.0
 20
0.0
  9
$PLIMMAX
 10
12.0
 20
9.0
  9
$UNITMODE
 70
     0
  9
$VISRETAIN
 70
     0
  9
$PLINEGEN
 70
     1
  9
$PSLTSCALE
 70
     0
  0
ENDSEC
  0
SECTION
  2
TABLES
  0
TABLE
  2
VPORT
 70
     1
  0
VPORT
  2
*ACTIVE
 70
     0
 10
0.0
 20
0.0
 11
1.0
 21
1.0
 12
270.0084921882758
 22
214.1291253154894
 13
0.0
 23
0.0
 14
5.0
 24
5.0
 15
10.0
 25
10.0
 16
0.0
 26
0.0
 36
1.0
 17
0.0
 27
0.0
 37
0.0
 40
438.10069099976801
 41
1.831871345029239
 42
50.0
 43
0.0
 44
0.0
 50
0.0
 51
0.0
 71
     0
 72
   500
 73
     1
 74
     1
 75
     0
 76
     0
 77
     0
 78
     2
  0
ENDTAB
  0
TABLE
  2
LTYPE
 70
     3
  0
LTYPE
  2
CONTINUOUS
 70
     0
  3
実線
 72
    65
 73
     0
 40
0.0
  0
LTYPE
  2
CENTER
 70
     0
  3
____ _ ____ _ ____ _ ____ _ ____ _ ____ _ ____
 72
    65
 73
     4
 40
2.0
 49
1.25
 49
-0.25
 49
0.25
 49
-0.25
  0
LTYPE
  2
PHANTOM2
 70
     0
  3
___ _ _ ___ _ _ ___ _ _ ___ _ _
 72
    65
 73
     6
 40
1.25
 49
0.625
 49
-0.125
 49
0.125
 49
-0.125
 49
0.125
 49
-0.125
  0
ENDTAB
  0
TABLE
  2
LAYER
 70
     4
  0
LAYER
  2
0
 70
     0
 62
     7
  6
CONTINUOUS
  0
LAYER
  2
1
 70
     0
 62
     1
  6
CENTER
  0
LAYER
  2
DEFPOINTS
 70
     0
 62
     7
  6
CONTINUOUS
  0
LAYER
  2
3
 70
     0
 62
     3
  6
CONTINUOUS
  0
ENDTAB
  0
TABLE
  2
STYLE
 70
     3
  0
STYLE
  2
STANDARD
 70
     0
 40
0.0
 41
1.0
 50
0.0
 71
     0
 42
5.0
  3
simplex.shx
  4
bigfont.shx
  0
STYLE
  2
07500
 70
     0
 40
0.0
 41
0.75
 50
0.0
 71
     0
 42
0.2
  3
simplex.shx
  4
bigfont.shx
  0
STYLE
  2
STANDARD1
 70
     0
 40
0.0
 41
1.0
 50
0.0
 71
     0
 42
3.0
  3
txt
  4

  0
ENDTAB
  0
TABLE
  2
VIEW
 70
     2
  0
VIEW
  2
ALL
 70
     0
 40
270.0
 10
220.99159663865549
 20
135.0
 41
0.0
 11
0.0
 21
0.0
 31
1.0
 12
0.0
 22
0.0
 32
0.0
 42
0.0
 43
0.0
 44
0.0
 50
0.0
 71
     0
  0
VIEW
  2
OLE1
 70
     0
 40
168.2487151179721
 10
2892.3009567448912
 20
702.51600084347126
 41
162.5749581879237
 11
0.0
 21
0.0
 31
1.0
 12
0.0
 22
0.0
 32
0.0
 42
50.0
 43
0.0
 44
0.0
 50
0.0
 71
     0
  0
ENDTAB
  0
TABLE
  2
UCS
 70
     0
  0
ENDTAB
  0
TABLE
  2
APPID
 70
    48
  0
APPID
  2
ACAD
 70
     0
  0
APPID
  2
DCO15
 70
     0
  0
APPID
  2
GENIUS_GENOREF_13
 70
     0
  0
APPID
  2
GENIUS_GENOENT_13
 70
     0
  0
APPID
  2
GENIUS_GENBH_13
 70
     0
  0
APPID
  2
GENIUS_GENOBJ_13
 70
     0
  0
APPID
  2
GENIUS_GENODEF_13
 70
     0
  0
APPID
  2
GENIUS_GENOLIS_13
 70
     0
  0
APPID
  2
GENIUS_GENOBJ-NBEHI-BHF_13
 70
     0
  0
APPID
  2
GENIUS_GENOBJ-NBEHI-BHB_13
 70
     0
  0
APPID
  2
GENIUS_GENOBJ-F-PART_13
 70
     0
  0
APPID
  2
GENIUS_GEFSTDP_13
 70
     0
  0
APPID
  2
GENIUS_GENOBJ-N-RSSYM_13
 70
     0
  0
APPID
  2
GENIUS_GENSYMENT_13
 70
     0
  0
APPID
  2
GENIUS_GENOBJ-N-TIT_13
 70
     0
  0
APPID
  2
GENIUS_GENTITLE_13
 70
     0
  0
APPID
  2
GENIUS_GENZVEED_13
 70
     0
  0
APPID
  2
GENIUS_GENOBJ-N-LEADER_13
 70
     0
  0
APPID
  2
GENIUS_GENOBJ-N-FIL_13
 70
     0
  0
APPID
  2
GENIUS_GENOBJ-N-SEC_13
 70
     0
  0
APPID
  2
GENIUS_GENOBJ-N-CRS_13
 70
     0
  0
APPID
  2
GENIUS_GENOBJ-N-ZOO_13
 70
     0
  0
APPID
  2
GENIUS_GENZOO_13
 70
     0
  0
APPID
  2
GENIUS_GENOBJ-F-TOL_13
 70
     0
  0
APPID
  2
GENIUS_GENFIL_13
 70
     0
  0
APPID
  2
GENIUS_GENOBJ-N-CHA_13
 70
     0
  0
APPID
  2
_CALL_MAC$
 70
     0
  0
APPID
  2
ASM_BASE
 70
     0
  0
APPID
  2
ASM_EXPLO_VER_2_00
 70
     0
  0
APPID
  2
ASM_CADM_VER_12_00
 70
     0
  0
APPID
  2
ASM_BASEFORO
 70
     0
  0
APPID
  2
ASM_BASETRAVI
 70
     0
  0
APPID
  2
ASM_BASETRAVI1
 70
     0
  0
APPID
  2
ASM_GRUPPI
 70
     0
  0
APPID
  2
ASM_CADM_ALBERO
 70
     0
  0
APPID
  2
ASM_GOLE
 70
     0
  0
APPID
  2
ACAD_MLEADERVER
 70
     0
  0
APPID
  2
ACAD_DSTYLE_DIMJAG
 70
     0
  0
APPID
  2
ACAD_DSTYLE_DIMTALN
 70
     0
  0
APPID
  2
ACAD_EXEMPT_FROM_CAD_STANDARDS
 70
     0
  0
APPID
  2
ACAD_DSTYLE_DIMRADIAL_EXTENSION
 70
     0
  0
APPID
  2
ACAD_PSEXT
 70
     0
  0
APPID
  2
ACAD_DSTYLE_DIMBREAK
 70
     0
  0
APPID
  2
ACAECLAYERSTANDARD
 70
     0
  0
APPID
  2
ACCMTRANSPARENCY
 70
     0
  0
APPID
  2
GRADIENTCOLOR1ACI
 70
     0
  0
APPID
  2
GRADIENTCOLOR2ACI
 70
     0
  0
APPID
  2
ACAD_NAV_VCDISPLAY
 70
     0
  0
ENDTAB
  0
TABLE
  2
DIMSTYLE
 70
     1
  0
DIMSTYLE
  2
STANDARD
 70
     0
  3

  4

  5

  6

  7

 40
1.0
 41
0.18
 42
0.0625
 43
0.38
 44
0.18
 45
0.0
 46
0.0
 47
0.0
 48
0.0
140
0.18
141
0.09
142
0.0
143
25.399999999999999
144
1.0
145
0.0
146
1.0
147
0.09
 71
     0
 72
     0
 73
     1
 74
     1
 75
     0
 76
     0
 77
     0
 78
     0
170
     0
171
     2
172
     0
173
     0
174
     0
175
     0
176
     0
177
     0
178
     0
  0
ENDTAB
  0
ENDSEC
  0
SECTION
  2
BLOCKS
  0
BLOCK
  8
0
  2
$MODEL_SPACE
 70
     0
 10
0.0
 20
0.0
 30
0.0
  3
$MODEL_SPACE
  1

  0
ENDBLK
  5
36
  8
0
  0
BLOCK
 67
     1
  8
0
  2
$PAPER_SPACE
 70
     0
 10
0.0
 20
0.0
 30
0.0
  3
$PAPER_SPACE
  1

  0
ENDBLK
  5
34
 67
     1
  8
0
  0
ENDSEC
  0
SECTION
  2
ENTITIES
  0
LINE
  5
20DE7
  8
0
 10
260.95048305371608
 20
246.74368873142021
 30
0.0
 11
260.95048305371608
 21
244.74368873142021
 31
0.0
  0
LINE
  5
20DE8
  8
0
 10
360.95048305371608
 20
246.74368873142021
 30
0.0
 11
360.95048305371608
 21
244.74368873142021
 31
0.0
  0
LINE
  5
20DE9
  8
0
 10
356.26137218617151
 20
246.74368873142021
 30
0.0
 11
356.26137218617151
 21
244.52782015665841
 31
0.0
  0
LINE
  5
20DEB
  8
0
 10
333.70603655318121
 20
246.74368873142021
 30
0.0
 11
333.70603655318121
 21
185.8485255471837
 31
0.0
  0
LINE
  5
20DEC
  8
0
 10
330.67494763993568
 20
246.74368873142021
 30
0.0
 11
330.67494763993568
 21
180.65875224088131
 31
0.0
  0
LINE
  5
20DF3
  8
0
 10
291.22601846749649
 20
246.74368873142021
 30
0.0
 11
291.22601846749649
 21
180.65875224088131
 31
0.0
  0
LINE
  5
20DF4
  8
0
 10
288.19492955425102
 20
246.74368873142021
 30
0.0
 11
288.19492955425102
 21
185.8485255471837
 31
0.0
  0
LINE
  5
20DFD
  8
0
 10
260.95048305371608
 20
244.74368873142021
 30
0.0
 11
265.63959392126071
 21
244.74368873142021
 31
0.0
  0
LINE
  5
20DFF
  8
0
 10
356.26137218617151
 20
244.74368873142021
 30
0.0
 11
360.95048305371608
 21
244.74368873142021
 31
0.0
  0
LINE
  5
20E00
  8
0
 10
265.63959392126071
 20
246.74368873142021
 30
0.0
 11
265.63959392126071
 21
244.52782015665841
 31
0.0
  0
LINE
  5
20E0C
  8
0
 10
278.55048305371611
 20
217.45694165897569
 30
0.0
 11
278.55048305371611
 21
199.87428162327109
 31
0.0
  0
ARC
  5
20E0D
  8
0
 10
288.55048305371599
 20
199.87428162327109
 30
0.0
 40
9.9999999999998508
 50
180.0
 51
205.633365486326
  0
POLYLINE
  5
20E0E
  8
0
 66
     1
 10
0.0
 20
0.0
 30
0.0
  0
VERTEX
  5
291DC
  8
0
 10
279.53467551640659
 20
195.54817315835771
 30
0.0
  0
VERTEX
  5
291DD
  8
0
 10
279.5766091651123
 20
195.4618460791034
 30
0.0
  0
VERTEX
  5
291DE
  8
0
 10
279.66289316141882
 20
195.29053360376381
 30
0.0
  0
VERTEX
  5
291DF
  8
0
 10
279.75234500853048
 20
195.12109669757541
 30
0.0
  0
VERTEX
  5
291E0
  8
0
 10
279.79823724715681
 20
195.03711371822959
 30
0.0
  0
VERTEX
  5
291E1
  8
0
 10
279.84489485378589
 20
194.95363795671301
 30
0.0
  0
VERTEX
  5
291E2
  8
0
 10
279.94046777793812
 20
194.78825793566691
 30
0.0
  0
VERTEX
  5
291E3
  8
0
 10
280.0389839892336
 20
194.62505466348779
 30
0.0
  0
VERTEX
  5
291E4
  8
0
 10
280.14035906257709
 20
194.46412317331169
 30
0.0
  0
VERTEX
  5
291E5
  8
0
 10
280.24450422719281
 20
194.3055550423237
 30
0.0
  0
VERTEX
  5
291E6
  8
0
 10
280.35132716714401
 20
194.1494372806105
 30
0.0
  0
VERTEX
  5
291E7
  8
0
 10
280.4057135651376
 20
194.072322473301
 30
0.0
  0
VERTEX
  5
291E8
  8
0
 10
280.4607335347585
 20
193.9958504787796
 30
0.0
  0
VERTEX
  5
291E9
  8
0
 10
280.57262277952651
 20
193.8448748990977
 30
0.0
  0
VERTEX
  5
291EA
  8
0
 10
280.68688868843719
 20
193.6965892014718
 30
0.0
  0
VERTEX
  5
291EB
  8
0
 10
280.80341979160733
 20
193.55106955875181
 30
0.0
  0
VERTEX
  5
291EC
  8
0
 10
280.92209966315232
 20
193.40838904400789
 30
0.0
  0
VERTEX
  5
291ED
  8
0
 10
281.04280729538641
 20
193.2686170308329
 30
0.0
  0
VERTEX
  5
291EE
  8
0
 10
281.10388256367582
 20
193.19984223544719
 30
0.0
  0
VERTEX
  5
291EF
  8
0
 10
281.16541755124678
 20
193.13181860711441
 30
0.0
  0
VERTEX
  5
291F0
  8
0
 10
281.28980170008151
 20
192.99805400334839
 30
0.0
  0
VERTEX
  5
291F1
  8
0
 10
281.41582804197492
 20
192.8673780372755
 30
0.0
  0
VERTEX
  5
291F2
  8
0
 10
281.47941524185057
 20
192.80321381140541
 30
0.0
  0
SEQEND
  5
291F3
  8
0
  0
ARC
  5
20E0F
  8
0
 10
258.55048305371622
 20
217.45694165897569
 30
0.0
 40
19.999999999999911
 50
0.0
 51
30.0
  0
POLYLINE
  5
20E10
  8
0
 66
     1
 10
0.0
 20
0.0
 30
0.0
  0
VERTEX
  5
291F4
  8
0
 10
281.47941524185057
 20
192.80321381140541
 30
0.0
  0
VERTEX
  5
291F5
  8
0
 10
281.65621284847509
 20
192.6264162047809
 30
0.0
  0
VERTEX
  5
291F6
  8
0
 10
282.0076754414971
 20
192.27495361175889
 30
0.0
  0
VERTEX
  5
291F7
  8
0
 10
282.35591298193759
 20
191.9267160713184
 30
0.0
  0
VERTEX
  5
291F8
  8
0
 10
282.52868025864632
 20
191.75394879460961
 30
0.0
  0
VERTEX
  5
291F9
  8
0
 10
282.7004713313359
 20
191.58215772192031
 30
0.0
  0
VERTEX
  5
291FA
  8
0
 10
283.04090114928442
 20
191.24172790397191
 30
0.0
  0
VERTEX
  5
291FB
  8
0
 10
283.37675847941591
 20
190.90587057384019
 30
0.0
  0
VERTEX
  5
291FC
  8
0
 10
283.70760532836903
 20
190.57502372488719
 30
0.0
  0
VERTEX
  5
291FD
  8
0
 10
284.03301023697799
 20
190.24961881627809
 30
0.0
  0
VERTEX
  5
291FE
  8
0
 10
284.35254884294119
 20
189.9300802103148
 30
0.0
  0
VERTEX
  5
291FF
  8
0
 10
284.509987746153
 20
189.77264130710321
 30
0.0
  0
VERTEX
  5
29200
  8
0
 10
284.66580443423379
 20
189.61682461902231
 30
0.0
  0
VERTEX
  5
29201
  8
0
 10
284.97236849254438
 20
189.31026056071181
 30
0.0
  0
VERTEX
  5
29202
  8
0
 10
285.27184122602603
 20
189.0107878272301
 30
0.0
  0
VERTEX
  5
29203
  8
0
 10
285.56383209066649
 20
188.71879696258969
 30
0.0
  0
VERTEX
  5
29204
  8
0
 10
285.8479602996
 20
188.4346687536563
 30
0.0
  0
VERTEX
  5
29205
  8
0
 10
286.1238553196917
 20
188.1587737335644
 30
0.0
  0
VERTEX
  5
29206
  8
0
 10
286.25860251527263
 20
188.02402653798339
 30
0.0
  0
VERTEX
  5
29207
  8
0
 10
286.39115735475337
 20
187.8914716985027
 30
0.0
  0
VERTEX
  5
29208
  8
0
 10
286.64951781475492
 20
187.63311123850099
 30
0.0
  0
VERTEX
  5
29209
  8
0
 10
286.89859977042272
 20
187.38402928283361
 30
0.0
  0
VERTEX
  5
2920A
  8
0
 10
287.01955931567409
 20
187.2630697375821
 30
0.0
  0
SEQEND
  5
2920B
  8
0
  0
LINE
  5
20E11
  8
0
 10
266.46783332290579
 20
243.74368873142021
 30
0.0
 11
275.87099112940479
 21
227.45694165897561
 31
0.0
  0
POLYLINE
  5
20E12
  8
0
 66
     1
 10
0.0
 20
0.0
 30
0.0
  0
VERTEX
  5
2920C
  8
0
 10
287.01955931567409
 20
187.2630697375821
 30
0.0
  0
VERTEX
  5
2920D
  8
0
 10
287.24261235555917
 20
187.03274757221291
 30
0.0
  0
VERTEX
  5
2920E
  8
0
 10
287.65649465943937
 20
186.56277011744851
 30
0.0
  0
VERTEX
  5
2920F
  8
0
 10
288.0265164677059
 20
186.08653436541451
 30
0.0
  0
VERTEX
  5
29210
  8
0
 10
288.19492955425102
 20
185.8485255471837
 30
0.0
  0
SEQEND
  5
29211
  8
0
  0
POLYLINE
  5
20E13
  8
0
 66
     1
 10
0.0
 20
0.0
 30
0.0
  0
VERTEX
  5
29212
  8
0
 10
288.19492955425102
 20
185.8485255471837
 30
0.0
  0
VERTEX
  5
29213
  8
0
 10
288.26741897788202
 20
185.74136636510141
 30
0.0
  0
VERTEX
  5
29214
  8
0
 10
288.40820870702652
 20
185.52427956679821
 30
0.0
  0
VERTEX
  5
29215
  8
0
 10
288.5433347886738
 20
185.30362289255339
 30
0.0
  0
VERTEX
  5
29216
  8
0
 10
288.60874554165309
 20
185.19200192571631
 30
0.0
  0
SEQEND
  5
29217
  8
0
  0
ARC
  5
20E14
  8
0
 10
264.73578251533678
 20
242.74368873142021
 30
0.0
 40
2.0000000000000639
 50
30.0
 51
63.133982235387791
  0
LINE
  5
20E15
  8
0
 10
288.60874554165309
 20
185.19200192571631
 30
0.0
 11
291.22601846749649
 21
180.65875224088131
 31
0.0
  0
POLYLINE
  5
20E16
  8
0
 66
     1
 10
0.0
 20
0.0
 30
0.0
  0
VERTEX
  5
29218
  8
0
 10
291.22601846749649
 20
180.65875224088131
 30
0.0
  0
VERTEX
  5
29219
  8
0
 10
291.29006443951607
 20
180.54782136332321
 30
0.0
  0
VERTEX
  5
2921A
  8
0
 10
291.42085064024519
 20
180.32129301873141
 30
0.0
  0
VERTEX
  5
2921B
  8
0
 10
291.55519972837902
 20
180.08859357213299
 30
0.0
  0
VERTEX
  5
2921C
  8
0
 10
291.62369908474409
 20
179.96994920662291
 30
0.0
  0
VERTEX
  5
2921D
  8
0
 10
291.69307551928262
 20
179.8497856971544
 30
0.0
  0
VERTEX
  5
2921E
  8
0
 10
291.8344408784634
 20
179.6049337126228
 30
0.0
  0
VERTEX
  5
2921F
  8
0
 10
291.97925773157363
 20
179.3541035652438
 30
0.0
  0
VERTEX
  5
29220
  8
0
 10
292.12748707466392
 20
179.09736281183899
 30
0.0
  0
VERTEX
  5
29221
  8
0
 10
292.27908898468962
 20
178.83478060115019
 30
0.0
  0
VERTEX
  5
29222
  8
0
 10
292.43402263026212
 20
178.5664276552165
 30
0.0
  0
VERTEX
  5
29223
  8
0
 10
292.5127258483958
 20
178.43010968268979
 30
0.0
  0
VERTEX
  5
29224
  8
0
 10
292.59224628264701
 20
178.2923762503269
 30
0.0
  0
VERTEX
  5
29225
  8
0
 10
292.75371732700251
 20
178.01270019755199
 30
0.0
  0
VERTEX
  5
29226
  8
0
 10
292.91839227385731
 20
177.72747482286559
 30
0.0
  0
VERTEX
  5
29227
  8
0
 10
293.08622677082349
 20
177.43677694685721
 30
0.0
  0
VERTEX
  5
29228
  8
0
 10
293.2571756145424
 20
177.1406848640413
 30
0.0
  0
VERTEX
  5
29229
  8
0
 10
293.43119276285898
 20
176.83927832176821
 30
0.0
  0
VERTEX
  5
2922A
  8
0
 10
293.51933733675691
 20
176.6866074413656
 30
0.0
  0
VERTEX
  5
2922B
  8
0
 10
293.60823134722301
 20
176.5326384987502
 30
0.0
  0
VERTEX
  5
2922C
  8
0
 10
293.7882436853115
 20
176.2208479831915
 30
0.0
  0
VERTEX
  5
2922D
  8
0
 10
293.97118129387212
 20
175.90399075054941
 30
0.0
  0
VERTEX
  5
2922E
  8
0
 10
294.06373170776789
 20
175.74368873142021
 30
0.0
  0
SEQEND
  5
2922F
  8
0
  0
POLYLINE
  5
20E17
  8
0
 66
     1
 10
0.0
 20
0.0
 30
0.0
  0
VERTEX
  5
29230
  8
0
 10
294.06373170776789
 20
175.74368873142021
 30
0.0
  0
VERTEX
  5
29231
  8
0
 10
294.21098826264659
 20
175.49689219877109
 30
0.0
  0
VERTEX
  5
29232
  8
0
 10
294.52381090259081
 20
175.0203040209644
 30
0.0
  0
VERTEX
  5
29233
  8
0
 10
294.85893863661897
 20
174.5678459570845
 30
0.0
  0
VERTEX
  5
29234
  8
0
 10
295.03398958345872
 20
174.3511963359565
 30
0.0
  0
VERTEX
  5
29235
  8
0
 10
295.21351173040091
 20
174.14120586004259
 30
0.0
  0
VERTEX
  5
29236
  8
0
 10
295.58425406259329
 20
173.74195812431341
 30
0.0
  0
VERTEX
  5
29237
  8
0
 10
295.97722314335488
 20
173.36255098790249
 30
0.0
  0
VERTEX
  5
29238
  8
0
 10
296.39937758621107
 20
172.997765182221
 30
0.0
  0
VERTEX
  5
29239
  8
0
 10
296.84946555986039
 20
172.65109875124739
 30
0.0
  0
VERTEX
  5
2923A
  8
0
 10
297.32596481485132
 20
172.32576915286239
 30
0.0
  0
VERTEX
  5
2923B
  8
0
 10
297.57357539028152
 20
172.1720335136865
 30
0.0
  0
VERTEX
  5
2923C
  8
0
 10
297.82709609939161
 20
172.0247167855577
 30
0.0
  0
VERTEX
  5
2923D
  8
0
 10
298.35075157599738
 20
171.75064570373979
 30
0.0
  0
VERTEX
  5
2923E
  8
0
 10
298.894551326206
 20
171.50597082993269
 30
0.0
  0
VERTEX
  5
2923F
  8
0
 10
299.4562582571449
 20
171.2926593133561
 30
0.0
  0
VERTEX
  5
29240
  8
0
 10
300.03308062568158
 20
171.1125398053818
 30
0.0
  0
VERTEX
  5
29241
  8
0
 10
300.62175584188788
 20
170.96715409833629
 30
0.0
  0
VERTEX
  5
29242
  8
0
 10
300.91946960439168
 20
170.90785010443591
 30
0.0
  0
VERTEX
  5
29243
  8
0
 10
300.96926286678507
 20
170.89884502425451
 30
0.0
  0
VERTEX
  5
29244
  8
0
 10
301.0689801326983
 20
170.88159177280019
 30
0.0
  0
VERTEX
  5
29245
  8
0
 10
301.16885751694718
 20
170.86534999495191
 30
0.0
  0
VERTEX
  5
29246
  8
0
 10
301.21885085620778
 20
170.85760917657669
 30
0.0
  0
VERTEX
  5
29247
  8
0
 10
301.26887771274608
 20
170.850122103925
 30
0.0
  0
VERTEX
  5
29248
  8
0
 10
301.3690231363895
 20
170.8359101545843
 30
0.0
  0
VERTEX
  5
29249
  8
0
 10
301.46927595441292
 20
170.82271582853079
 30
0.0
  0
VERTEX
  5
2924A
  8
0
 10
301.56961811171152
 20
170.81054042054711
 30
0.0
  0
VERTEX
  5
2924B
  8
0
 10
301.67003136059202
 20
170.79938482645551
 30
0.0
  0
VERTEX
  5
2924C
  8
0
 10
301.77049729073548
 20
170.7892495324285
 30
0.0
  0
VERTEX
  5
2924D
  8
0
 10
301.82074422116142
 20
170.78456453556279
 30
0.0
  0
VERTEX
  5
2924E
  8
0
 10
301.870997360042
 20
170.78013460580399
 30
0.0
  0
VERTEX
  5
2924F
  8
0
 10
301.97151292632759
 20
170.77203968744379
 30
0.0
  0
VERTEX
  5
29250
  8
0
 10
302.07202527984452
 20
170.76496398568861
 30
0.0
  0
VERTEX
  5
29251
  8
0
 10
302.17251567659002
 20
170.75890627194849
 30
0.0
  0
VERTEX
  5
29252
  8
0
 10
302.27296537236799
 20
170.75386487797229
 30
0.0
  0
VERTEX
  5
29253
  8
0
 10
302.37335565756678
 20
170.7498376948397
 30
0.0
  0
VERTEX
  5
29254
  8
0
 10
302.42352269261369
 20
170.74820365295679
 30
0.0
  0
VERTEX
  5
29255
  8
0
 10
302.47366789261258
 20
170.74682217371989
 30
0.0
  0
VERTEX
  5
29256
  8
0
 10
302.57388354405572
 20
170.74481532842671
 30
0.0
  0
VERTEX
  5
29257
  8
0
 10
302.67398422124558
 20
170.74381373982351
 30
0.0
  0
VERTEX
  5
29258
  8
0
 10
302.72398574561242
 20
170.74368873142021
 30
0.0
  0
SEQEND
  5
29259
  8
0
  0
LINE
  5
20E18
  8
0
 10
302.72398574561242
 20
170.74368873142021
 30
0.0
 11
319.1769803618198
 21
170.74368873142021
 31
0.0
  0
POLYLINE
  5
20E19
  8
0
 66
     1
 10
0.0
 20
0.0
 30
0.0
  0
VERTEX
  5
2925A
  8
0
 10
319.1769803618198
 20
170.74368873142021
 30
0.0
  0
VERTEX
  5
2925B
  8
0
 10
319.22696113892738
 20
170.74381363610431
 30
0.0
  0
VERTEX
  5
2925C
  8
0
 10
319.32702899486361
 20
170.7448145244048
 30
0.0
  0
VERTEX
  5
2925D
  8
0
 10
319.42722295318111
 20
170.7468202894797
 30
0.0
  0
VERTEX
  5
2925E
  8
0
 10
319.4773613152995
 20
170.7482011853931
 30
0.0
  0
VERTEX
  5
2925F
  8
0
 10
319.52752409697052
 20
170.7498346655579
 30
0.0
  0
VERTEX
  5
29260
  8
0
 10
319.62791336464682
 20
170.7538609337571
 30
0.0
  0
VERTEX
  5
29261
  8
0
 10
319.72837158804731
 20
170.7589019176898
 30
0.0
  0
VERTEX
  5
29262
  8
0
 10
319.82887952990518
 20
170.7649599809906
 30
0.0
  0
VERTEX
  5
29263
  8
0
 10
319.92941792065699
 20
170.77203702670971
 30
0.0
  0
VERTEX
  5
29264
  8
0
 10
320.02996749454388
 20
170.78013449854689
 30
0.0
  0
VERTEX
  5
29265
  8
0
 10
320.08024046437021
 20
170.78456622051911
 30
0.0
  0
VERTEX
  5
29266
  8
0
 10
320.13050902496713
 20
170.78925338386989
 30
0.0
  0
VERTEX
  5
29267
  8
0
 10
320.23102335906469
 20
170.79939421848661
 30
0.0
  0
VERTEX
  5
29268
  8
0
 10
320.33149145147098
 20
170.8105570931161
 30
0.0
  0
VERTEX
  5
29269
  8
0
 10
320.4318943972321
 20
170.8227416615218
 30
0.0
  0
VERTEX
  5
2926A
  8
0
 10
320.53221346384129
 20
170.83594715025311
 30
0.0
  0
VERTEX
  5
2926B
  8
0
 10
320.63243012237137
 20
170.85017236995819
 30
0.0
  0
VERTEX
  5
2926C
  8
0
 10
320.68249432143449
 20
170.85766689665749
 30
0.0
  0
VERTEX
  5
2926D
  8
0
 10
320.73252607767353
 20
170.86541572821301
 30
0.0
  0
VERTEX
  5
2926E
  8
0
 10
320.83248329761977
 20
170.8816752438224
 30
0.0
  0
VERTEX
  5
2926F
  8
0
 10
320.93228404136488
 20
170.89894856254929
 30
0.0
  0
VERTEX
  5
29270
  8
0
 10
320.98212027702459
 20
170.9079645645611
 30
0.0
  0
VERTEX
  5
29271
  8
0
 10
321.2801060020717
 20
170.96734674981411
 30
0.0
  0
VERTEX
  5
29272
  8
0
 10
321.869359019743
 20
171.11295162762781
 30
0.0
  0
VERTEX
  5
29273
  8
0
 10
322.44672324524009
 20
171.29335638401969
 30
0.0
  0
VERTEX
  5
29274
  8
0
 10
323.0088544895263
 20
171.5069825723281
 30
0.0
  0
VERTEX
  5
29275
  8
0
 10
323.5529435823575
 20
171.75197332820011
 30
0.0
  0
VERTEX
  5
29276
  8
0
 10
324.07665962558048
 20
172.0262841226922
 30
0.0
  0
VERTEX
  5
29277
  8
0
 10
324.33010269873017
 20
172.1736636333917
 30
0.0
  0
VERTEX
  5
29278
  8
0
 10
324.57755693754228
 20
172.3274085168741
 30
0.0
  0
VERTEX
  5
29279
  8
0
 10
325.05349465902509
 20
172.65254667885799
 30
0.0
  0
VERTEX
  5
2927A
  8
0
 10
325.50266557072899
 20
172.9986447265232
 30
0.0
  0
VERTEX
  5
2927B
  8
0
 10
325.92352258399592
 20
173.36234955452301
 30
0.0
  0
VERTEX
  5
2927C
  8
0
 10
326.31508105752278
 20
173.74029537833709
 30
0.0
  0
VERTEX
  5
2927D
  8
0
 10
326.68705642728531
 20
174.14075321068961
 30
0.0
  0
VERTEX
  5
2927E
  8
0
 10
326.86694608370152
 20
174.3511597173065
 30
0.0
  0
VERTEX
  5
2927F
  8
0
 10
327.04222724128613
 20
174.56810037685449
 30
0.0
  0
VERTEX
  5
29280
  8
0
 10
327.37748865818611
 20
175.0207818056324
 30
0.0
  0
VERTEX
  5
29281
  8
0
 10
327.6901381759921
 20
175.49715234719491
 30
0.0
  0
VERTEX
  5
29282
  8
0
 10
327.83723439966423
 20
175.74368873142021
 30
0.0
  0
SEQEND
  5
29283
  8
0
  0
POLYLINE
  5
20E1A
  8
0
 66
     1
 10
0.0
 20
0.0
 30
0.0
  0
VERTEX
  5
29284
  8
0
 10
327.83723439966423
 20
175.74368873142021
 30
0.0
  0
VERTEX
  5
29285
  8
0
 10
327.92978481355999
 20
175.90399075054941
 30
0.0
  0
VERTEX
  5
29286
  8
0
 10
328.11272242212073
 20
176.2208479831915
 30
0.0
  0
VERTEX
  5
29287
  8
0
 10
328.29273476020921
 20
176.5326384987502
 30
0.0
  0
VERTEX
  5
29288
  8
0
 10
328.38162877067521
 20
176.6866074413656
 30
0.0
  0
VERTEX
  5
29289
  8
0
 10
328.46977334457313
 20
176.83927832176821
 30
0.0
  0
VERTEX
  5
2928A
  8
0
 10
328.64379049288982
 20
177.1406848640413
 30
0.0
  0
VERTEX
  5
2928B
  8
0
 10
328.8147393366088
 20
177.43677694685721
 30
0.0
  0
VERTEX
  5
2928C
  8
0
 10
328.98257383357497
 20
177.72747482286559
 30
0.0
  0
VERTEX
  5
2928D
  8
0
 10
329.14724878042972
 20
178.01270019755199
 30
0.0
  0
VERTEX
  5
2928E
  8
0
 10
329.30871982478533
 20
178.2923762503269
 30
0.0
  0
VERTEX
  5
2928F
  8
0
 10
329.38824025903642
 20
178.43010968268979
 30
0.0
  0
VERTEX
  5
29290
  8
0
 10
329.4669434771701
 20
178.5664276552165
 30
0.0
  0
VERTEX
  5
29291
  8
0
 10
329.6218771227426
 20
178.83478060115019
 30
0.0
  0
VERTEX
  5
29292
  8
0
 10
329.77347903276831
 20
179.09736281183899
 30
0.0
  0
VERTEX
  5
29293
  8
0
 10
329.92170837585871
 20
179.3541035652438
 30
0.0
  0
VERTEX
  5
29294
  8
0
 10
330.06652522896883
 20
179.6049337126228
 30
0.0
  0
VERTEX
  5
29295
  8
0
 10
330.20789058814961
 20
179.8497856971544
 30
0.0
  0
VERTEX
  5
29296
  8
0
 10
330.27726702268819
 20
179.96994920662331
 30
0.0
  0
VERTEX
  5
29297
  8
0
 10
330.3457663790532
 20
180.08859357213299
 30
0.0
  0
VERTEX
  5
29298
  8
0
 10
330.48011546718698
 20
180.32129301873141
 30
0.0
  0
VERTEX
  5
29299
  8
0
 10
330.61090166791621
 20
180.54782136332321
 30
0.0
  0
VERTEX
  5
2929A
  8
0
 10
330.67494763993568
 20
180.65875224088131
 30
0.0
  0
SEQEND
  5
2929B
  8
0
  0
LINE
  5
20E1B
  8
0
 10
330.67494763993568
 20
180.65875224088131
 30
0.0
 11
333.29222056577908
 21
185.19200192571631
 31
0.0
  0
POLYLINE
  5
20E1C
  8
0
 66
     1
 10
0.0
 20
0.0
 30
0.0
  0
VERTEX
  5
2929C
  8
0
 10
333.29222056577908
 20
185.19200192571631
 30
0.0
  0
VERTEX
  5
2929D
  8
0
 10
333.35763131875842
 20
185.30362289255339
 30
0.0
  0
VERTEX
  5
2929E
  8
0
 10
333.49275740040571
 20
185.52427956679821
 30
0.0
  0
VERTEX
  5
2929F
  8
0
 10
333.63354712955021
 20
185.74136636510141
 30
0.0
  0
VERTEX
  5
292A0
  8
0
 10
333.70603655318121
 20
185.8485255471837
 30
0.0
  0
SEQEND
  5
292A1
  8
0
  0
POLYLINE
  5
20E1D
  8
0
 66
     1
 10
0.0
 20
0.0
 30
0.0
  0
VERTEX
  5
292A2
  8
0
 10
333.70603655318121
 20
185.8485255471837
 30
0.0
  0
VERTEX
  5
292A3
  8
0
 10
333.87444963972729
 20
186.0865343654159
 30
0.0
  0
VERTEX
  5
292A4
  8
0
 10
334.24447144799427
 20
186.5627701174503
 30
0.0
  0
VERTEX
  5
292A5
  8
0
 10
334.65835375187271
 20
187.0327475722124
 30
0.0
  0
VERTEX
  5
292A6
  8
0
 10
334.88140679175802
 20
187.2630697375821
 30
0.0
  0
SEQEND
  5
292A7
  8
0
  0
POLYLINE
  5
20E1E
  8
0
 66
     1
 10
0.0
 20
0.0
 30
0.0
  0
VERTEX
  5
292A8
  8
0
 10
334.88140679175802
 20
187.2630697375821
 30
0.0
  0
VERTEX
  5
292A9
  8
0
 10
335.00236633700951
 20
187.38402928283361
 30
0.0
  0
VERTEX
  5
292AA
  8
0
 10
335.25144829267731
 20
187.63311123850141
 30
0.0
  0
VERTEX
  5
292AB
  8
0
 10
335.50980875267879
 20
187.8914716985027
 30
0.0
  0
VERTEX
  5
292AC
  8
0
 10
335.64236359215948
 20
188.02402653798339
 30
0.0
  0
VERTEX
  5
292AD
  8
0
 10
335.77711078774053
 20
188.1587737335644
 30
0.0
  0
VERTEX
  5
292AE
  8
0
 10
336.05300580783222
 20
188.4346687536563
 30
0.0
  0
VERTEX
  5
292AF
  8
0
 10
336.33713401676562
 20
188.71879696258969
 30
0.0
  0
VERTEX
  5
292B0
  8
0
 10
336.62912488140631
 20
189.0107878272301
 30
0.0
  0
VERTEX
  5
292B1
  8
0
 10
336.92859761488779
 20
189.31026056071181
 30
0.0
  0
VERTEX
  5
292B2
  8
0
 10
337.23516167319838
 20
189.61682461902231
 30
0.0
  0
VERTEX
  5
292B3
  8
0
 10
337.39097836127922
 20
189.77264130710321
 30
0.0
  0
VERTEX
  5
292B4
  8
0
 10
337.54841726449098
 20
189.9300802103148
 30
0.0
  0
VERTEX
  5
292B5
  8
0
 10
337.86795587045418
 20
190.24961881627809
 30
0.0
  0
VERTEX
  5
292B6
  8
0
 10
338.19336077906331
 20
190.57502372488719
 30
0.0
  0
VERTEX
  5
292B7
  8
0
 10
338.52420762801631
 20
190.90587057384019
 30
0.0
  0
VERTEX
  5
292B8
  8
0
 10
338.86006495814769
 20
191.24172790397191
 30
0.0
  0
VERTEX
  5
292B9
  8
0
 10
339.20049477609632
 20
191.58215772192031
 30
0.0
  0
VERTEX
  5
292BA
  8
0
 10
339.37228584878591
 20
191.75394879460961
 30
0.0
  0
VERTEX
  5
292BB
  8
0
 10
339.54505312549469
 20
191.9267160713184
 30
0.0
  0
VERTEX
  5
292BC
  8
0
 10
339.89329066593501
 20
192.27495361175889
 30
0.0
  0
VERTEX
  5
292BD
  8
0
 10
340.24475325895719
 20
192.6264162047809
 30
0.0
  0
VERTEX
  5
292BE
  8
0
 10
340.42155086558159
 20
192.80321381140541
 30
0.0
  0
SEQEND
  5
292BF
  8
0
  0
POLYLINE
  5
20E1F
  8
0
 66
     1
 10
0.0
 20
0.0
 30
0.0
  0
VERTEX
  5
292C0
  8
0
 10
340.42155086558159
 20
192.80321381140541
 30
0.0
  0
VERTEX
  5
292C1
  8
0
 10
340.48513806545731
 20
192.8673780372755
 30
0.0
  0
VERTEX
  5
292C2
  8
0
 10
340.61116440735071
 20
192.99805400334839
 30
0.0
  0
VERTEX
  5
292C3
  8
0
 10
340.73554855618539
 20
193.13181860711441
 30
0.0
  0
VERTEX
  5
292C4
  8
0
 10
340.7970835437564
 20
193.19984223544719
 30
0.0
  0
VERTEX
  5
292C5
  8
0
 10
340.85815881204582
 20
193.2686170308329
 30
0.0
  0
VERTEX
  5
292C6
  8
0
 10
340.9788664442799
 20
193.40838904400789
 30
0.0
  0
VERTEX
  5
292C7
  8
0
 10
341.09754631582501
 20
193.55106955875181
 30
0.0
  0
VERTEX
  5
292C8
  8
0
 10
341.21407741899498
 20
193.6965892014718
 30
0.0
  0
VERTEX
  5
292C9
  8
0
 10
341.32834332790571
 20
193.8448748990977
 30
0.0
  0
VERTEX
  5
292CA
  8
0
 10
341.44023257267372
 20
193.9958504787796
 30
0.0
  0
VERTEX
  5
292CB
  8
0
 10
341.49525254229468
 20
194.072322473301
 30
0.0
  0
VERTEX
  5
292CC
  8
0
 10
341.54963894028822
 20
194.1494372806105
 30
0.0
  0
VERTEX
  5
292CD
  8
0
 10
341.65646188023931
 20
194.3055550423237
 30
0.0
  0
VERTEX
  5
292CE
  8
0
 10
341.76060704485519
 20
194.46412317331169
 30
0.0
  0
VERTEX
  5
292CF
  8
0
 10
341.86198211819863
 20
194.62505466348779
 30
0.0
  0
VERTEX
  5
292D0
  8
0
 10
341.9604983294941
 20
194.78825793566691
 30
0.0
  0
VERTEX
  5
292D1
  8
0
 10
342.05607125364628
 20
194.95363795671301
 30
0.0
  0
VERTEX
  5
292D2
  8
0
 10
342.10272886027548
 20
195.03711371822959
 30
0.0
  0
VERTEX
  5
292D3
  8
0
 10
342.14862109890157
 20
195.12109669757541
 30
0.0
  0
VERTEX
  5
292D4
  8
0
 10
342.2380729460134
 20
195.29053360376381
 30
0.0
  0
VERTEX
  5
292D5
  8
0
 10
342.32435694231998
 20
195.4618460791034
 30
0.0
  0
VERTEX
  5
292D6
  8
0
 10
342.36629059102557
 20
195.54817315835771
 30
0.0
  0
SEQEND
  5
292D7
  8
0
  0
ARC
  5
20E20
  8
0
 10
333.35048305371618
 20
199.87428162327109
 30
0.0
 40
9.9999999999999414
 50
334.36663451367389
 51
0.0
  0
LINE
  5
20E21
  8
0
 10
343.35048305371612
 20
199.87428162327109
 30
0.0
 11
343.35048305371612
 21
217.45694165897569
 31
0.0
  0
ARC
  5
20E22
  8
0
 10
363.35048305371629
 20
217.45694165897569
 30
0.0
 40
20.000000000000188
 50
150.0
 51
180.0
  0
LINE
  5
20E23
  8
0
 10
346.02997497802733
 20
227.45694165897561
 30
0.0
 11
355.43313278452649
 21
243.74368873142021
 31
0.0
  0
ARC
  5
20E24
  8
0
 10
357.16518359209539
 20
242.74368873142021
 30
0.0
 40
2.0000000000001368
 50
116.8660177646136
 51
150.0
  0
LINE
  5
20E39
  8
0
 10
260.95048305371608
 20
246.74368873142021
 30
0.0
 11
360.95048305371608
 21
246.74368873142021
 31
0.0
  0
CIRCLE
  5
20E5B
  8
0
 10
310.95048305371608
 20
179.74368873142021
 30
0.0
 40
6.2583333333333391
  0
ARC
  5
20E5D
  8
0
 10
310.95048305371608
 20
179.74368873142021
 30
0.0
 40
13.999999999999989
 50
217.85832050430739
 51
322.14169570915129
  0
ARC
  5
20E62
  8
0
 10
310.95048305371608
 20
179.74368873142021
 30
0.0
 40
32.0
 50
156.2628642054365
 51
23.737135794563478
  0
ARC
  5
20E68
  8
0
 10
310.95048305371608
 20
179.74368873142021
 30
0.0
 40
39.999999999999972
 50
144.09593141670669
 51
35.904068583293252
  0
ARC
  5
20E93
  8
0
 10
310.95048305371608
 20
179.74368873142021
 30
0.0
 40
17.0
 50
196.93073298610531
 51
343.06871782489588
  0
ARC
  5
20E99
  8
0
 10
310.95048305371608
 20
179.74368873142021
 30
0.0
 40
29.0
 50
158.58833894271729
 51
21.41166105728265
  0
LINE
  5
20E9D
  8
0
 10
296.85684432028017
 20
170.23740937241789
 30
0.0
 11
286.90839344961989
 21
163.52709453076841
 31
0.0
  0
LINE
  5
20EA0
  8
0
 10
326.22998184080188
 20
172.29137923600589
 30
0.0
 11
337.01551039639202
 21
167.0309254745371
 31
0.0
  0
ARC
  5
20EA3
  8
0
 10
310.95048305371608
 20
179.74368873142021
 30
0.0
 40
25.696248171614329
 50
161.84710315729399
 51
214.0000000000056
  0
LINE
  5
20EA6
  8
0
 10
310.95048305371608
 20
150.74368873142021
 30
0.0
 11
310.95048305371608
 21
162.59906166975361
 31
0.0
  0
ARC
  5
20EA7
  8
0
 10
310.95048305371608
 20
179.74368873142021
 30
0.0
 40
25.696248171614311
 50
270.0
 51
334.00000000000512
  0
LINE
  5
20EA8
  8
1
 10
259.79960099043149
 20
179.74368873142021
 30
0.0
 11
362.10136511700068
 21
179.74368873142021
 31
0.0
  0
LINE
  5
20EA9
  8
1
 10
310.95048305371631
 20
128.59280666813581
 30
0.0
 11
310.95048305371631
 21
257.89457079470458
 31
0.0
  0
LINE
  5
20EC5
  8
0
 10
431.63637808470452
 20
244.74368873142021
 30
0.0
 11
431.63637808470452
 21
195.54817315835811
 31
0.0
  0
LINE
  5
20EC6
  8
0
 10
431.63637808470452
 20
244.74368873142021
 30
0.0
 11
512.63637808470457
 21
244.74368873142021
 31
0.0
  0
LINE
  5
20EC7
  8
0
 10
449.63637808470457
 20
244.74368873142021
 30
0.0
 11
449.63637808470457
 21
170.74368873142021
 31
0.0
  0
LINE
  5
20ECA
  8
0
 10
512.63637808470457
 20
244.74368873142021
 30
0.0
 11
512.63637808470457
 21
195.54817315835811
 31
0.0
  0
LINE
  5
20ECD
  8
0
 10
494.63637808470452
 20
244.74368873142021
 30
0.0
 11
494.63637808470452
 21
170.74368873142021
 31
0.0
  0
POLYLINE
  5
20ECF
  8
0
 66
     1
 10
0.0
 20
0.0
 30
0.0
  0
VERTEX
  5
292D8
  8
0
 10
514.44545487104267
 20
192.80321381140581
 30
0.0
  0
VERTEX
  5
292D9
  8
0
 10
514.45784768836097
 20
192.8673780372755
 30
0.0
  0
VERTEX
  5
292DA
  8
0
 10
514.48114989919463
 20
192.9980540033489
 30
0.0
  0
VERTEX
  5
292DB
  8
0
 10
514.50251615467937
 20
193.13181860711481
 30
0.0
  0
VERTEX
  5
292DC
  8
0
 10
514.51249013564859
 20
193.1998422354477
 30
0.0
  0
VERTEX
  5
292DD
  8
0
 10
514.52200090459974
 20
193.26861703083341
 30
0.0
  0
VERTEX
  5
292DE
  8
0
 10
514.53966310721239
 20
193.40838904400789
 30
0.0
  0
VERTEX
  5
292DF
  8
0
 10
514.55556595287931
 20
193.55106955875181
 30
0.0
  0
VERTEX
  5
292E0
  8
0
 10
514.56977653670469
 20
193.69658920147231
 30
0.0
  0
VERTEX
  5
292E1
  8
0
 10
514.58236549063781
 20
193.8448748990977
 30
0.0
  0
VERTEX
  5
292E2
  8
0
 10
514.59340658454562
 20
193.99585047878011
 30
0.0
  0
VERTEX
  5
292E3
  8
0
 10
514.59837049173154
 20
194.072322473301
 30
0.0
  0
VERTEX
  5
292E4
  8
0
 10
514.60297630482705
 20
194.14943728061101
 30
0.0
  0
VERTEX
  5
292E5
  8
0
 10
514.61115343061294
 20
194.3055550423241
 30
0.0
  0
VERTEX
  5
292E6
  8
0
 10
514.61801860327148
 20
194.46412317331169
 30
0.0
  0
VERTEX
  5
292E7
  8
0
 10
514.62365363733829
 20
194.6250546634883
 30
0.0
  0
VERTEX
  5
292E8
  8
0
 10
514.62814132451774
 20
194.78825793566691
 30
0.0
  0
VERTEX
  5
292E9
  8
0
 10
514.63156512461114
 20
194.95363795671301
 30
0.0
  0
VERTEX
  5
292EA
  8
0
 10
514.63290424202967
 20
195.03711371822959
 30
0.0
  0
VERTEX
  5
292EB
  8
0
 10
514.63400880363974
 20
195.12109669757541
 30
0.0
  0
VERTEX
  5
292EC
  8
0
 10
514.63555606269392
 20
195.29053360376381
 30
0.0
  0
VERTEX
  5
292ED
  8
0
 10
514.63629016277332
 20
195.4618460791034
 30
0.0
  0
VERTEX
  5
292EE
  8
0
 10
514.63637808470446
 20
195.54817315835811
 30
0.0
  0
SEQEND
  5
292EF
  8
0
  0
POLYLINE
  5
20ED1
  8
0
 66
     1
 10
0.0
 20
0.0
 30
0.0
  0
VERTEX
  5
292F0
  8
0
 10
511.26785714381811
 20
187.2630697375821
 30
0.0
  0
VERTEX
  5
292F1
  8
0
 10
511.40192459486258
 20
187.38402928283361
 30
0.0
  0
VERTEX
  5
292F2
  8
0
 10
511.6633987243236
 20
187.63311123850141
 30
0.0
  0
VERTEX
  5
292F3
  8
0
 10
511.91570887815118
 20
187.8914716985027
 30
0.0
  0
VERTEX
  5
292F4
  8
0
 10
512.03832416083344
 20
188.02402653798339
 30
0.0
  0
VERTEX
  5
292F5
  8
0
 10
512.15852601730865
 20
188.1587737335644
 30
0.0
  0
VERTEX
  5
292F6
  8
0
 10
512.39153348265097
 20
188.4346687536563
 30
0.0
  0
VERTEX
  5
292F7
  8
0
 10
512.61442740788232
 20
188.71879696258969
 30
0.0
  0
VERTEX
  5
292F8
  8
0
 10
512.82691711582868
 20
189.0107878272301
 30
0.0
  0
VERTEX
  5
292F9
  8
0
 10
513.02872549751226
 20
189.31026056071181
 30
0.0
  0
VERTEX
  5
292FA
  8
0
 10
513.21958937353099
 20
189.61682461902231
 30
0.0
  0
VERTEX
  5
292FB
  8
0
 10
513.31083877206345
 20
189.77264130710321
 30
0.0
  0
VERTEX
  5
292FC
  8
0
 10
513.39925983727119
 20
189.9300802103148
 30
0.0
  0
VERTEX
  5
292FD
  8
0
 10
513.56750257950932
 20
190.24961881627809
 30
0.0
  0
VERTEX
  5
292FE
  8
0
 10
513.7240981939749
 20
190.57502372488719
 30
0.0
  0
VERTEX
  5
292FF
  8
0
 10
513.86884246347984
 20
190.90587057384019
 30
0.0
  0
VERTEX
  5
29300
  8
0
 10
514.00154662623925
 20
191.24172790397191
 30
0.0
  0
VERTEX
  5
29301
  8
0
 10
514.12203762203637
 20
191.58215772192031
 30
0.0
  0
VERTEX
  5
29302
  8
0
 10
514.17765345036946
 20
191.7539487946101
 30
0.0
  0
VERTEX
  5
29303
  8
0
 10
514.23015831791213
 20
191.92671607131891
 30
0.0
  0
VERTEX
  5
29304
  8
0
 10
514.32576771308175
 20
192.27495361175889
 30
0.0
  0
VERTEX
  5
29305
  8
0
 10
514.40874112281563
 20
192.62641620478141
 30
0.0
  0
VERTEX
  5
29306
  8
0
 10
514.44545487104267
 20
192.80321381140581
 30
0.0
  0
SEQEND
  5
29307
  8
0
  0
POLYLINE
  5
20ED4
  8
0
 66
     1
 10
0.0
 20
0.0
 30
0.0
  0
VERTEX
  5
29308
  8
0
 10
509.63637808470452
 20
185.84852554718421
 30
0.0
  0
VERTEX
  5
29309
  8
0
 10
509.91734743302038
 20
186.0865343654163
 30
0.0
  0
VERTEX
  5
2930A
  8
0
 10
510.47042074892028
 20
186.56277011745081
 30
0.0
  0
VERTEX
  5
2930B
  8
0
 10
511.00722651200442
 20
187.0327475722124
 30
0.0
  0
VERTEX
  5
2930C
  8
0
 10
511.26785714381811
 20
187.2630697375821
 30
0.0
  0
SEQEND
  5
2930D
  8
0
  0
POLYLINE
  5
20ED8
  8
0
 66
     1
 10
0.0
 20
0.0
 30
0.0
  0
VERTEX
  5
2930E
  8
0
 10
496.75643228284861
 20
170.74368873142021
 30
0.0
  0
VERTEX
  5
2930F
  8
0
 10
496.7629429611975
 20
170.7438203750871
 30
0.0
  0
VERTEX
  5
29310
  8
0
 10
496.776500705714
 20
170.74487516624589
 30
0.0
  0
VERTEX
  5
29311
  8
0
 10
496.7907751767238
 20
170.7469887003999
 30
0.0
  0
VERTEX
  5
29312
  8
0
 10
496.79818165837639
 20
170.7484436618156
 30
0.0
  0
SEQEND
  5
29313
  8
0
  0
POLYLINE
  5
20EDA
  8
0
 66
     1
 10
0.0
 20
0.0
 30
0.0
  0
VERTEX
  5
29314
  8
0
 10
498.61281238546559
 20
172.49169888723819
 30
0.0
  0
VERTEX
  5
29315
  8
0
 10
498.7180779764488
 20
172.62140030028419
 30
0.0
  0
VERTEX
  5
29316
  8
0
 10
498.93136002333063
 20
172.89062147628141
 30
0.0
  0
VERTEX
  5
29317
  8
0
 10
499.14693498874709
 20
173.17164610834101
 30
0.0
  0
VERTEX
  5
29318
  8
0
 10
499.2550529031036
 20
173.3160757498099
 30
0.0
  0
SEQEND
  5
29319
  8
0
  0
POLYLINE
  5
20EDC
  8
0
 66
     1
 10
0.0
 20
0.0
 30
0.0
  0
VERTEX
  5
2931A
  8
0
 10
499.25507078643739
 20
173.3160998372332
 30
0.0
  0
VERTEX
  5
2931B
  8
0
 10
499.27568921338769
 20
173.34391530340639
 30
0.0
  0
VERTEX
  5
2931C
  8
0
 10
499.31691275166662
 20
173.39979413417359
 30
0.0
  0
VERTEX
  5
2931D
  8
0
 10
499.35810850357552
 20
173.45599330151339
 30
0.0
  0
VERTEX
  5
2931E
  8
0
 10
499.37869219550657
 20
173.48420915989249
 30
0.0
  0
SEQEND
  5
2931F
  8
0
  0
LINE
  5
20EDE
  8
0
 10
494.63637808470452
 20
170.74368873142021
 30
0.0
 11
496.75643228284861
 21
170.74368873142021
 31
0.0
  0
POLYLINE
  5
20EDF
  8
0
 66
     1
 10
0.0
 20
0.0
 30
0.0
  0
VERTEX
  5
29320
  8
0
 10
494.74262251357999
 20
170.74368873142021
 30
0.0
  0
VERTEX
  5
29321
  8
0
 10
494.7778101665603
 20
170.74803977270861
 30
0.0
  0
VERTEX
  5
29322
  8
0
 10
494.8640286276576
 20
170.7832030859422
 30
0.0
  0
VERTEX
  5
29323
  8
0
 10
494.97134140074422
 20
170.85413574496391
 30
0.0
  0
VERTEX
  5
29324
  8
0
 10
495.03278734740439
 20
170.90306659553329
 30
0.0
  0
VERTEX
  5
29325
  8
0
 10
495.09930797607473
 20
170.96093646929461
 30
0.0
  0
VERTEX
  5
29326
  8
0
 10
495.24706897512073
 20
171.10320947355689
 30
0.0
  0
VERTEX
  5
29327
  8
0
 10
495.41334637018508
 20
171.2800893107983
 30
0.0
  0
VERTEX
  5
29328
  8
0
 10
495.59645575191871
 20
171.49025481269331
 30
0.0
  0
VERTEX
  5
29329
  8
0
 10
495.79444423790648
 20
171.7320861582825
 30
0.0
  0
VERTEX
  5
2932A
  8
0
 10
496.00516131715909
 20
172.0037659982072
 30
0.0
  0
VERTEX
  5
2932B
  8
0
 10
496.11450628576938
 20
172.15009588205339
 30
0.0
  0
VERTEX
  5
2932C
  8
0
 10
496.2260572011773
 20
172.30300155498301
 30
0.0
  0
VERTEX
  5
2932D
  8
0
 10
496.45435306470671
 20
172.627182603378
 30
0.0
  0
VERTEX
  5
2932E
  8
0
 10
496.68710907001559
 20
172.97342152683041
 30
0.0
  0
VERTEX
  5
2932F
  8
0
 10
496.9212417179574
 20
173.33850403929091
 30
0.0
  0
VERTEX
  5
29330
  8
0
 10
497.15366918519533
 20
173.7190191064951
 30
0.0
  0
VERTEX
  5
29331
  8
0
 10
497.38761388105081
 20
174.12241473253511
 30
0.0
  0
VERTEX
  5
29332
  8
0
 10
497.50567038445791
 20
174.33470868139011
 30
0.0
  0
VERTEX
  5
29333
  8
0
 10
497.62387546994722
 20
174.55380866159379
 30
0.0
  0
VERTEX
  5
29334
  8
0
 10
497.85892344387548
 20
175.01157288388779
 30
0.0
  0
VERTEX
  5
29335
  8
0
 10
498.08904058497762
 20
175.49390983612781
 30
0.0
  0
VERTEX
  5
29336
  8
0
 10
498.2010500310621
 20
175.74368873142021
 30
0.0
  0
SEQEND
  5
29337
  8
0
  0
POLYLINE
  5
20EE0
  8
0
 66
     1
 10
0.0
 20
0.0
 30
0.0
  0
VERTEX
  5
29338
  8
0
 10
500.81412707341548
 20
175.74368873142021
 30
0.0
  0
VERTEX
  5
29339
  8
0
 10
500.67836962240523
 20
175.4971523471954
 30
0.0
  0
VERTEX
  5
2933A
  8
0
 10
500.40115567974851
 20
175.0207818056324
 30
0.0
  0
VERTEX
  5
2933B
  8
0
 10
500.1200260942872
 20
174.56810037685449
 30
0.0
  0
VERTEX
  5
2933C
  8
0
 10
499.97931294571839
 20
174.3511597173065
 30
0.0
  0
VERTEX
  5
2933D
  8
0
 10
499.83917142204041
 20
174.14075321069001
 30
0.0
  0
VERTEX
  5
2933E
  8
0
 10
499.5624974138276
 20
173.74029537833749
 30
0.0
  0
VERTEX
  5
2933F
  8
0
 10
499.2893177665203
 20
173.36234955452301
 30
0.0
  0
VERTEX
  5
29340
  8
0
 10
499.01505361313582
 20
172.9986447265232
 30
0.0
  0
VERTEX
  5
29341
  8
0
 10
498.74310663593178
 20
172.65254667885799
 30
0.0
  0
VERTEX
  5
29342
  8
0
 10
498.4769608489807
 20
172.3274085168745
 30
0.0
  0
VERTEX
  5
29343
  8
0
 10
498.34710157580349
 20
172.1736636333921
 30
0.0
  0
VERTEX
  5
29344
  8
0
 10
498.21991547457708
 20
172.0262841226922
 30
0.0
  0
VERTEX
  5
29345
  8
0
 10
497.97507560805661
 20
171.75197332820011
 30
0.0
  0
VERTEX
  5
29346
  8
0
 10
497.74528744826381
 20
171.5069825723281
 30
0.0
  0
VERTEX
  5
29347
  8
0
 10
497.53294645786622
 20
171.29335638401969
 30
0.0
  0
VERTEX
  5
29348
  8
0
 10
497.34023413760951
 20
171.11295162762821
 30
0.0
  0
VERTEX
  5
29349
  8
0
 10
497.16905474985128
 20
170.96734674981411
 30
0.0
  0
VERTEX
  5
2934A
  8
0
 10
497.09201454326762
 20
170.9079645645611
 30
0.0
  0
VERTEX
  5
2934B
  8
0
 10
497.07974414850821
 20
170.8989485625498
 30
0.0
  0
VERTEX
  5
2934C
  8
0
 10
497.05569691589881
 20
170.8816752438224
 30
0.0
  0
VERTEX
  5
2934D
  8
0
 10
497.0323113287638
 20
170.86541572821301
 30
0.0
  0
VERTEX
  5
2934E
  8
0
 10
497.0208679148131
 20
170.85766689665749
 30
0.0
  0
VERTEX
  5
2934F
  8
0
 10
497.0095913855273
 20
170.8501723699587
 30
0.0
  0
VERTEX
  5
29350
  8
0
 10
496.98754074636958
 20
170.83594715025311
 30
0.0
  0
VERTEX
  5
29351
  8
0
 10
496.96616272029468
 20
170.8227416615218
 30
0.0
  0
VERTEX
  5
29352
  8
0
 10
496.94546025319391
 20
170.81055709311661
 30
0.0
  0
VERTEX
  5
29353
  8
0
 10
496.92543591694482
 20
170.79939421848661
 30
0.0
  0
VERTEX
  5
29354
  8
0
 10
496.9060918995857
 20
170.78925338386989
 30
0.0
  0
VERTEX
  5
29355
  8
0
 10
496.89667558712841
 20
170.78456622051911
 30
0.0
  0
VERTEX
  5
29356
  8
0
 10
496.88742999660309
 20
170.78013449854689
 30
0.0
  0
VERTEX
  5
29357
  8
0
 10
496.86945160336609
 20
170.77203702671019
 30
0.0
  0
VERTEX
  5
29358
  8
0
 10
496.85215770874407
 20
170.7649599809906
 30
0.0
  0
VERTEX
  5
29359
  8
0
 10
496.83554888993768
 20
170.75890191769031
 30
0.0
  0
VERTEX
  5
2935A
  8
0
 10
496.81962530855128
 20
170.7538609337571
 30
0.0
  0
VERTEX
  5
2935B
  8
0
 10
496.80438670793689
 20
170.74983466555841
 30
0.0
  0
VERTEX
  5
2935C
  8
0
 10
496.79702408048882
 20
170.7482011853931
 30
0.0
  0
VERTEX
  5
2935D
  8
0
 10
496.78983241183209
 20
170.7468202894797
 30
0.0
  0
VERTEX
  5
2935E
  8
0
 10
496.7759613243141
 20
170.7448145244048
 30
0.0
  0
VERTEX
  5
2935F
  8
0
 10
496.76277193109098
 20
170.74381363610431
 30
0.0
  0
VERTEX
  5
29360
  8
0
 10
496.75643228284861
 20
170.74368873142021
 30
0.0
  0
SEQEND
  5
29361
  8
0
  0
POLYLINE
  5
20EE2
  8
0
 66
     1
 10
0.0
 20
0.0
 30
0.0
  0
VERTEX
  5
29362
  8
0
 10
498.2010500310621
 20
175.74368873142021
 30
0.0
  0
VERTEX
  5
29363
  8
0
 10
498.31879926086458
 20
176.00911638626619
 30
0.0
  0
VERTEX
  5
29364
  8
0
 10
498.55933853804328
 20
176.53313436018601
 30
0.0
  0
VERTEX
  5
29365
  8
0
 10
498.80650078405381
 20
177.0478233352278
 30
0.0
  0
VERTEX
  5
29366
  8
0
 10
498.93252796767291
 20
177.3015908080865
 30
0.0
  0
VERTEX
  5
29367
  8
0
 10
499.06016543153351
 20
177.55293224273689
 30
0.0
  0
VERTEX
  5
29368
  8
0
 10
499.3202087412057
 20
178.0482146872796
 30
0.0
  0
VERTEX
  5
29369
  8
0
 10
499.58650386224048
 20
178.5334290668352
 30
0.0
  0
VERTEX
  5
2936A
  8
0
 10
499.85892089413312
 20
179.00833869065079
 30
0.0
  0
VERTEX
  5
2936B
  8
0
 10
500.13732695007099
 20
179.4727118947003
 30
0.0
  0
VERTEX
  5
2936C
  8
0
 10
500.4215862217564
 20
179.92632215469351
 30
0.0
  0
VERTEX
  5
2936D
  8
0
 10
500.56586759084217
 20
180.1490218244694
 30
0.0
  0
VERTEX
  5
2936E
  8
0
 10
500.71156004565421
 20
180.3689481965734
 30
0.0
  0
VERTEX
  5
2936F
  8
0
 10
501.0071069706338
 20
180.8003741044576
 30
0.0
  0
VERTEX
  5
29370
  8
0
 10
501.30808282696893
 20
181.2203894259614
 30
0.0
  0
VERTEX
  5
29371
  8
0
 10
501.6143407966652
 20
181.62878927486051
 30
0.0
  0
VERTEX
  5
29372
  8
0
 10
501.92573148507881
 20
182.02537443103259
 30
0.0
  0
VERTEX
  5
29373
  8
0
 10
502.24210299379212
 20
182.4099514376407
 30
0.0
  0
VERTEX
  5
29374
  8
0
 10
502.40210842109019
 20
182.5976780287769
 30
0.0
  0
VERTEX
  5
29375
  8
0
 10
502.56330099471052
 20
182.78233269550171
 30
0.0
  0
VERTEX
  5
29376
  8
0
 10
502.88916880534521
 20
183.14233655459839
 30
0.0
  0
VERTEX
  5
29377
  8
0
 10
503.21954746524341
 20
183.4897874026905
 30
0.0
  0
VERTEX
  5
29378
  8
0
 10
503.38637808470452
 20
183.65875224088131
 30
0.0
  0
SEQEND
  5
29379
  8
0
  0
LINE
  5
20EE3
  8
0
 10
503.38637808470452
 20
183.65875224088131
 30
0.0
 11
504.91962776953977
 21
185.1920019257168
 31
0.0
  0
LINE
  5
20EE4
  8
0
 10
508.91962776953977
 20
185.1920019257168
 30
0.0
 11
504.38637808470452
 21
180.65875224088131
 31
0.0
  0
POLYLINE
  5
20EE5
  8
0
 66
     1
 10
0.0
 20
0.0
 30
0.0
  0
VERTEX
  5
2937A
  8
0
 10
504.38637808470452
 20
180.65875224088131
 30
0.0
  0
VERTEX
  5
2937B
  8
0
 10
504.27649088986408
 20
180.54782136332321
 30
0.0
  0
VERTEX
  5
2937C
  8
0
 10
504.05831158536313
 20
180.32129301873141
 30
0.0
  0
VERTEX
  5
2937D
  8
0
 10
503.84230797027459
 20
180.08859357213299
 30
0.0
  0
VERTEX
  5
2937E
  8
0
 10
503.73514024985752
 20
179.96994920662331
 30
0.0
  0
VERTEX
  5
2937F
  8
0
 10
503.62853822148759
 20
179.8497856971544
 30
0.0
  0
VERTEX
  5
29380
  8
0
 10
503.41705991423748
 20
179.60493371262319
 30
0.0
  0
VERTEX
  5
29381
  8
0
 10
503.20793000659881
 20
179.3541035652442
 30
0.0
  0
VERTEX
  5
29382
  8
0
 10
503.00120482414462
 20
179.09736281183899
 30
0.0
  0
VERTEX
  5
29383
  8
0
 10
502.79694004477659
 20
178.83478060115019
 30
0.0
  0
VERTEX
  5
29384
  8
0
 10
502.5951906837285
 20
178.5664276552165
 30
0.0
  0
VERTEX
  5
29385
  8
0
 10
502.49527629248672
 20
178.43010968268979
 30
0.0
  0
VERTEX
  5
29386
  8
0
 10
502.39601107874921
 20
178.2923762503269
 30
0.0
  0
VERTEX
  5
29387
  8
0
 10
502.19945487546772
 20
178.01270019755199
 30
0.0
  0
VERTEX
  5
29388
  8
0
 10
502.0055750129444
 20
177.72747482286599
 30
0.0
  0
VERTEX
  5
29389
  8
0
 10
501.81442370941278
 20
177.43677694685761
 30
0.0
  0
VERTEX
  5
2938A
  8
0
 10
501.62605244821611
 20
177.1406848640413
 30
0.0
  0
VERTEX
  5
2938B
  8
0
 10
501.4405119639398
 20
176.83927832176869
 30
0.0
  0
VERTEX
  5
2938C
  8
0
 10
501.34881890959991
 20
176.68660744136599
 30
0.0
  0
VERTEX
  5
2938D
  8
0
 10
501.25785222874867
 20
176.5326384987502
 30
0.0
  0
VERTEX
  5
2938E
  8
0
 10
501.0781224389263
 20
176.2208479831915
 30
0.0
  0
VERTEX
  5
2938F
  8
0
 10
500.90137100162571
 20
175.90399075054941
 30
0.0
  0
VERTEX
  5
29390
  8
0
 10
500.81412707341548
 20
175.74368873142021
 30
0.0
  0
SEQEND
  5
29391
  8
0
  0
POLYLINE
  5
20EE7
  8
0
 66
     1
 10
0.0
 20
0.0
 30
0.0
  0
VERTEX
  5
29392
  8
0
 10
504.91962776953989
 20
185.1920019257168
 30
0.0
  0
VERTEX
  5
29393
  8
0
 10
504.98300299454172
 20
185.254848303362
 30
0.0
  0
VERTEX
  5
29394
  8
0
 10
505.11211980954693
 20
185.3797345073217
 30
0.0
  0
VERTEX
  5
29395
  8
0
 10
505.24436894771441
 20
185.5035233183257
 30
0.0
  0
VERTEX
  5
29396
  8
0
 10
505.3116594213709
 20
185.56499800918479
 30
0.0
  0
VERTEX
  5
29397
  8
0
 10
505.37972243357171
 20
185.62618855056641
 30
0.0
  0
VERTEX
  5
29398
  8
0
 10
505.51815163496377
 20
185.74770425591259
 30
0.0
  0
VERTEX
  5
29399
  8
0
 10
505.65962726911101
 20
185.86804472940091
 30
0.0
  0
VERTEX
  5
2939A
  8
0
 10
505.80411940880288
 20
185.9871845146713
 30
0.0
  0
VERTEX
  5
2939B
  8
0
 10
505.95159748872919
 20
186.10509840935259
 30
0.0
  0
VERTEX
  5
2939C
  8
0
 10
506.10203031194538
 20
186.22176147039411
 30
0.0
  0
VERTEX
  5
2939D
  8
0
 10
506.1783448321508
 20
186.2796162158038
 30
0.0
  0
VERTEX
  5
2939E
  8
0
 10
506.25538605647182
 20
186.33714901934121
 30
0.0
  0
VERTEX
  5
2939F
  8
0
 10
506.41163228202521
 20
186.45123664755741
 30
0.0
  0
VERTEX
  5
293A0
  8
0
 10
506.57073593688131
 20
186.5640002213845
 30
0.0
  0
VERTEX
  5
293A1
  8
0
 10
506.7326633648662
 20
186.67541588725129
 30
0.0
  0
VERTEX
  5
293A2
  8
0
 10
506.89738031247589
 20
186.7854600767173
 30
0.0
  0
VERTEX
  5
293A3
  8
0
 10
507.06485193612201
 20
186.89410951145871
 30
0.0
  0
VERTEX
  5
293A4
  8
0
 10
507.1496097032977
 20
186.94790400187321
 30
0.0
  0
VERTEX
  5
293A5
  8
0
 10
507.235042809503
 20
187.0013412081926
 30
0.0
  0
VERTEX
  5
293A6
  8
0
 10
507.4079169310973
 20
187.10713248353929
 30
0.0
  0
VERTEX
  5
293A7
  8
0
 10
507.5834377317795
 20
187.2114609588202
 30
0.0
  0
VERTEX
  5
293A8
  8
0
 10
507.67217905562399
 20
187.2630697375821
 30
0.0
  0
SEQEND
  5
293A9
  8
0
  0
POLYLINE
  5
20EE8
  8
0
 66
     1
 10
0.0
 20
0.0
 30
0.0
  0
VERTEX
  5
293AA
  8
0
 10
511.26785714381811
 20
187.2630697375821
 30
0.0
  0
VERTEX
  5
293AB
  8
0
 10
511.00722651200488
 20
187.03274757221291
 30
0.0
  0
VERTEX
  5
293AC
  8
0
 10
510.47042074891817
 20
186.56277011744891
 30
0.0
  0
VERTEX
  5
293AD
  8
0
 10
509.91734743301879
 20
186.08653436541451
 30
0.0
  0
VERTEX
  5
293AE
  8
0
 10
509.63637808470452
 20
185.84852554718421
 30
0.0
  0
SEQEND
  5
293AF
  8
0
  0
POLYLINE
  5
20EE9
  8
0
 66
     1
 10
0.0
 20
0.0
 30
0.0
  0
VERTEX
  5
293B0
  8
0
 10
509.63637808470452
 20
185.84852554718421
 30
0.0
  0
VERTEX
  5
293B1
  8
0
 10
509.51082271996421
 20
185.74136636510141
 30
0.0
  0
VERTEX
  5
293B2
  8
0
 10
509.26696775590199
 20
185.52427956679821
 30
0.0
  0
VERTEX
  5
293B3
  8
0
 10
509.03292251706119
 20
185.3036228925539
 30
0.0
  0
VERTEX
  5
293B4
  8
0
 10
508.91962776953977
 20
185.1920019257168
 30
0.0
  0
SEQEND
  5
293B5
  8
0
  0
LINE
  5
20EEB
  8
0
 10
507.67217905562387
 20
187.2630697375821
 30
0.0
 11
508.63637808470457
 21
187.81975030657441
 31
0.0
  0
POLYLINE
  5
20EEC
  8
0
 66
     1
 10
0.0
 20
0.0
 30
0.0
  0
VERTEX
  5
293B6
  8
0
 10
508.63637808470457
 20
187.81975030657441
 30
0.0
  0
VERTEX
  5
293B7
  8
0
 10
508.78965028306942
 20
187.91053223592871
 30
0.0
  0
VERTEX
  5
293B8
  8
0
 10
509.08994163376332
 20
188.102220190221
 30
0.0
  0
VERTEX
  5
293B9
  8
0
 10
509.38140106920139
 20
188.3070873779707
 30
0.0
  0
VERTEX
  5
293BA
  8
0
 10
509.52363747897391
 20
188.41433722283719
 30
0.0
  0
VERTEX
  5
293BB
  8
0
 10
509.66345059268377
 20
188.52472752460201
 30
0.0
  0
VERTEX
  5
293BC
  8
0
 10
509.93553086841962
 20
188.75470902533149
 30
0.0
  0
VERTEX
  5
293BD
  8
0
 10
510.1971023307529
 20
188.99657580108851
 30
0.0
  0
VERTEX
  5
293BE
  8
0
 10
510.44764625418139
 20
189.2498482029709
 30
0.0
  0
VERTEX
  5
293BF
  8
0
 10
510.68666578204738
 20
189.5140239634429
 30
0.0
  0
VERTEX
  5
293C0
  8
0
 10
510.91368691186062
 20
189.78857919238769
 30
0.0
  0
VERTEX
  5
293C1
  8
0
 10
511.02255643319302
 20
189.92957973427929
 30
0.0
  0
VERTEX
  5
293C2
  8
0
 10
511.1282594352968
 20
190.07296941603909
 30
0.0
  0
VERTEX
  5
293C3
  8
0
 10
511.32995783101308
 20
190.36663065673611
 30
0.0
  0
VERTEX
  5
293C4
  8
0
 10
511.51838210850337
 20
190.6689805513524
 30
0.0
  0
VERTEX
  5
293C5
  8
0
 10
511.69315860132451
 20
190.97941950618809
 30
0.0
  0
VERTEX
  5
293C6
  8
0
 10
511.85394070811839
 20
191.2973318860308
 30
0.0
  0
VERTEX
  5
293C7
  8
0
 10
512.00040957996214
 20
191.62208723502951
 30
0.0
  0
VERTEX
  5
293C8
  8
0
 10
512.06818465780293
 20
191.78683026010961
 30
0.0
  0
VERTEX
  5
293C9
  8
0
 10
512.13227475268013
 20
191.95304152695871
 30
0.0
  0
VERTEX
  5
293CA
  8
0
 10
512.24927472286799
 20
192.2895384423955
 30
0.0
  0
VERTEX
  5
293CB
  8
0
 10
512.35117746648223
 20
192.6309106702729
 30
0.0
  0
VERTEX
  5
293CC
  8
0
 10
512.39640304602267
 20
192.80321381140581
 30
0.0
  0
SEQEND
  5
293CD
  8
0
  0
POLYLINE
  5
20EED
  8
0
 66
     1
 10
0.0
 20
0.0
 30
0.0
  0
VERTEX
  5
293CE
  8
0
 10
514.44545487104267
 20
192.80321381140581
 30
0.0
  0
VERTEX
  5
293CF
  8
0
 10
514.40874112281563
 20
192.62641620478141
 30
0.0
  0
VERTEX
  5
293D0
  8
0
 10
514.32576771308163
 20
192.27495361175889
 30
0.0
  0
VERTEX
  5
293D1
  8
0
 10
514.23015831791213
 20
191.92671607131891
 30
0.0
  0
VERTEX
  5
293D2
  8
0
 10
514.17765345036946
 20
191.7539487946101
 30
0.0
  0
VERTEX
  5
293D3
  8
0
 10
514.12203762203637
 20
191.58215772192031
 30
0.0
  0
VERTEX
  5
293D4
  8
0
 10
514.00154662623925
 20
191.24172790397191
 30
0.0
  0
VERTEX
  5
293D5
  8
0
 10
513.86884246347984
 20
190.90587057384019
 30
0.0
  0
VERTEX
  5
293D6
  8
0
 10
513.7240981939749
 20
190.57502372488719
 30
0.0
  0
VERTEX
  5
293D7
  8
0
 10
513.56750257950932
 20
190.24961881627809
 30
0.0
  0
VERTEX
  5
293D8
  8
0
 10
513.39925983727119
 20
189.9300802103152
 30
0.0
  0
VERTEX
  5
293D9
  8
0
 10
513.31083877206345
 20
189.77264130710321
 30
0.0
  0
VERTEX
  5
293DA
  8
0
 10
513.21958937353099
 20
189.61682461902231
 30
0.0
  0
VERTEX
  5
293DB
  8
0
 10
513.02872549751226
 20
189.31026056071181
 30
0.0
  0
VERTEX
  5
293DC
  8
0
 10
512.82691711582868
 20
189.0107878272301
 30
0.0
  0
VERTEX
  5
293DD
  8
0
 10
512.61442740788232
 20
188.71879696258969
 30
0.0
  0
VERTEX
  5
293DE
  8
0
 10
512.39153348265097
 20
188.4346687536563
 30
0.0
  0
VERTEX
  5
293DF
  8
0
 10
512.15852601730865
 20
188.1587737335644
 30
0.0
  0
VERTEX
  5
293E0
  8
0
 10
512.03832416083344
 20
188.02402653798339
 30
0.0
  0
VERTEX
  5
293E1
  8
0
 10
511.91570887815118
 20
187.8914716985027
 30
0.0
  0
VERTEX
  5
293E2
  8
0
 10
511.6633987243236
 20
187.63311123850141
 30
0.0
  0
VERTEX
  5
293E3
  8
0
 10
511.40192459486258
 20
187.38402928283361
 30
0.0
  0
VERTEX
  5
293E4
  8
0
 10
511.26785714381811
 20
187.2630697375821
 30
0.0
  0
SEQEND
  5
293E5
  8
0
  0
POLYLINE
  5
20EEF
  8
0
 66
     1
 10
0.0
 20
0.0
 30
0.0
  0
VERTEX
  5
293E6
  8
0
 10
512.39640304602267
 20
192.80321381140581
 30
0.0
  0
VERTEX
  5
293E7
  8
0
 10
512.4126037005766
 20
192.86965882274811
 30
0.0
  0
VERTEX
  5
293E8
  8
0
 10
512.44256484991365
 20
193.00318438778459
 30
0.0
  0
VERTEX
  5
293E9
  8
0
 10
512.46941524783051
 20
193.13713337221901
 30
0.0
  0
VERTEX
  5
293EA
  8
0
 10
512.4817572653634
 20
193.20425330093209
 30
0.0
  0
VERTEX
  5
293EB
  8
0
 10
512.4935269844899
 20
193.2721078000522
 30
0.0
  0
VERTEX
  5
293EC
  8
0
 10
512.51542202110443
 20
193.4102098569879
 30
0.0
  0
VERTEX
  5
293ED
  8
0
 10
512.53518024016535
 20
193.5514498668617
 30
0.0
  0
VERTEX
  5
293EE
  8
0
 10
512.55287356843075
 20
193.69575872436499
 30
0.0
  0
VERTEX
  5
293EF
  8
0
 10
512.56857940197972
 20
193.84306139832501
 30
0.0
  0
VERTEX
  5
293F0
  8
0
 10
512.58238017890994
 20
193.99327766109721
 30
0.0
  0
VERTEX
  5
293F1
  8
0
 10
512.58859319215185
 20
194.06945207686519
 30
0.0
  0
VERTEX
  5
293F2
  8
0
 10
512.59436288925906
 20
194.14632282291899
 30
0.0
  0
VERTEX
  5
293F3
  8
0
 10
512.60461853767117
 20
194.30210847091851
 30
0.0
  0
VERTEX
  5
293F4
  8
0
 10
512.6132415724627
 20
194.46054321356269
 30
0.0
  0
VERTEX
  5
293F5
  8
0
 10
512.6203292936998
 20
194.62153344949451
 30
0.0
  0
VERTEX
  5
293F6
  8
0
 10
512.62598127007857
 20
194.78498484175091
 30
0.0
  0
VERTEX
  5
293F7
  8
0
 10
512.63029857233141
 20
194.9507971511398
 30
0.0
  0
VERTEX
  5
293F8
  8
0
 10
512.63198861388651
 20
195.03455571035229
 30
0.0
  0
VERTEX
  5
293F9
  8
0
 10
512.63338336071661
 20
195.11886450240081
 30
0.0
  0
VERTEX
  5
293FA
  8
0
 10
512.63533845756444
 20
195.28907744047501
 30
0.0
  0
VERTEX
  5
293FB
  8
0
 10
512.63626683094435
 20
195.46132351251799
 30
0.0
  0
VERTEX
  5
293FC
  8
0
 10
512.63637808470457
 20
195.54817315835811
 30
0.0
  0
SEQEND
  5
293FD
  8
0
  0
POLYLINE
  5
20EF0
  8
0
 66
     1
 10
0.0
 20
0.0
 30
0.0
  0
VERTEX
  5
293FE
  8
0
 10
514.63637808470446
 20
195.54817315835811
 30
0.0
  0
VERTEX
  5
293FF
  8
0
 10
514.63629016277332
 20
195.4618460791034
 30
0.0
  0
VERTEX
  5
29400
  8
0
 10
514.63555606269392
 20
195.29053360376381
 30
0.0
  0
VERTEX
  5
29401
  8
0
 10
514.63400880363974
 20
195.12109669757541
 30
0.0
  0
VERTEX
  5
29402
  8
0
 10
514.63290424202967
 20
195.03711371822959
 30
0.0
  0
VERTEX
  5
29403
  8
0
 10
514.63156512461114
 20
194.95363795671301
 30
0.0
  0
VERTEX
  5
29404
  8
0
 10
514.62814132451774
 20
194.78825793566691
 30
0.0
  0
VERTEX
  5
29405
  8
0
 10
514.62365363733829
 20
194.6250546634883
 30
0.0
  0
VERTEX
  5
29406
  8
0
 10
514.61801860327148
 20
194.46412317331169
 30
0.0
  0
VERTEX
  5
29407
  8
0
 10
514.61115343061294
 20
194.3055550423241
 30
0.0
  0
VERTEX
  5
29408
  8
0
 10
514.60297630482705
 20
194.14943728061101
 30
0.0
  0
VERTEX
  5
29409
  8
0
 10
514.59837049173154
 20
194.072322473301
 30
0.0
  0
VERTEX
  5
2940A
  8
0
 10
514.59340658454562
 20
193.99585047878011
 30
0.0
  0
VERTEX
  5
2940B
  8
0
 10
514.58236549063781
 20
193.8448748990977
 30
0.0
  0
VERTEX
  5
2940C
  8
0
 10
514.56977653670469
 20
193.69658920147231
 30
0.0
  0
VERTEX
  5
2940D
  8
0
 10
514.55556595287931
 20
193.55106955875181
 30
0.0
  0
VERTEX
  5
2940E
  8
0
 10
514.53966310721239
 20
193.40838904400789
 30
0.0
  0
VERTEX
  5
2940F
  8
0
 10
514.52200090459974
 20
193.2686170308329
 30
0.0
  0
VERTEX
  5
29410
  8
0
 10
514.51249013564836
 20
193.1998422354477
 30
0.0
  0
VERTEX
  5
29411
  8
0
 10
514.50251615467937
 20
193.13181860711481
 30
0.0
  0
VERTEX
  5
29412
  8
0
 10
514.48114989919463
 20
192.9980540033489
 30
0.0
  0
VERTEX
  5
29413
  8
0
 10
514.45784768836097
 20
192.8673780372755
 30
0.0
  0
VERTEX
  5
29414
  8
0
 10
514.44545487104267
 20
192.80321381140581
 30
0.0
  0
SEQEND
  5
29415
  8
0
  0
LINE
  5
20EF6
  8
0
 10
514.63637808470446
 20
246.74368873142021
 30
0.0
 11
514.63637808470446
 21
195.54817315835811
 31
0.0
  0
POLYLINE
  5
20EF7
  8
0
 66
     1
 10
0.0
 20
0.0
 30
0.0
  0
VERTEX
  5
29416
  8
0
 10
429.63637808470457
 20
195.54817315835811
 30
0.0
  0
VERTEX
  5
29417
  8
0
 10
429.63646600663571
 20
195.4618460791034
 30
0.0
  0
VERTEX
  5
29418
  8
0
 10
429.63720010671523
 20
195.29053360376381
 30
0.0
  0
VERTEX
  5
29419
  8
0
 10
429.63874736576918
 20
195.12109669757541
 30
0.0
  0
VERTEX
  5
2941A
  8
0
 10
429.63985192737948
 20
195.03711371822959
 30
0.0
  0
VERTEX
  5
2941B
  8
0
 10
429.64119104479801
 20
194.95363795671301
 30
0.0
  0
VERTEX
  5
2941C
  8
0
 10
429.64461484489141
 20
194.78825793566691
 30
0.0
  0
VERTEX
  5
2941D
  8
0
 10
429.6491025320708
 20
194.6250546634883
 30
0.0
  0
VERTEX
  5
2941E
  8
0
 10
429.6547375661375
 20
194.46412317331169
 30
0.0
  0
VERTEX
  5
2941F
  8
0
 10
429.66160273879609
 20
194.3055550423241
 30
0.0
  0
VERTEX
  5
29420
  8
0
 10
429.6697798645821
 20
194.14943728061101
 30
0.0
  0
VERTEX
  5
29421
  8
0
 10
429.67438567767749
 20
194.072322473301
 30
0.0
  0
VERTEX
  5
29422
  8
0
 10
429.67934958486347
 20
193.99585047878011
 30
0.0
  0
VERTEX
  5
29423
  8
0
 10
429.69039067877128
 20
193.8448748990977
 30
0.0
  0
VERTEX
  5
29424
  8
0
 10
429.7029796327044
 20
193.69658920147231
 30
0.0
  0
VERTEX
  5
29425
  8
0
 10
429.71719021652967
 20
193.55106955875181
 30
0.0
  0
VERTEX
  5
29426
  8
0
 10
429.73309306219682
 20
193.40838904400789
 30
0.0
  0
VERTEX
  5
29427
  8
0
 10
429.75075526480941
 20
193.2686170308329
 30
0.0
  0
VERTEX
  5
29428
  8
0
 10
429.76026603376062
 20
193.1998422354477
 30
0.0
  0
VERTEX
  5
29429
  8
0
 10
429.77024001472978
 20
193.13181860711481
 30
0.0
  0
VERTEX
  5
2942A
  8
0
 10
429.7916062702144
 20
192.9980540033489
 30
0.0
  0
VERTEX
  5
2942B
  8
0
 10
429.81490848104812
 20
192.8673780372755
 30
0.0
  0
VERTEX
  5
2942C
  8
0
 10
429.82730129836631
 20
192.80321381140581
 30
0.0
  0
SEQEND
  5
2942D
  8
0
  0
POLYLINE
  5
20EFA
  8
0
 66
     1
 10
0.0
 20
0.0
 30
0.0
  0
VERTEX
  5
2942E
  8
0
 10
429.82730129836631
 20
192.80321381140581
 30
0.0
  0
VERTEX
  5
2942F
  8
0
 10
429.86401504659341
 20
192.62641620478141
 30
0.0
  0
VERTEX
  5
29430
  8
0
 10
429.9469884563274
 20
192.27495361175889
 30
0.0
  0
VERTEX
  5
29431
  8
0
 10
430.04259785149702
 20
191.92671607131891
 30
0.0
  0
VERTEX
  5
29432
  8
0
 10
430.09510271903957
 20
191.7539487946101
 30
0.0
  0
VERTEX
  5
29433
  8
0
 10
430.15071854737272
 20
191.58215772192031
 30
0.0
  0
VERTEX
  5
29434
  8
0
 10
430.2712095431699
 20
191.24172790397191
 30
0.0
  0
VERTEX
  5
29435
  8
0
 10
430.40391370592931
 20
190.90587057384019
 30
0.0
  0
VERTEX
  5
29436
  8
0
 10
430.54865797543431
 20
190.57502372488719
 30
0.0
  0
VERTEX
  5
29437
  8
0
 10
430.70525358989983
 20
190.24961881627809
 30
0.0
  0
VERTEX
  5
29438
  8
0
 10
430.8734963321379
 20
189.9300802103148
 30
0.0
  0
VERTEX
  5
29439
  8
0
 10
430.96191739734559
 20
189.77264130710321
 30
0.0
  0
VERTEX
  5
2943A
  8
0
 10
431.0531667958781
 20
189.61682461902231
 30
0.0
  0
VERTEX
  5
2943B
  8
0
 10
431.24403067189678
 20
189.31026056071181
 30
0.0
  0
VERTEX
  5
2943C
  8
0
 10
431.44583905358041
 20
189.0107878272301
 30
0.0
  0
VERTEX
  5
2943D
  8
0
 10
431.65832876152677
 20
188.71879696258969
 30
0.0
  0
VERTEX
  5
2943E
  8
0
 10
431.88122268675812
 20
188.4346687536563
 30
0.0
  0
VERTEX
  5
2943F
  8
0
 10
432.1142301521005
 20
188.1587737335644
 30
0.0
  0
VERTEX
  5
29440
  8
0
 10
432.2344320085756
 20
188.02402653798339
 30
0.0
  0
VERTEX
  5
29441
  8
0
 10
432.35704729125791
 20
187.8914716985027
 30
0.0
  0
VERTEX
  5
29442
  8
0
 10
432.60935744508549
 20
187.63311123850141
 30
0.0
  0
VERTEX
  5
29443
  8
0
 10
432.87083157454651
 20
187.38402928283361
 30
0.0
  0
VERTEX
  5
29444
  8
0
 10
433.00489902559099
 20
187.2630697375821
 30
0.0
  0
SEQEND
  5
29445
  8
0
  0
POLYLINE
  5
20EFB
  8
0
 66
     1
 10
0.0
 20
0.0
 30
0.0
  0
VERTEX
  5
29446
  8
0
 10
433.00489902559099
 20
187.2630697375821
 30
0.0
  0
VERTEX
  5
29447
  8
0
 10
433.26552965740422
 20
187.03274757221291
 30
0.0
  0
VERTEX
  5
29448
  8
0
 10
433.80233542049092
 20
186.56277011744891
 30
0.0
  0
VERTEX
  5
29449
  8
0
 10
434.35540873639019
 20
186.08653436541499
 30
0.0
  0
VERTEX
  5
2944A
  8
0
 10
434.63637808470452
 20
185.84852554718421
 30
0.0
  0
SEQEND
  5
2944B
  8
0
  0
POLYLINE
  5
20F01
  8
0
 66
     1
 10
0.0
 20
0.0
 30
0.0
  0
VERTEX
  5
2944C
  8
0
 10
444.89406397390252
 20
173.48420915989249
 30
0.0
  0
VERTEX
  5
2944D
  8
0
 10
444.91464843407317
 20
173.45599225011529
 30
0.0
  0
VERTEX
  5
2944E
  8
0
 10
444.95584572435348
 20
173.39979099756371
 30
0.0
  0
VERTEX
  5
2944F
  8
0
 10
444.99707080240341
 20
173.3439101061781
 30
0.0
  0
VERTEX
  5
29450
  8
0
 10
445.01768999934319
 20
173.31609361934261
 30
0.0
  0
SEQEND
  5
29451
  8
0
  0
POLYLINE
  5
20F03
  8
0
 66
     1
 10
0.0
 20
0.0
 30
0.0
  0
VERTEX
  5
29452
  8
0
 10
445.01770281987763
 20
173.3160763511118
 30
0.0
  0
VERTEX
  5
29453
  8
0
 10
445.12582080869731
 20
173.17164660115569
 30
0.0
  0
VERTEX
  5
29454
  8
0
 10
445.34139592419899
 20
172.89062176086779
 30
0.0
  0
VERTEX
  5
29455
  8
0
 10
445.55467811975052
 20
172.6214003912155
 30
0.0
  0
VERTEX
  5
29456
  8
0
 10
445.65994378345891
 20
172.4916988878303
 30
0.0
  0
SEQEND
  5
29457
  8
0
  0
POLYLINE
  5
20F05
  8
0
 66
     1
 10
0.0
 20
0.0
 30
0.0
  0
VERTEX
  5
29458
  8
0
 10
446.18660458621127
 20
171.8748308917811
 30
0.0
  0
VERTEX
  5
29459
  8
0
 10
446.21617100843218
 20
171.84186403033121
 30
0.0
  0
VERTEX
  5
2945A
  8
0
 10
446.27466886510632
 20
171.7772011474508
 30
0.0
  0
VERTEX
  5
2945B
  8
0
 10
446.33228782959668
 20
171.71426053741101
 30
0.0
  0
VERTEX
  5
2945C
  8
0
 10
446.36075590662858
 20
171.68344624037169
 30
0.0
  0
VERTEX
  5
2945D
  8
0
 10
446.38899022542819
 20
171.65307454674851
 30
0.0
  0
VERTEX
  5
2945E
  8
0
 10
446.44473959125861
 20
171.59367429634449
 30
0.0
  0
VERTEX
  5
2945F
  8
0
 10
446.49950269684319
 20
171.53608759765029
 30
0.0
  0
VERTEX
  5
29460
  8
0
 10
446.55325510552677
 20
171.4803333885925
 30
0.0
  0
VERTEX
  5
29461
  8
0
 10
446.60596414598558
 20
171.42643960873551
 30
0.0
  0
VERTEX
  5
29462
  8
0
 10
446.65759665433382
 20
171.37443479174269
 30
0.0
  0
VERTEX
  5
29463
  8
0
 10
446.68299912428381
 20
171.3491493839947
 30
0.0
  0
VERTEX
  5
29464
  8
0
 10
446.70812049578342
 20
171.32434644827021
 30
0.0
  0
VERTEX
  5
29465
  8
0
 10
446.75750465033468
 20
171.27620097091631
 30
0.0
  0
VERTEX
  5
29466
  8
0
 10
446.80571929550831
 20
171.23002354434581
 30
0.0
  0
VERTEX
  5
29467
  8
0
 10
446.85273588566088
 20
171.1858380611657
 30
0.0
  0
VERTEX
  5
29468
  8
0
 10
446.89852722738379
 20
171.14366704420721
 30
0.0
  0
VERTEX
  5
29469
  8
0
 10
446.94306755044153
 20
171.10353157594679
 30
0.0
  0
VERTEX
  5
2946A
  8
0
 10
446.96486093225002
 20
171.0842333514147
 30
0.0
  0
VERTEX
  5
2946B
  8
0
 10
446.98633257366248
 20
171.0654512358733
 30
0.0
  0
VERTEX
  5
2946C
  8
0
 10
447.02829956515581
 20
171.02944404667781
 30
0.0
  0
VERTEX
  5
2946D
  8
0
 10
447.06894739618627
 20
170.99552643022389
 30
0.0
  0
VERTEX
  5
2946E
  8
0
 10
447.0887704738434
 20
170.9793558974597
 30
0.0
  0
SEQEND
  5
2946F
  8
0
  0
POLYLINE
  5
20F07
  8
0
 66
     1
 10
0.0
 20
0.0
 30
0.0
  0
VERTEX
  5
29470
  8
0
 10
447.21649972193978
 20
170.88207095731559
 30
0.0
  0
VERTEX
  5
29471
  8
0
 10
447.27930744990499
 20
170.83970059451619
 30
0.0
  0
VERTEX
  5
29472
  8
0
 10
447.3896236097616
 20
170.77813472590239
 30
0.0
  0
VERTEX
  5
29473
  8
0
 10
447.4792694029432
 20
170.7474945419103
 30
0.0
  0
VERTEX
  5
29474
  8
0
 10
447.51632388656031
 20
170.74368873142021
 30
0.0
  0
SEQEND
  5
29475
  8
0
  0
LINE
  5
20F09
  8
0
 10
447.51632388656031
 20
170.74368873142021
 30
0.0
 11
449.63637808470457
 21
170.74368873142021
 31
0.0
  0
POLYLINE
  5
20F0A
  8
0
 66
     1
 10
0.0
 20
0.0
 30
0.0
  0
VERTEX
  5
29476
  8
0
 10
447.51632388656031
 20
170.74368873142021
 30
0.0
  0
VERTEX
  5
29477
  8
0
 10
447.509984238318
 20
170.74381363610431
 30
0.0
  0
VERTEX
  5
29478
  8
0
 10
447.496794845095
 20
170.7448145244048
 30
0.0
  0
VERTEX
  5
29479
  8
0
 10
447.482923757577
 20
170.7468202894797
 30
0.0
  0
VERTEX
  5
2947A
  8
0
 10
447.47573208892032
 20
170.7482011853931
 30
0.0
  0
VERTEX
  5
2947B
  8
0
 10
447.46836946147209
 20
170.74983466555841
 30
0.0
  0
VERTEX
  5
2947C
  8
0
 10
447.45313086085781
 20
170.7538609337571
 30
0.0
  0
VERTEX
  5
2947D
  8
0
 10
447.43720727947141
 20
170.75890191769031
 30
0.0
  0
VERTEX
  5
2947E
  8
0
 10
447.42059846066491
 20
170.7649599809906
 30
0.0
  0
VERTEX
  5
2947F
  8
0
 10
447.403304566043
 20
170.77203702671019
 30
0.0
  0
VERTEX
  5
29480
  8
0
 10
447.38532617280589
 20
170.78013449854689
 30
0.0
  0
VERTEX
  5
29481
  8
0
 10
447.37608058228068
 20
170.78456622051911
 30
0.0
  0
VERTEX
  5
29482
  8
0
 10
447.36666426982322
 20
170.78925338386989
 30
0.0
  0
VERTEX
  5
29483
  8
0
 10
447.34732025246433
 20
170.79939421848661
 30
0.0
  0
VERTEX
  5
29484
  8
0
 10
447.32729591621518
 20
170.81055709311661
 30
0.0
  0
VERTEX
  5
29485
  8
0
 10
447.3065934491143
 20
170.8227416615218
 30
0.0
  0
VERTEX
  5
29486
  8
0
 10
447.2852154230394
 20
170.83594715025311
 30
0.0
  0
VERTEX
  5
29487
  8
0
 10
447.26316478388168
 20
170.8501723699587
 30
0.0
  0
VERTEX
  5
29488
  8
0
 10
447.25188825459588
 20
170.85766689665749
 30
0.0
  0
VERTEX
  5
29489
  8
0
 10
447.2404448406453
 20
170.86541572821301
 30
0.0
  0
VERTEX
  5
2948A
  8
0
 10
447.21705925351017
 20
170.8816752438224
 30
0.0
  0
VERTEX
  5
2948B
  8
0
 10
447.19301202090082
 20
170.8989485625498
 30
0.0
  0
VERTEX
  5
2948C
  8
0
 10
447.18074162614153
 20
170.9079645645611
 30
0.0
  0
VERTEX
  5
2948D
  8
0
 10
447.10370141955769
 20
170.96734674981411
 30
0.0
  0
VERTEX
  5
2948E
  8
0
 10
446.93252203179958
 20
171.11295162762821
 30
0.0
  0
VERTEX
  5
2948F
  8
0
 10
446.7398097115427
 20
171.29335638401969
 30
0.0
  0
VERTEX
  5
29490
  8
0
 10
446.52746872114528
 20
171.5069825723281
 30
0.0
  0
VERTEX
  5
29491
  8
0
 10
446.29768056135248
 20
171.75197332820011
 30
0.0
  0
VERTEX
  5
29492
  8
0
 10
446.05284069483201
 20
172.0262841226922
 30
0.0
  0
VERTEX
  5
29493
  8
0
 10
445.9256545936056
 20
172.1736636333921
 30
0.0
  0
VERTEX
  5
29494
  8
0
 10
445.79579532042828
 20
172.3274085168745
 30
0.0
  0
VERTEX
  5
29495
  8
0
 10
445.5296495334772
 20
172.65254667885799
 30
0.0
  0
VERTEX
  5
29496
  8
0
 10
445.25770255627327
 20
172.9986447265232
 30
0.0
  0
VERTEX
  5
29497
  8
0
 10
444.98343840288868
 20
173.36234955452301
 30
0.0
  0
VERTEX
  5
29498
  8
0
 10
444.71025875558138
 20
173.74029537833749
 30
0.0
  0
VERTEX
  5
29499
  8
0
 10
444.43358474736863
 20
174.14075321069001
 30
0.0
  0
VERTEX
  5
2949A
  8
0
 10
444.2934432236907
 20
174.3511597173065
 30
0.0
  0
VERTEX
  5
2949B
  8
0
 10
444.15273007512189
 20
174.56810037685449
 30
0.0
  0
VERTEX
  5
2949C
  8
0
 10
443.87160048966058
 20
175.0207818056324
 30
0.0
  0
VERTEX
  5
2949D
  8
0
 10
443.59438654700392
 20
175.4971523471954
 30
0.0
  0
VERTEX
  5
2949E
  8
0
 10
443.4586290959935
 20
175.74368873142021
 30
0.0
  0
SEQEND
  5
2949F
  8
0
  0
POLYLINE
  5
20F0B
  8
0
 66
     1
 10
0.0
 20
0.0
 30
0.0
  0
VERTEX
  5
294A0
  8
0
 10
446.071706138347
 20
175.74368873142021
 30
0.0
  0
VERTEX
  5
294A1
  8
0
 10
446.18371558443158
 20
175.49390983612781
 30
0.0
  0
VERTEX
  5
294A2
  8
0
 10
446.4138327255335
 20
175.01157288388779
 30
0.0
  0
VERTEX
  5
294A3
  8
0
 10
446.64888069946193
 20
174.55380866159379
 30
0.0
  0
VERTEX
  5
294A4
  8
0
 10
446.76708578495118
 20
174.33470868139011
 30
0.0
  0
VERTEX
  5
294A5
  8
0
 10
446.88514228835828
 20
174.12241473253511
 30
0.0
  0
VERTEX
  5
294A6
  8
0
 10
447.11908698421388
 20
173.7190191064951
 30
0.0
  0
VERTEX
  5
294A7
  8
0
 10
447.35151445145169
 20
173.33850403929091
 30
0.0
  0
VERTEX
  5
294A8
  8
0
 10
447.58564709939338
 20
172.97342152683041
 30
0.0
  0
VERTEX
  5
294A9
  8
0
 10
447.81840310470238
 20
172.627182603378
 30
0.0
  0
VERTEX
  5
294AA
  8
0
 10
448.04669896823179
 20
172.30300155498301
 30
0.0
  0
VERTEX
  5
294AB
  8
0
 10
448.15824988363971
 20
172.15009588205339
 30
0.0
  0
VERTEX
  5
294AC
  8
0
 10
448.26759485225
 20
172.0037659982072
 30
0.0
  0
VERTEX
  5
294AD
  8
0
 10
448.47831193150262
 20
171.7320861582825
 30
0.0
  0
VERTEX
  5
294AE
  8
0
 10
448.67630041749049
 20
171.49025481269331
 30
0.0
  0
VERTEX
  5
294AF
  8
0
 10
448.85940979922401
 20
171.2800893107983
 30
0.0
  0
VERTEX
  5
294B0
  8
0
 10
449.02568719428842
 20
171.10320947355689
 30
0.0
  0
VERTEX
  5
294B1
  8
0
 10
449.17344819333442
 20
170.96093646929461
 30
0.0
  0
VERTEX
  5
294B2
  8
0
 10
449.23996882200458
 20
170.90306659553329
 30
0.0
  0
VERTEX
  5
294B3
  8
0
 10
449.30141476866493
 20
170.85413574496391
 30
0.0
  0
VERTEX
  5
294B4
  8
0
 10
449.40872754175149
 20
170.7832030859422
 30
0.0
  0
VERTEX
  5
294B5
  8
0
 10
449.49494600284879
 20
170.74803977270861
 30
0.0
  0
VERTEX
  5
294B6
  8
0
 10
449.5301336558291
 20
170.74368873142021
 30
0.0
  0
SEQEND
  5
294B7
  8
0
  0
POLYLINE
  5
20F0C
  8
0
 66
     1
 10
0.0
 20
0.0
 30
0.0
  0
VERTEX
  5
294B8
  8
0
 10
440.88637808470452
 20
183.65875224088131
 30
0.0
  0
VERTEX
  5
294B9
  8
0
 10
441.05320870416568
 20
183.4897874026905
 30
0.0
  0
VERTEX
  5
294BA
  8
0
 10
441.38358736406389
 20
183.14233655459839
 30
0.0
  0
VERTEX
  5
294BB
  8
0
 10
441.70945517469858
 20
182.78233269550171
 30
0.0
  0
VERTEX
  5
294BC
  8
0
 10
441.8706477483189
 20
182.5976780287769
 30
0.0
  0
VERTEX
  5
294BD
  8
0
 10
442.03065317561698
 20
182.4099514376407
 30
0.0
  0
VERTEX
  5
294BE
  8
0
 10
442.34702468433028
 20
182.02537443103259
 30
0.0
  0
VERTEX
  5
294BF
  8
0
 10
442.65841537274389
 20
181.62878927486051
 30
0.0
  0
VERTEX
  5
294C0
  8
0
 10
442.96467334244022
 20
181.2203894259614
 30
0.0
  0
VERTEX
  5
294C1
  8
0
 10
443.26564919877529
 20
180.8003741044576
 30
0.0
  0
VERTEX
  5
294C2
  8
0
 10
443.56119612375471
 20
180.3689481965734
 30
0.0
  0
VERTEX
  5
294C3
  8
0
 10
443.70688857856692
 20
180.1490218244694
 30
0.0
  0
VERTEX
  5
294C4
  8
0
 10
443.85116994765269
 20
179.92632215469351
 30
0.0
  0
VERTEX
  5
294C5
  8
0
 10
444.13542921933799
 20
179.4727118947003
 30
0.0
  0
VERTEX
  5
294C6
  8
0
 10
444.41383527527603
 20
179.00833869065079
 30
0.0
  0
VERTEX
  5
294C7
  8
0
 10
444.68625230716862
 20
178.5334290668352
 30
0.0
  0
VERTEX
  5
294C8
  8
0
 10
444.95254742820327
 20
178.0482146872796
 30
0.0
  0
VERTEX
  5
294C9
  8
0
 10
445.21259073787547
 20
177.55293224273689
 30
0.0
  0
VERTEX
  5
294CA
  8
0
 10
445.34022820173612
 20
177.30159080808701
 30
0.0
  0
VERTEX
  5
294CB
  8
0
 10
445.46625538535528
 20
177.0478233352278
 30
0.0
  0
VERTEX
  5
294CC
  8
0
 10
445.71341763136581
 20
176.53313436018601
 30
0.0
  0
VERTEX
  5
294CD
  8
0
 10
445.9539569085444
 20
176.00911638626619
 30
0.0
  0
VERTEX
  5
294CE
  8
0
 10
446.071706138347
 20
175.74368873142021
 30
0.0
  0
SEQEND
  5
294CF
  8
0
  0
POLYLINE
  5
20F0E
  8
0
 66
     1
 10
0.0
 20
0.0
 30
0.0
  0
VERTEX
  5
294D0
  8
0
 10
443.4586290959935
 20
175.74368873142021
 30
0.0
  0
VERTEX
  5
294D1
  8
0
 10
443.37138516778339
 20
175.90399075054941
 30
0.0
  0
VERTEX
  5
294D2
  8
0
 10
443.19463373048279
 20
176.2208479831915
 30
0.0
  0
VERTEX
  5
294D3
  8
0
 10
443.01490394066042
 20
176.5326384987502
 30
0.0
  0
VERTEX
  5
294D4
  8
0
 10
442.92393725980912
 20
176.68660744136599
 30
0.0
  0
VERTEX
  5
294D5
  8
0
 10
442.83224420546918
 20
176.83927832176869
 30
0.0
  0
VERTEX
  5
294D6
  8
0
 10
442.64670372119298
 20
177.1406848640413
 30
0.0
  0
VERTEX
  5
294D7
  8
0
 10
442.45833245999631
 20
177.43677694685761
 30
0.0
  0
VERTEX
  5
294D8
  8
0
 10
442.26718115646469
 20
177.72747482286599
 30
0.0
  0
VERTEX
  5
294D9
  8
0
 10
442.07330129394143
 20
178.01270019755199
 30
0.0
  0
VERTEX
  5
294DA
  8
0
 10
441.87674509065988
 20
178.2923762503269
 30
0.0
  0
VERTEX
  5
294DB
  8
0
 10
441.77747987692243
 20
178.43010968268979
 30
0.0
  0
VERTEX
  5
294DC
  8
0
 10
441.67756548568047
 20
178.5664276552165
 30
0.0
  0
VERTEX
  5
294DD
  8
0
 10
441.47581612463239
 20
178.83478060115019
 30
0.0
  0
VERTEX
  5
294DE
  8
0
 10
441.27155134526441
 20
179.09736281183899
 30
0.0
  0
VERTEX
  5
294DF
  8
0
 10
441.06482616281028
 20
179.3541035652442
 30
0.0
  0
VERTEX
  5
294E0
  8
0
 10
440.85569625517149
 20
179.60493371262319
 30
0.0
  0
VERTEX
  5
294E1
  8
0
 10
440.64421794792139
 20
179.8497856971544
 30
0.0
  0
VERTEX
  5
294E2
  8
0
 10
440.53761591955163
 20
179.96994920662331
 30
0.0
  0
VERTEX
  5
294E3
  8
0
 10
440.4304481991345
 20
180.08859357213299
 30
0.0
  0
VERTEX
  5
294E4
  8
0
 10
440.21444458404602
 20
180.32129301873141
 30
0.0
  0
VERTEX
  5
294E5
  8
0
 10
439.99626527954501
 20
180.54782136332321
 30
0.0
  0
VERTEX
  5
294E6
  8
0
 10
439.88637808470457
 20
180.65875224088131
 30
0.0
  0
SEQEND
  5
294E7
  8
0
  0
LINE
  5
20F0F
  8
0
 10
439.88637808470457
 20
180.65875224088131
 30
0.0
 11
435.35312839986932
 21
185.1920019257168
 31
0.0
  0
LINE
  5
20F10
  8
0
 10
439.35312839986932
 20
185.1920019257168
 30
0.0
 11
440.88637808470452
 21
183.65875224088131
 31
0.0
  0
POLYLINE
  5
20F12
  8
0
 66
     1
 10
0.0
 20
0.0
 30
0.0
  0
VERTEX
  5
294E8
  8
0
 10
435.35312839986921
 20
185.1920019257168
 30
0.0
  0
VERTEX
  5
294E9
  8
0
 10
435.2398336523479
 20
185.3036228925539
 30
0.0
  0
VERTEX
  5
294EA
  8
0
 10
435.00578841350699
 20
185.52427956679821
 30
0.0
  0
VERTEX
  5
294EB
  8
0
 10
434.76193344944483
 20
185.74136636510141
 30
0.0
  0
VERTEX
  5
294EC
  8
0
 10
434.63637808470452
 20
185.84852554718421
 30
0.0
  0
SEQEND
  5
294ED
  8
0
  0
POLYLINE
  5
20F13
  8
0
 66
     1
 10
0.0
 20
0.0
 30
0.0
  0
VERTEX
  5
294EE
  8
0
 10
434.63637808470452
 20
185.84852554718421
 30
0.0
  0
VERTEX
  5
294EF
  8
0
 10
434.3554087363886
 20
186.0865343654163
 30
0.0
  0
VERTEX
  5
294F0
  8
0
 10
433.80233542048882
 20
186.56277011745081
 30
0.0
  0
VERTEX
  5
294F1
  8
0
 10
433.26552965740473
 20
187.03274757221291
 30
0.0
  0
VERTEX
  5
294F2
  8
0
 10
433.00489902559099
 20
187.2630697375821
 30
0.0
  0
SEQEND
  5
294F3
  8
0
  0
POLYLINE
  5
20F14
  8
0
 66
     1
 10
0.0
 20
0.0
 30
0.0
  0
VERTEX
  5
294F4
  8
0
 10
436.60057711378522
 20
187.2630697375821
 30
0.0
  0
VERTEX
  5
294F5
  8
0
 10
436.68931843762959
 20
187.2114609588202
 30
0.0
  0
VERTEX
  5
294F6
  8
0
 10
436.86483923831179
 20
187.10713248353929
 30
0.0
  0
VERTEX
  5
294F7
  8
0
 10
437.03771335990609
 20
187.0013412081926
 30
0.0
  0
VERTEX
  5
294F8
  8
0
 10
437.12314646611128
 20
186.94790400187321
 30
0.0
  0
VERTEX
  5
294F9
  8
0
 10
437.20790423328691
 20
186.89410951145871
 30
0.0
  0
VERTEX
  5
294FA
  8
0
 10
437.3753758569332
 20
186.7854600767173
 30
0.0
  0
VERTEX
  5
294FB
  8
0
 10
437.54009280454278
 20
186.67541588725129
 30
0.0
  0
VERTEX
  5
294FC
  8
0
 10
437.70202023252779
 20
186.5640002213845
 30
0.0
  0
VERTEX
  5
294FD
  8
0
 10
437.86112388738388
 20
186.45123664755741
 30
0.0
  0
VERTEX
  5
294FE
  8
0
 10
438.01737011293727
 20
186.33714901934121
 30
0.0
  0
VERTEX
  5
294FF
  8
0
 10
438.09441133725818
 20
186.2796162158038
 30
0.0
  0
VERTEX
  5
29500
  8
0
 10
438.17072585746359
 20
186.22176147039411
 30
0.0
  0
VERTEX
  5
29501
  8
0
 10
438.32115868067979
 20
186.10509840935259
 30
0.0
  0
VERTEX
  5
29502
  8
0
 10
438.46863676060622
 20
185.9871845146713
 30
0.0
  0
VERTEX
  5
29503
  8
0
 10
438.61312890029819
 20
185.86804472940091
 30
0.0
  0
VERTEX
  5
29504
  8
0
 10
438.75460453444532
 20
185.74770425591259
 30
0.0
  0
VERTEX
  5
29505
  8
0
 10
438.89303373583738
 20
185.62618855056641
 30
0.0
  0
VERTEX
  5
29506
  8
0
 10
438.96109674803819
 20
185.56499800918479
 30
0.0
  0
VERTEX
  5
29507
  8
0
 10
439.02838722169457
 20
185.5035233183257
 30
0.0
  0
VERTEX
  5
29508
  8
0
 10
439.16063635986222
 20
185.3797345073217
 30
0.0
  0
VERTEX
  5
29509
  8
0
 10
439.28975317486743
 20
185.254848303362
 30
0.0
  0
VERTEX
  5
2950A
  8
0
 10
439.35312839986932
 20
185.1920019257168
 30
0.0
  0
SEQEND
  5
2950B
  8
0
  0
LINE
  5
20F15
  8
0
 10
435.63637808470452
 20
187.81975030657441
 30
0.0
 11
436.60057711378522
 21
187.2630697375821
 31
0.0
  0
POLYLINE
  5
20F17
  8
0
 66
     1
 10
0.0
 20
0.0
 30
0.0
  0
VERTEX
  5
2950C
  8
0
 10
433.00489902559099
 20
187.2630697375821
 30
0.0
  0
VERTEX
  5
2950D
  8
0
 10
432.87083157454651
 20
187.38402928283361
 30
0.0
  0
VERTEX
  5
2950E
  8
0
 10
432.60935744508538
 20
187.63311123850141
 30
0.0
  0
VERTEX
  5
2950F
  8
0
 10
432.35704729125791
 20
187.8914716985027
 30
0.0
  0
VERTEX
  5
29510
  8
0
 10
432.2344320085756
 20
188.02402653798339
 30
0.0
  0
VERTEX
  5
29511
  8
0
 10
432.1142301521005
 20
188.1587737335644
 30
0.0
  0
VERTEX
  5
29512
  8
0
 10
431.88122268675812
 20
188.4346687536563
 30
0.0
  0
VERTEX
  5
29513
  8
0
 10
431.65832876152677
 20
188.71879696258969
 30
0.0
  0
VERTEX
  5
29514
  8
0
 10
431.44583905358041
 20
189.0107878272301
 30
0.0
  0
VERTEX
  5
29515
  8
0
 10
431.24403067189678
 20
189.31026056071181
 30
0.0
  0
VERTEX
  5
29516
  8
0
 10
431.0531667958781
 20
189.61682461902231
 30
0.0
  0
VERTEX
  5
29517
  8
0
 10
430.96191739734559
 20
189.77264130710321
 30
0.0
  0
VERTEX
  5
29518
  8
0
 10
430.8734963321379
 20
189.9300802103148
 30
0.0
  0
VERTEX
  5
29519
  8
0
 10
430.70525358989983
 20
190.24961881627809
 30
0.0
  0
VERTEX
  5
2951A
  8
0
 10
430.54865797543431
 20
190.57502372488719
 30
0.0
  0
VERTEX
  5
2951B
  8
0
 10
430.40391370592931
 20
190.90587057384019
 30
0.0
  0
VERTEX
  5
2951C
  8
0
 10
430.2712095431699
 20
191.24172790397191
 30
0.0
  0
VERTEX
  5
2951D
  8
0
 10
430.15071854737272
 20
191.58215772192031
 30
0.0
  0
VERTEX
  5
2951E
  8
0
 10
430.09510271903957
 20
191.7539487946101
 30
0.0
  0
VERTEX
  5
2951F
  8
0
 10
430.04259785149702
 20
191.92671607131891
 30
0.0
  0
VERTEX
  5
29520
  8
0
 10
429.9469884563274
 20
192.27495361175889
 30
0.0
  0
VERTEX
  5
29521
  8
0
 10
429.86401504659341
 20
192.62641620478141
 30
0.0
  0
VERTEX
  5
29522
  8
0
 10
429.82730129836631
 20
192.80321381140581
 30
0.0
  0
SEQEND
  5
29523
  8
0
  0
POLYLINE
  5
20F18
  8
0
 66
     1
 10
0.0
 20
0.0
 30
0.0
  0
VERTEX
  5
29524
  8
0
 10
431.87635312338642
 20
192.80321381140581
 30
0.0
  0
VERTEX
  5
29525
  8
0
 10
431.92157870292692
 20
192.6309106702729
 30
0.0
  0
VERTEX
  5
29526
  8
0
 10
432.02348144654121
 20
192.2895384423955
 30
0.0
  0
VERTEX
  5
29527
  8
0
 10
432.14048141672902
 20
191.95304152695871
 30
0.0
  0
VERTEX
  5
29528
  8
0
 10
432.2045715116061
 20
191.78683026010961
 30
0.0
  0
VERTEX
  5
29529
  8
0
 10
432.27234658944701
 20
191.62208723502951
 30
0.0
  0
VERTEX
  5
2952A
  8
0
 10
432.41881546129059
 20
191.2973318860308
 30
0.0
  0
VERTEX
  5
2952B
  8
0
 10
432.57959756808458
 20
190.97941950618809
 30
0.0
  0
VERTEX
  5
2952C
  8
0
 10
432.75437406090572
 20
190.6689805513524
 30
0.0
  0
VERTEX
  5
2952D
  8
0
 10
432.9427983383959
 20
190.36663065673611
 30
0.0
  0
VERTEX
  5
2952E
  8
0
 10
433.14449673411229
 20
190.07296941603909
 30
0.0
  0
VERTEX
  5
2952F
  8
0
 10
433.25019973621602
 20
189.92957973427929
 30
0.0
  0
VERTEX
  5
29530
  8
0
 10
433.35906925754853
 20
189.78857919238769
 30
0.0
  0
VERTEX
  5
29531
  8
0
 10
433.58609038736159
 20
189.5140239634429
 30
0.0
  0
VERTEX
  5
29532
  8
0
 10
433.8251099152277
 20
189.2498482029709
 30
0.0
  0
VERTEX
  5
29533
  8
0
 10
434.07565383865608
 20
188.99657580108851
 30
0.0
  0
VERTEX
  5
29534
  8
0
 10
434.33722530098947
 20
188.75470902533149
 30
0.0
  0
VERTEX
  5
29535
  8
0
 10
434.60930557672532
 20
188.52472752460201
 30
0.0
  0
VERTEX
  5
29536
  8
0
 10
434.74911869043518
 20
188.41433722283719
 30
0.0
  0
VERTEX
  5
29537
  8
0
 10
434.89135510020759
 20
188.3070873779707
 30
0.0
  0
VERTEX
  5
29538
  8
0
 10
435.18281453564572
 20
188.102220190221
 30
0.0
  0
VERTEX
  5
29539
  8
0
 10
435.48310588633962
 20
187.91053223592871
 30
0.0
  0
VERTEX
  5
2953A
  8
0
 10
435.63637808470452
 20
187.81975030657441
 30
0.0
  0
SEQEND
  5
2953B
  8
0
  0
POLYLINE
  5
20F19
  8
0
 66
     1
 10
0.0
 20
0.0
 30
0.0
  0
VERTEX
  5
2953C
  8
0
 10
431.63637808470452
 20
195.54817315835811
 30
0.0
  0
VERTEX
  5
2953D
  8
0
 10
431.63648933846468
 20
195.46132351251799
 30
0.0
  0
VERTEX
  5
2953E
  8
0
 10
431.63741771184459
 20
195.28907744047501
 30
0.0
  0
VERTEX
  5
2953F
  8
0
 10
431.63937280869249
 20
195.1188645024003
 30
0.0
  0
VERTEX
  5
29540
  8
0
 10
431.64076755552247
 20
195.03455571035229
 30
0.0
  0
VERTEX
  5
29541
  8
0
 10
431.64245759707768
 20
194.9507971511398
 30
0.0
  0
VERTEX
  5
29542
  8
0
 10
431.64677489933041
 20
194.78498484175091
 30
0.0
  0
VERTEX
  5
29543
  8
0
 10
431.65242687570941
 20
194.62153344949451
 30
0.0
  0
VERTEX
  5
29544
  8
0
 10
431.65951459694651
 20
194.4605432135622
 30
0.0
  0
VERTEX
  5
29545
  8
0
 10
431.66813763173792
 20
194.30210847091851
 30
0.0
  0
VERTEX
  5
29546
  8
0
 10
431.67839328014998
 20
194.14632282291899
 30
0.0
  0
VERTEX
  5
29547
  8
0
 10
431.68416297725719
 20
194.06945207686519
 30
0.0
  0
VERTEX
  5
29548
  8
0
 10
431.69037599049909
 20
193.99327766109721
 30
0.0
  0
VERTEX
  5
29549
  8
0
 10
431.70417676742949
 20
193.84306139832461
 30
0.0
  0
VERTEX
  5
2954A
  8
0
 10
431.71988260097839
 20
193.69575872436459
 30
0.0
  0
VERTEX
  5
2954B
  8
0
 10
431.73757592924369
 20
193.5514498668617
 30
0.0
  0
VERTEX
  5
2954C
  8
0
 10
431.75733414830472
 20
193.41020985698739
 30
0.0
  0
VERTEX
  5
2954D
  8
0
 10
431.77922918491919
 20
193.2721078000518
 30
0.0
  0
VERTEX
  5
2954E
  8
0
 10
431.79099890404581
 20
193.20425330093161
 30
0.0
  0
VERTEX
  5
2954F
  8
0
 10
431.80334092157869
 20
193.1371333722181
 30
0.0
  0
VERTEX
  5
29550
  8
0
 10
431.8301913194955
 20
193.0031843877841
 30
0.0
  0
VERTEX
  5
29551
  8
0
 10
431.86015246883238
 20
192.86965882274811
 30
0.0
  0
VERTEX
  5
29552
  8
0
 10
431.87635312338642
 20
192.80321381140581
 30
0.0
  0
SEQEND
  5
29553
  8
0
  0
POLYLINE
  5
20F1B
  8
0
 66
     1
 10
0.0
 20
0.0
 30
0.0
  0
VERTEX
  5
29554
  8
0
 10
429.82730129836631
 20
192.80321381140581
 30
0.0
  0
VERTEX
  5
29555
  8
0
 10
429.81490848104812
 20
192.8673780372755
 30
0.0
  0
VERTEX
  5
29556
  8
0
 10
429.7916062702144
 20
192.9980540033489
 30
0.0
  0
VERTEX
  5
29557
  8
0
 10
429.77024001472978
 20
193.13181860711481
 30
0.0
  0
VERTEX
  5
29558
  8
0
 10
429.76026603376062
 20
193.1998422354477
 30
0.0
  0
VERTEX
  5
29559
  8
0
 10
429.75075526480941
 20
193.26861703083341
 30
0.0
  0
VERTEX
  5
2955A
  8
0
 10
429.73309306219682
 20
193.40838904400789
 30
0.0
  0
VERTEX
  5
2955B
  8
0
 10
429.71719021652967
 20
193.55106955875181
 30
0.0
  0
VERTEX
  5
2955C
  8
0
 10
429.7029796327044
 20
193.69658920147231
 30
0.0
  0
VERTEX
  5
2955D
  8
0
 10
429.69039067877128
 20
193.8448748990977
 30
0.0
  0
VERTEX
  5
2955E
  8
0
 10
429.67934958486347
 20
193.99585047878011
 30
0.0
  0
VERTEX
  5
2955F
  8
0
 10
429.67438567767749
 20
194.072322473301
 30
0.0
  0
VERTEX
  5
29560
  8
0
 10
429.6697798645821
 20
194.14943728061101
 30
0.0
  0
VERTEX
  5
29561
  8
0
 10
429.66160273879609
 20
194.3055550423241
 30
0.0
  0
VERTEX
  5
29562
  8
0
 10
429.6547375661375
 20
194.46412317331169
 30
0.0
  0
VERTEX
  5
29563
  8
0
 10
429.6491025320708
 20
194.6250546634883
 30
0.0
  0
VERTEX
  5
29564
  8
0
 10
429.64461484489141
 20
194.78825793566691
 30
0.0
  0
VERTEX
  5
29565
  8
0
 10
429.64119104479801
 20
194.95363795671301
 30
0.0
  0
VERTEX
  5
29566
  8
0
 10
429.63985192737948
 20
195.03711371822959
 30
0.0
  0
VERTEX
  5
29567
  8
0
 10
429.63874736576918
 20
195.12109669757541
 30
0.0
  0
VERTEX
  5
29568
  8
0
 10
429.63720010671523
 20
195.29053360376381
 30
0.0
  0
VERTEX
  5
29569
  8
0
 10
429.63646600663571
 20
195.4618460791034
 30
0.0
  0
VERTEX
  5
2956A
  8
0
 10
429.63637808470457
 20
195.54817315835811
 30
0.0
  0
SEQEND
  5
2956B
  8
0
  0
LINE
  5
20F20
  8
0
 10
429.63637808470457
 20
195.54817315835811
 30
0.0
 11
429.63637808470457
 21
246.74368873142021
 31
0.0
  0
LINE
  5
20F27
  8
0
 10
479.14247856479329
 20
237.74368873142021
 30
0.0
 11
465.1302776046158
 21
237.74368873142021
 31
0.0
  0
POLYLINE
  5
20F2D
  8
0
 66
     1
 10
0.0
 20
0.0
 30
0.0
  0
VERTEX
  5
2956C
  8
0
 10
479.14247856479329
 20
237.74368873142021
 30
0.0
  0
VERTEX
  5
2956D
  8
0
 10
479.2527554231678
 20
237.7454264464414
 30
0.0
  0
VERTEX
  5
2956E
  8
0
 10
479.47287123778619
 20
237.75931781522419
 30
0.0
  0
VERTEX
  5
2956F
  8
0
 10
479.6916750848934
 20
237.78704539108139
 30
0.0
  0
VERTEX
  5
29570
  8
0
 10
479.80031320519367
 20
237.8060654847732
 30
0.0
  0
VERTEX
  5
29571
  8
0
 10
479.90829810884497
 20
237.8284990696375
 30
0.0
  0
VERTEX
  5
29572
  8
0
 10
480.1218801139018
 20
237.88351424106941
 30
0.0
  0
VERTEX
  5
29573
  8
0
 10
480.33157298000992
 20
237.95187244376081
 30
0.0
  0
VERTEX
  5
29574
  8
0
 10
480.53654403062961
 20
238.03330223179731
 30
0.0
  0
VERTEX
  5
29575
  8
0
 10
480.73597933923901
 20
238.12748025286149
 30
0.0
  0
VERTEX
  5
29576
  8
0
 10
480.92908696138278
 20
238.23403253224481
 30
0.0
  0
VERTEX
  5
29577
  8
0
 10
481.02302719400723
 20
238.29181867107539
 30
0.0
  0
VERTEX
  5
29578
  8
0
 10
481.11510007943122
 20
238.35253595787341
 30
0.0
  0
VERTEX
  5
29579
  8
0
 10
481.29328004756189
 20
238.4825199604611
 30
0.0
  0
VERTEX
  5
2957A
  8
0
 10
481.46291932487469
 20
238.6234683821076
 30
0.0
  0
VERTEX
  5
2957B
  8
0
 10
481.62334428498878
 20
238.77482152592711
 30
0.0
  0
VERTEX
  5
2957C
  8
0
 10
481.7739178909697
 20
238.9359783785699
 30
0.0
  0
VERTEX
  5
2957D
  8
0
 10
481.91404222495999
 20
239.1062989968041
 30
0.0
  0
VERTEX
  5
2957E
  8
0
 10
481.98001034988908
 20
239.19468571322571
 30
0.0
  0
VERTEX
  5
2957F
  8
0
 10
482.04316086247218
 20
239.28510704868859
 30
0.0
  0
VERTEX
  5
29580
  8
0
 10
482.11319181199559
 20
239.3930502462222
 30
0.0
  0
VERTEX
  5
29581
  8
0
 10
482.13246721661949
 20
239.42435702391049
 30
0.0
  0
VERTEX
  5
29582
  8
0
 10
482.15141270820129
 20
239.45586454525619
 30
0.0
  0
VERTEX
  5
29583
  8
0
 10
482.16076108191362
 20
239.47169249924451
 30
0.0
  0
VERTEX
  5
29584
  8
0
 10
482.17002619631052
 20
239.48756933374401
 30
0.0
  0
VERTEX
  5
29585
  8
0
 10
482.18830562714868
 20
239.51946789109161
 30
0.0
  0
VERTEX
  5
29586
  8
0
 10
482.20624898377798
 20
239.5515566976373
 30
0.0
  0
VERTEX
  5
29587
  8
0
 10
482.22385428634198
 20
239.58383221272649
 30
0.0
  0
VERTEX
  5
29588
  8
0
 10
482.24111959228532
 20
239.61629087510391
 30
0.0
  0
VERTEX
  5
29589
  8
0
 10
482.25804299656738
 20
239.64892910330531
 30
0.0
  0
VERTEX
  5
2958A
  8
0
 10
482.26637590056998
 20
239.6653144299548
 30
0.0
  0
VERTEX
  5
2958B
  8
0
 10
482.27462263187272
 20
239.68174329605469
 30
0.0
  0
VERTEX
  5
2958C
  8
0
 10
482.2908566688173
 20
239.71472983265861
 30
0.0
  0
VERTEX
  5
2958D
  8
0
 10
482.30674331615
 20
239.7478850734083
 30
0.0
  0
VERTEX
  5
2958E
  8
0
 10
482.31455581942163
 20
239.76452481532809
 30
0.0
  0
SEQEND
  5
2958F
  8
0
  0
LINE
  5
20F2E
  8
0
 10
482.31455581942163
 20
239.76452481532809
 30
0.0
 11
483.58612555301039
 21
242.4914149089195
 31
0.0
  0
POLYLINE
  5
20F2F
  8
0
 66
     1
 10
0.0
 20
0.0
 30
0.0
  0
VERTEX
  5
29590
  8
0
 10
483.58612555301039
 20
242.4914149089195
 30
0.0
  0
VERTEX
  5
29591
  8
0
 10
483.70105067796061
 20
242.73787263471559
 30
0.0
  0
VERTEX
  5
29592
  8
0
 10
483.92245096054342
 20
243.2126670729171
 30
0.0
  0
VERTEX
  5
29593
  8
0
 10
484.13217985943839
 20
243.6624321480285
 30
0.0
  0
VERTEX
  5
29594
  8
0
 10
484.23252179536081
 20
243.87761612403119
 30
0.0
  0
SEQEND
  5
29595
  8
0
  0
POLYLINE
  5
20F30
  8
0
 66
     1
 10
0.0
 20
0.0
 30
0.0
  0
VERTEX
  5
29596
  8
0
 10
484.23252179536081
 20
243.87761612403119
 30
0.0
  0
VERTEX
  5
29597
  8
0
 10
484.239308109901
 20
243.89197057921271
 30
0.0
  0
VERTEX
  5
29598
  8
0
 10
484.25329727214569
 20
243.9203860402931
 30
0.0
  0
VERTEX
  5
29599
  8
0
 10
484.26781326244787
 20
243.9483682655096
 30
0.0
  0
VERTEX
  5
2959A
  8
0
 10
484.27525734537278
 20
243.9621818052529
 30
0.0
  0
VERTEX
  5
2959B
  8
0
 10
484.28281900484609
 20
243.97586930183209
 30
0.0
  0
VERTEX
  5
2959C
  8
0
 10
484.29827467709902
 20
244.00284454142499
 30
0.0
  0
VERTEX
  5
2959D
  8
0
 10
484.31413824192049
 20
244.0292532150597
 30
0.0
  0
VERTEX
  5
2959E
  8
0
 10
484.33036597691608
 20
244.0550587371626
 30
0.0
  0
VERTEX
  5
2959F
  8
0
 10
484.34691299731787
 20
244.08022892969171
 30
0.0
  0
VERTEX
  5
295A0
  8
0
 10
484.36373403235302
 20
244.10473652590559
 30
0.0
  0
VERTEX
  5
295A1
  8
0
 10
484.37223378017489
 20
244.11673551123249
 30
0.0
  0
VERTEX
  5
295A2
  8
0
 10
484.3807855598829
 20
244.12856138225609
 30
0.0
  0
VERTEX
  5
295A3
  8
0
 10
484.39802196785263
 20
244.1516842805631
 30
0.0
  0
VERTEX
  5
295A4
  8
0
 10
484.41539613635268
 20
244.17408769551051
 30
0.0
  0
VERTEX
  5
295A5
  8
0
 10
484.43286022256882
 20
244.1957566300234
 30
0.0
  0
VERTEX
  5
295A6
  8
0
 10
484.45036603141727
 20
244.21667876755461
 30
0.0
  0
VERTEX
  5
295A7
  8
0
 10
484.46786534926559
 20
244.23684452853189
 30
0.0
  0
VERTEX
  5
295A8
  8
0
 10
484.47659757599507
 20
244.246641519072
 30
0.0
  0
VERTEX
  5
295A9
  8
0
 10
484.48531024065238
 20
244.25624705090189
 30
0.0
  0
VERTEX
  5
295AA
  8
0
 10
484.50265330927749
 20
244.27488211195171
 30
0.0
  0
VERTEX
  5
295AB
  8
0
 10
484.51984792553571
 20
244.29274800601431
 30
0.0
  0
VERTEX
  5
295AC
  8
0
 10
484.5283752509996
 20
244.3013926332242
 30
0.0
  0
VERTEX
  5
295AD
  8
0
 10
484.53684842365902
 20
244.3098453904058
 30
0.0
  0
VERTEX
  5
295AE
  8
0
 10
484.55362994217552
 20
244.32619597803301
 30
0.0
  0
VERTEX
  5
295AF
  8
0
 10
484.57035343782189
 20
244.34199290844251
 30
0.0
  0
VERTEX
  5
295B0
  8
0
 10
484.57870891800661
 20
244.34970621333201
 30
0.0
  0
VERTEX
  5
295B1
  8
0
 10
484.58705920978878
 20
244.3572987256953
 30
0.0
  0
VERTEX
  5
295B2
  8
0
 10
484.60374135218552
 20
244.37212902885989
 30
0.0
  0
VERTEX
  5
295B3
  8
0
 10
484.62039433851561
 20
244.38649866666131
 30
0.0
  0
VERTEX
  5
295B4
  8
0
 10
484.63701296361182
 20
244.40042176917359
 30
0.0
  0
VERTEX
  5
295B5
  8
0
 10
484.65359229271502
 20
244.4139117816508
 30
0.0
  0
VERTEX
  5
295B6
  8
0
 10
484.6701276172534
 20
244.42698149986339
 30
0.0
  0
VERTEX
  5
295B7
  8
0
 10
484.67837735876128
 20
244.43336257861441
 30
0.0
  0
VERTEX
  5
295B8
  8
0
 10
484.68661441685418
 20
244.43964310634189
 30
0.0
  0
VERTEX
  5
295B9
  8
0
 10
484.70304832711111
 20
244.45190820702049
 30
0.0
  0
VERTEX
  5
295BA
  8
0
 10
484.7194251126233
 20
244.46378786782219
 30
0.0
  0
VERTEX
  5
295BB
  8
0
 10
484.77623516459357
 20
244.502479696027
 30
0.0
  0
VERTEX
  5
295BC
  8
0
 10
484.87140234308691
 20
244.5592733280964
 30
0.0
  0
VERTEX
  5
295BD
  8
0
 10
484.96313186445639
 20
244.6055057715416
 30
0.0
  0
VERTEX
  5
295BE
  8
0
 10
485.05076775539862
 20
244.6426474670038
 30
0.0
  0
VERTEX
  5
295BF
  8
0
 10
485.09285745138669
 20
244.65821098703779
 30
0.0
  0
VERTEX
  5
295C0
  8
0
 10
485.13370351867349
 20
244.6719672339504
 30
0.0
  0
VERTEX
  5
295C1
  8
0
 10
485.21141756744657
 20
244.69460898743409
 30
0.0
  0
VERTEX
  5
295C2
  8
0
 10
485.28345548144381
 20
244.71161600367441
 30
0.0
  0
VERTEX
  5
295C3
  8
0
 10
485.3494255586794
 20
244.72394737665309
 30
0.0
  0
VERTEX
  5
295C4
  8
0
 10
485.40898872857798
 20
244.73248452750749
 30
0.0
  0
VERTEX
  5
295C5
  8
0
 10
485.46186873808898
 20
244.7380347940848
 30
0.0
  0
VERTEX
  5
295C6
  8
0
 10
485.48573612993772
 20
244.73992116706401
 30
0.0
  0
VERTEX
  5
295C7
  8
0
 10
485.50786141184528
 20
244.74132803323391
 30
0.0
  0
VERTEX
  5
295C8
  8
0
 10
485.54683012187701
 20
244.74300896893419
 30
0.0
  0
VERTEX
  5
295C9
  8
0
 10
485.57870697458458
 20
244.7436299751071
 30
0.0
  0
VERTEX
  5
295CA
  8
0
 10
485.5919834759157
 20
244.74368873142021
 30
0.0
  0
SEQEND
  5
295CB
  8
0
  0
POLYLINE
  5
20F31
  8
0
 66
     1
 10
0.0
 20
0.0
 30
0.0
  0
VERTEX
  5
295CC
  8
0
 10
461.95820034998752
 20
239.76452481532809
 30
0.0
  0
VERTEX
  5
295CD
  8
0
 10
461.96601285325909
 20
239.7478850734083
 30
0.0
  0
VERTEX
  5
295CE
  8
0
 10
461.98189950059179
 20
239.71472983265861
 30
0.0
  0
VERTEX
  5
295CF
  8
0
 10
461.99813353753638
 20
239.68174329605469
 30
0.0
  0
VERTEX
  5
295D0
  8
0
 10
462.006380268839
 20
239.6653144299548
 30
0.0
  0
VERTEX
  5
295D1
  8
0
 10
462.01471317284171
 20
239.64892910330579
 30
0.0
  0
VERTEX
  5
295D2
  8
0
 10
462.03163657712378
 20
239.61629087510391
 30
0.0
  0
VERTEX
  5
295D3
  8
0
 10
462.048901883067
 20
239.58383221272649
 30
0.0
  0
VERTEX
  5
295D4
  8
0
 10
462.066507185631
 20
239.5515566976373
 30
0.0
  0
VERTEX
  5
295D5
  8
0
 10
462.0844505422603
 20
239.51946789109161
 30
0.0
  0
VERTEX
  5
295D6
  8
0
 10
462.10272997309858
 20
239.48756933374401
 30
0.0
  0
VERTEX
  5
295D7
  8
0
 10
462.11199508749542
 20
239.47169249924451
 30
0.0
  0
VERTEX
  5
295D8
  8
0
 10
462.12134346120769
 20
239.45586454525619
 30
0.0
  0
VERTEX
  5
295D9
  8
0
 10
462.1402889527896
 20
239.42435702391049
 30
0.0
  0
VERTEX
  5
295DA
  8
0
 10
462.1595643574135
 20
239.3930502462222
 30
0.0
  0
VERTEX
  5
295DB
  8
0
 10
462.2295953069368
 20
239.28510704868859
 30
0.0
  0
VERTEX
  5
295DC
  8
0
 10
462.29274581952001
 20
239.19468571322571
 30
0.0
  0
VERTEX
  5
295DD
  8
0
 10
462.35871394444911
 20
239.1062989968041
 30
0.0
  0
VERTEX
  5
295DE
  8
0
 10
462.49883827843928
 20
238.9359783785699
 30
0.0
  0
VERTEX
  5
295DF
  8
0
 10
462.64941188442032
 20
238.77482152592711
 30
0.0
  0
VERTEX
  5
295E0
  8
0
 10
462.8098368445344
 20
238.6234683821076
 30
0.0
  0
VERTEX
  5
295E1
  8
0
 10
462.97947612184709
 20
238.4825199604611
 30
0.0
  0
VERTEX
  5
295E2
  8
0
 10
463.15765608997782
 20
238.35253595787341
 30
0.0
  0
VERTEX
  5
295E3
  8
0
 10
463.24972897540192
 20
238.29181867107539
 30
0.0
  0
VERTEX
  5
295E4
  8
0
 10
463.3436692080262
 20
238.23403253224481
 30
0.0
  0
VERTEX
  5
295E5
  8
0
 10
463.53677683017003
 20
238.12748025286149
 30
0.0
  0
VERTEX
  5
295E6
  8
0
 10
463.73621213877948
 20
238.03330223179731
 30
0.0
  0
VERTEX
  5
295E7
  8
0
 10
463.94118318939923
 20
237.95187244376081
 30
0.0
  0
VERTEX
  5
295E8
  8
0
 10
464.1508760555073
 20
237.88351424106941
 30
0.0
  0
VERTEX
  5
295E9
  8
0
 10
464.36445806056412
 20
237.8284990696375
 30
0.0
  0
VERTEX
  5
295EA
  8
0
 10
464.4724429642153
 20
237.8060654847732
 30
0.0
  0
VERTEX
  5
295EB
  8
0
 10
464.58108108451569
 20
237.78704539108139
 30
0.0
  0
VERTEX
  5
295EC
  8
0
 10
464.7998849316229
 20
237.75931781522419
 30
0.0
  0
VERTEX
  5
295ED
  8
0
 10
465.02000074624118
 20
237.7454264464414
 30
0.0
  0
VERTEX
  5
295EE
  8
0
 10
465.1302776046158
 20
237.74368873142021
 30
0.0
  0
SEQEND
  5
295EF
  8
0
  0
LINE
  5
20F32
  8
0
 10
460.6866306163987
 20
242.4914149089195
 30
0.0
 11
461.95820034998752
 21
239.76452481532809
 31
0.0
  0
POLYLINE
  5
20F33
  8
0
 66
     1
 10
0.0
 20
0.0
 30
0.0
  0
VERTEX
  5
295F0
  8
0
 10
460.04023437404828
 20
243.87761612403119
 30
0.0
  0
VERTEX
  5
295F1
  8
0
 10
460.1405763099707
 20
243.6624321480285
 30
0.0
  0
VERTEX
  5
295F2
  8
0
 10
460.35030520886568
 20
243.2126670729171
 30
0.0
  0
VERTEX
  5
295F3
  8
0
 10
460.57170549144843
 20
242.73787263471559
 30
0.0
  0
VERTEX
  5
295F4
  8
0
 10
460.6866306163987
 20
242.4914149089195
 30
0.0
  0
SEQEND
  5
295F5
  8
0
  0
POLYLINE
  5
20F34
  8
0
 66
     1
 10
0.0
 20
0.0
 30
0.0
  0
VERTEX
  5
295F6
  8
0
 10
458.68077269349328
 20
244.74368873142021
 30
0.0
  0
VERTEX
  5
295F7
  8
0
 10
458.69404919482452
 20
244.7436299751071
 30
0.0
  0
VERTEX
  5
295F8
  8
0
 10
458.72592604753208
 20
244.74300896893419
 30
0.0
  0
VERTEX
  5
295F9
  8
0
 10
458.7648947575637
 20
244.74132803323391
 30
0.0
  0
VERTEX
  5
295FA
  8
0
 10
458.78702003947132
 20
244.73992116706401
 30
0.0
  0
VERTEX
  5
295FB
  8
0
 10
458.81088743132011
 20
244.7380347940848
 30
0.0
  0
VERTEX
  5
295FC
  8
0
 10
458.863767440831
 20
244.73248452750749
 30
0.0
  0
VERTEX
  5
295FD
  8
0
 10
458.92333061072958
 20
244.72394737665309
 30
0.0
  0
VERTEX
  5
295FE
  8
0
 10
458.98930068796528
 20
244.71161600367441
 30
0.0
  0
VERTEX
  5
295FF
  8
0
 10
459.06133860196252
 20
244.69460898743409
 30
0.0
  0
VERTEX
  5
29600
  8
0
 10
459.13905265073549
 20
244.6719672339504
 30
0.0
  0
VERTEX
  5
29601
  8
0
 10
459.17989871802229
 20
244.65821098703779
 30
0.0
  0
VERTEX
  5
29602
  8
0
 10
459.22198841401053
 20
244.6426474670038
 30
0.0
  0
VERTEX
  5
29603
  8
0
 10
459.30962430495259
 20
244.6055057715416
 30
0.0
  0
VERTEX
  5
29604
  8
0
 10
459.40135382632212
 20
244.5592733280964
 30
0.0
  0
VERTEX
  5
29605
  8
0
 10
459.49652100481552
 20
244.502479696027
 30
0.0
  0
VERTEX
  5
29606
  8
0
 10
459.55333105678579
 20
244.46378786782219
 30
0.0
  0
VERTEX
  5
29607
  8
0
 10
459.56970784229799
 20
244.45190820702049
 30
0.0
  0
VERTEX
  5
29608
  8
0
 10
459.58614175255491
 20
244.43964310634189
 30
0.0
  0
VERTEX
  5
29609
  8
0
 10
459.5943788106477
 20
244.43336257861441
 30
0.0
  0
VERTEX
  5
2960A
  8
0
 10
459.60262855215569
 20
244.42698149986339
 30
0.0
  0
VERTEX
  5
2960B
  8
0
 10
459.61916387669407
 20
244.4139117816508
 30
0.0
  0
VERTEX
  5
2960C
  8
0
 10
459.63574320579733
 20
244.40042176917359
 30
0.0
  0
VERTEX
  5
2960D
  8
0
 10
459.65236183089348
 20
244.38649866666131
 30
0.0
  0
VERTEX
  5
2960E
  8
0
 10
459.66901481722351
 20
244.37212902885989
 30
0.0
  0
VERTEX
  5
2960F
  8
0
 10
459.68569695962032
 20
244.3572987256953
 30
0.0
  0
VERTEX
  5
29610
  8
0
 10
459.69404725140248
 20
244.34970621333201
 30
0.0
  0
VERTEX
  5
29611
  8
0
 10
459.7024027315872
 20
244.34199290844251
 30
0.0
  0
VERTEX
  5
29612
  8
0
 10
459.71912622723352
 20
244.32619597803301
 30
0.0
  0
VERTEX
  5
29613
  8
0
 10
459.73590774575013
 20
244.3098453904058
 30
0.0
  0
VERTEX
  5
29614
  8
0
 10
459.74438091840949
 20
244.3013926332242
 30
0.0
  0
VERTEX
  5
29615
  8
0
 10
459.75290824387332
 20
244.29274800601431
 30
0.0
  0
VERTEX
  5
29616
  8
0
 10
459.7701028601316
 20
244.27488211195171
 30
0.0
  0
VERTEX
  5
29617
  8
0
 10
459.7874459287566
 20
244.25624705090189
 30
0.0
  0
VERTEX
  5
29618
  8
0
 10
459.79615859341402
 20
244.246641519072
 30
0.0
  0
VERTEX
  5
29619
  8
0
 10
459.8048908201435
 20
244.23684452853189
 30
0.0
  0
VERTEX
  5
2961A
  8
0
 10
459.8223901379917
 20
244.21667876755461
 30
0.0
  0
VERTEX
  5
2961B
  8
0
 10
459.83989594684022
 20
244.1957566300234
 30
0.0
  0
VERTEX
  5
2961C
  8
0
 10
459.8573600330563
 20
244.17408769551051
 30
0.0
  0
VERTEX
  5
2961D
  8
0
 10
459.87473420155652
 20
244.1516842805631
 30
0.0
  0
VERTEX
  5
2961E
  8
0
 10
459.8919706095262
 20
244.12856138225649
 30
0.0
  0
VERTEX
  5
2961F
  8
0
 10
459.90052238923408
 20
244.11673551123249
 30
0.0
  0
VERTEX
  5
29620
  8
0
 10
459.90902213705613
 20
244.10473652590559
 30
0.0
  0
VERTEX
  5
29621
  8
0
 10
459.92584317209122
 20
244.08022892969171
 30
0.0
  0
VERTEX
  5
29622
  8
0
 10
459.94239019249289
 20
244.0550587371626
 30
0.0
  0
VERTEX
  5
29623
  8
0
 10
459.95861792748849
 20
244.0292532150597
 30
0.0
  0
VERTEX
  5
29624
  8
0
 10
459.97448149231008
 20
244.00284454142499
 30
0.0
  0
VERTEX
  5
29625
  8
0
 10
459.989937164563
 20
243.97586930183209
 30
0.0
  0
VERTEX
  5
29626
  8
0
 10
459.9974988240362
 20
243.9621818052529
 30
0.0
  0
VERTEX
  5
29627
  8
0
 10
460.00494290696122
 20
243.9483682655096
 30
0.0
  0
VERTEX
  5
29628
  8
0
 10
460.01945889726341
 20
243.9203860402931
 30
0.0
  0
VERTEX
  5
29629
  8
0
 10
460.03344805950798
 20
243.89197057921271
 30
0.0
  0
VERTEX
  5
2962A
  8
0
 10
460.04023437404828
 20
243.87761612403119
 30
0.0
  0
SEQEND
  5
2962B
  8
0
  0
LINE
  5
20F36
  8
0
 10
429.63637808470457
 20
246.74368873142021
 30
0.0
 11
514.63637808470446
 21
246.74368873142021
 31
0.0
  0
LINE
  5
20F46
  8
0
 10
504.63637808470457
 20
175.74368873142021
 30
0.0
 11
506.86937808470458
 21
175.74368873142021
 31
0.0
  0
LINE
  5
20F47
  8
0
 10
507.63637808470452
 20
182.97668873142041
 30
0.0
 11
507.170346329974
 21
183.44272048615079
 31
0.0
  0
LINE
  5
20F49
  8
0
 10
506.86937808470458
 20
175.74368873142021
 30
0.0
 11
507.63637808470452
 21
176.51068873142049
 31
0.0
  0
LINE
  5
20F4B
  8
0
 10
494.63637808470452
 20
183.74368873142021
 30
0.0
 11
492.13637808470457
 21
183.74368873142021
 31
0.0
  0
LINE
  5
20F4C
  8
0
 10
492.13637808470457
 20
175.74368873142021
 30
0.0
 11
494.63637808470452
 21
175.74368873142021
 31
0.0
  0
LINE
  5
20F4F
  8
0
 10
502.13637808470452
 20
173.9286887314201
 30
0.0
 11
504.63637808470457
 21
173.9286887314201
 31
0.0
  0
LINE
  5
20F50
  8
0
 10
452.13637808470452
 20
183.74368873142021
 30
0.0
 11
449.63637808470457
 21
183.74368873142021
 31
0.0
  0
LINE
  5
20F53
  8
0
 10
449.63637808470457
 20
175.74368873142021
 30
0.0
 11
452.13637808470452
 21
175.74368873142021
 31
0.0
  0
LINE
  5
20F54
  8
0
 10
492.13637808470457
 20
185.74368873142021
 30
0.0
 11
484.63637808470452
 21
185.74368873142021
 31
0.0
  0
LINE
  5
20F56
  8
0
 10
459.63637808470452
 20
185.74368873142021
 30
0.0
 11
452.13637808470452
 21
185.74368873142021
 31
0.0
  0
LINE
  5
20F57
  8
0
 10
452.13637808470452
 20
173.74368873142021
 30
0.0
 11
459.63637808470452
 21
173.74368873142021
 31
0.0
  0
LINE
  5
20F59
  8
0
 10
484.63637808470452
 20
173.74368873142021
 30
0.0
 11
492.13637808470457
 21
173.74368873142021
 31
0.0
  0
LINE
  5
20F5A
  8
0
 10
506.86937808470458
 20
175.74368873142021
 30
0.0
 11
506.86937808470458
 21
183.1455395010266
 31
0.0
  0
LINE
  5
20F5C
  8
0
 10
507.63637808470452
 20
176.51068873142049
 30
0.0
 11
507.63637808470452
 21
182.97668873142041
 31
0.0
  0
LINE
  5
20F5D
  8
0
 10
442.33637808470451
 20
173.48535539808699
 30
0.0
 11
442.33637808470451
 21
177.62227862217509
 31
0.0
  0
LINE
  5
20F6F
  8
0
 10
442.33637808470451
 20
173.48535539808699
 30
0.0
 11
444.89323484700259
 21
173.48535539808699
 31
0.0
  0
POLYLINE
  5
20F71
  8
0
 66
     1
 10
0.0
 20
0.0
 30
0.0
  0
VERTEX
  5
2962C
  8
0
 10
442.59579779412007
 20
173.48535539808699
 30
0.0
  0
VERTEX
  5
2962D
  8
0
 10
442.51495314086191
 20
174.04753387620161
 30
0.0
  0
VERTEX
  5
2962E
  8
0
 10
442.40034280210881
 20
175.10332376892569
 30
0.0
  0
VERTEX
  5
2962F
  8
0
 10
442.34356821832449
 20
176.11208431283831
 30
0.0
  0
VERTEX
  5
29630
  8
0
 10
442.33637808470451
 20
176.6145220647536
 30
0.0
  0
SEQEND
  5
29631
  8
0
  0
POLYLINE
  5
20F72
  8
0
 66
     1
 10
0.0
 20
0.0
 30
0.0
  0
VERTEX
  5
29632
  8
0
 10
442.33637808470451
 20
176.6145220647536
 30
0.0
  0
VERTEX
  5
29633
  8
0
 10
442.33712477080371
 20
176.776280196193
 30
0.0
  0
VERTEX
  5
29634
  8
0
 10
442.34304854325478
 20
177.09842477053871
 30
0.0
  0
VERTEX
  5
29635
  8
0
 10
442.35480262721262
 20
177.42015415439249
 30
0.0
  0
VERTEX
  5
29636
  8
0
 10
442.36285180283551
 20
177.58138198519549
 30
0.0
  0
SEQEND
  5
29637
  8
0
  0
LINE
  5
20F79
  8
0
 10
504.63637808470457
 20
173.9286887314201
 30
0.0
 11
504.63637808470457
 21
180.90908718920349
 31
0.0
  0
LINE
  5
20F7B
  8
0
 10
502.13637808470452
 20
173.48535539808699
 30
0.0
 11
502.13637808470452
 21
177.91946605934299
 31
0.0
  0
POLYLINE
  5
20F8B
  8
0
 66
     1
 10
0.0
 20
0.0
 30
0.0
  0
VERTEX
  5
29638
  8
0
 10
502.13637808470452
 20
176.6145220647536
 30
0.0
  0
VERTEX
  5
29639
  8
0
 10
502.12918795108459
 20
176.11208431283831
 30
0.0
  0
VERTEX
  5
2963A
  8
0
 10
502.07241336730021
 20
175.10332376892569
 30
0.0
  0
VERTEX
  5
2963B
  8
0
 10
501.95780302854718
 20
174.04753387620161
 30
0.0
  0
VERTEX
  5
2963C
  8
0
 10
501.87695837528912
 20
173.48535539808699
 30
0.0
  0
SEQEND
  5
2963D
  8
0
  0
LINE
  5
20F8D
  8
0
 10
499.37952109824249
 20
173.48535539808699
 30
0.0
 11
502.13637808470452
 21
173.48535539808699
 31
0.0
  0
POLYLINE
  5
20F92
  8
0
 66
     1
 10
0.0
 20
0.0
 30
0.0
  0
VERTEX
  5
2963E
  8
0
 10
502.09299311583368
 20
177.8553437795822
 30
0.0
  0
VERTEX
  5
2963F
  8
0
 10
502.10619143000542
 20
177.64752597421599
 30
0.0
  0
VERTEX
  5
29640
  8
0
 10
502.12544559555153
 20
177.23441253588899
 30
0.0
  0
VERTEX
  5
29641
  8
0
 10
502.13515253374658
 20
176.82177169802159
 30
0.0
  0
VERTEX
  5
29642
  8
0
 10
502.13637808470452
 20
176.6145220647536
 30
0.0
  0
SEQEND
  5
29643
  8
0
  0
LINE
  5
20F96
  8
0
 10
452.13637808470452
 20
173.74368873142021
 30
0.0
 11
452.13637808470452
 21
185.74368873142021
 31
0.0
  0
LINE
  5
20F97
  8
0
 10
492.13637808470457
 20
173.74368873142021
 30
0.0
 11
492.13637808470457
 21
185.74368873142021
 31
0.0
  0
LINE
  5
20F9E
  8
0
 10
481.37831465260149
 20
219.74368873142021
 30
0.0
 11
462.8944415168076
 21
219.74368873142021
 31
0.0
  0
LINE
  5
20F9F
  8
0
 10
462.8944415168076
 20
139.74368873142021
 30
0.0
 11
481.37831465260149
 21
139.74368873142021
 31
0.0
  0
ARC
  5
20FA0
  8
0
 10
481.37831465260149
 20
142.24368873142021
 30
0.0
 40
2.499999999999992
 50
270.0
 51
345.00000000000551
  0
ARC
  5
20FA1
  8
0
 10
481.37831465260149
 20
217.24368873142021
 30
0.0
 40
2.4999999999999938
 50
14.99999999999447
 51
90.0
  0
LINE
  5
20FA2
  8
0
 10
484.63637808470452
 20
214.74368873142021
 30
0.0
 11
483.79312921832422
 21
217.8907363441767
 31
0.0
  0
LINE
  5
20FA3
  8
0
 10
483.79312921832422
 20
141.59664111866411
 30
0.0
 11
484.63637808470452
 21
144.74368873142021
 31
0.0
  0
LINE
  5
20FB6
  8
0
 10
460.47962695108492
 20
217.8907363441767
 30
0.0
 11
459.63637808470452
 21
214.74368873142021
 31
0.0
  0
LINE
  5
20FB7
  8
0
 10
459.63637808470452
 20
144.74368873142021
 30
0.0
 11
460.47962695108492
 21
141.59664111866411
 31
0.0
  0
ARC
  5
20FB8
  8
0
 10
462.89444151680749
 20
142.24368873142021
 30
0.0
 40
2.4999999999999778
 50
194.9999999999944
 51
270.0
  0
ARC
  5
20FB9
  8
0
 10
462.89444151680749
 20
217.24368873142021
 30
0.0
 40
2.4999999999999778
 50
90.0
 51
165.00000000000551
  0
LINE
  5
20FCC
  8
0
 10
481.37831465260149
 20
139.74368873142021
 30
0.0
 11
481.37831465260149
 21
219.74368873142021
 31
0.0
  0
LINE
  5
20FCE
  8
0
 10
484.63637808470452
 20
144.74368873142021
 30
0.0
 11
484.63637808470452
 21
214.74368873142021
 31
0.0
  0
LINE
  5
20FD1
  8
0
 10
459.63637808470452
 20
144.74368873142021
 30
0.0
 11
459.63637808470452
 21
214.74368873142021
 31
0.0
  0
LINE
  5
20FD2
  8
0
 10
462.8944415168076
 20
139.74368873142021
 30
0.0
 11
462.8944415168076
 21
219.74368873142021
 31
0.0
  0
LINE
  5
210A3
  8
0
 10
335.95048305371608
 20
392.71537566918641
 30
0.0
 11
285.95048305371608
 21
392.71537566918641
 31
0.0
  0
LINE
  5
210A7
  8
0
 10
337.59018573597479
 20
377.07567298692771
 30
0.0
 11
337.59018573597479
 21
391.07567298692771
 31
0.0
  0
LINE
  5
210A8
  8
0
 10
284.31078037145733
 20
377.07567298692771
 30
0.0
 11
284.31078037145733
 21
391.07567298692771
 31
0.0
  0
ARC
  5
210AB
  8
0
 10
285.95048305371608
 20
391.07567298692771
 30
0.0
 40
1.6397026822587439
 50
90.0
 51
180.0
  0
LINE
  5
210AE
  8
0
 10
342.36629059102557
 20
341.57567298692771
 30
0.0
 11
356.26137218617151
 21
341.57567298692771
 31
0.0
  0
ARC
  5
210AF
  8
0
 10
342.36629059102557
 20
351.57567298692771
 30
0.0
 40
10.00000000000003
 50
210.0
 51
270.0
  0
LINE
  5
210B0
  8
0
 10
330.67494763993568
 20
351.82567298692771
 30
0.0
 11
333.70603655318121
 21
346.57567298692771
 31
0.0
  0
ARC
  5
210B1
  8
0
 10
317.25155388127689
 20
344.0756729869276
 30
0.0
 40
15.5
 50
30.0
 51
90.0
  0
LINE
  5
210B2
  8
0
 10
304.64941222615528
 20
359.57567298692771
 30
0.0
 11
317.25155388127689
 21
359.57567298692771
 31
0.0
  0
ARC
  5
210B3
  8
0
 10
304.64941222615528
 20
344.0756729869276
 30
0.0
 40
15.49999999999998
 50
90.0
 51
150.0
  0
LINE
  5
210B4
  8
0
 10
288.19492955425102
 20
346.57567298692771
 30
0.0
 11
291.22601846749649
 21
351.82567298692771
 31
0.0
  0
ARC
  5
210B5
  8
0
 10
279.53467551640648
 20
351.57567298692771
 30
0.0
 40
10.00000000000003
 50
270.0
 51
330.0
  0
LINE
  5
210B6
  8
0
 10
265.63959392126071
 20
341.57567298692771
 30
0.0
 11
279.53467551640648
 21
341.57567298692771
 31
0.0
  0
LINE
  5
210B7
  8
0
 10
260.95048305371608
 20
359.07567298692771
 30
0.0
 11
265.63959392126071
 21
341.57567298692771
 31
0.0
  0
LINE
  5
210B8
  8
0
 10
260.95048305371608
 20
409.0756729869276
 30
0.0
 11
260.95048305371608
 21
359.07567298692771
 31
0.0
  0
LINE
  5
210B9
  8
0
 10
265.63959392126071
 20
426.5756729869276
 30
0.0
 11
260.95048305371608
 21
409.0756729869276
 31
0.0
  0
LINE
  5
210BA
  8
0
 10
279.53467551640648
 20
426.5756729869276
 30
0.0
 11
265.63959392126071
 21
426.5756729869276
 31
0.0
  0
ARC
  5
210BB
  8
0
 10
279.53467551640648
 20
416.57567298692771
 30
0.0
 40
10.00000000000005
 50
30.0
 51
90.0
  0
LINE
  5
210BC
  8
0
 10
291.22601846749649
 20
416.3256729869276
 30
0.0
 11
288.19492955425102
 21
421.5756729869276
 31
0.0
  0
ARC
  5
210BD
  8
0
 10
304.64941222615528
 20
424.0756729869276
 30
0.0
 40
15.49999999999997
 50
210.0
 51
270.0
  0
LINE
  5
210BE
  8
0
 10
317.25155388127689
 20
408.5756729869276
 30
0.0
 11
304.64941222615528
 21
408.5756729869276
 31
0.0
  0
ARC
  5
210BF
  8
0
 10
317.25155388127689
 20
424.0756729869276
 30
0.0
 40
15.49999999999998
 50
270.0
 51
330.0
  0
LINE
  5
210C0
  8
0
 10
333.70603655318121
 20
421.5756729869276
 30
0.0
 11
330.67494763993568
 21
416.3256729869276
 31
0.0
  0
ARC
  5
210C1
  8
0
 10
342.36629059102557
 20
416.57567298692771
 30
0.0
 40
10.00000000000003
 50
90.0
 51
150.0
  0
LINE
  5
210C2
  8
0
 10
356.26137218617151
 20
426.5756729869276
 30
0.0
 11
342.36629059102557
 21
426.5756729869276
 31
0.0
  0
LINE
  5
210C3
  8
0
 10
360.95048305371608
 20
409.0756729869276
 30
0.0
 11
356.26137218617151
 21
426.5756729869276
 31
0.0
  0
LINE
  5
210C4
  8
0
 10
360.95048305371608
 20
359.07567298692771
 30
0.0
 11
360.95048305371608
 21
409.0756729869276
 31
0.0
  0
LINE
  5
210C5
  8
0
 10
356.26137218617151
 20
341.57567298692771
 30
0.0
 11
360.95048305371608
 21
359.07567298692771
 31
0.0
  0
ARC
  5
210C6
  8
0
 10
270.95048305371608
 20
414.0756729869276
 30
0.0
 40
4.4999999999999876
 50
18.43494882291423
 51
198.43494882291421
  0
LINE
  5
210C7
  8
0
 10
266.6814082124888
 20
412.65264803985201
 30
0.0
 11
269.1814082124888
 21
405.15264803985201
 31
0.0
  0
ARC
  5
210C8
  8
0
 10
273.45048305371608
 20
406.5756729869276
 30
0.0
 40
4.4999999999999938
 50
198.43494882291421
 51
18.43494882291423
  0
LINE
  5
210C9
  8
0
 10
277.71955789494342
 20
407.9986979340037
 30
0.0
 11
275.21955789494342
 21
415.4986979340037
 31
0.0
  0
ARC
  5
210CA
  8
0
 10
270.95048305371608
 20
354.07567298692771
 30
0.0
 40
4.5000000000000018
 50
161.56505117708571
 51
341.56505117708571
  0
LINE
  5
210CB
  8
0
 10
275.21955789494342
 20
352.65264803985201
 30
0.0
 11
277.71955789494342
 21
360.15264803985201
 31
0.0
  0
ARC
  5
210CC
  8
0
 10
273.45048305371608
 20
361.57567298692771
 30
0.0
 40
4.5000000000000018
 50
341.56505117708571
 51
161.56505117708571
  0
LINE
  5
210CD
  8
0
 10
269.1814082124888
 20
362.99869793400381
 30
0.0
 11
266.68140821248869
 21
355.4986979340037
 31
0.0
  0
ARC
  5
210CE
  8
0
 10
348.45048305371608
 20
406.5756729869276
 30
0.0
 40
4.4999999999999973
 50
161.56505117708571
 51
341.56505117708571
  0
LINE
  5
210CF
  8
0
 10
352.71955789494342
 20
405.15264803985201
 30
0.0
 11
355.21955789494331
 21
412.65264803985201
 31
0.0
  0
ARC
  5
210D0
  8
0
 10
350.95048305371608
 20
414.0756729869276
 30
0.0
 40
4.5000000000000009
 50
341.56505117708571
 51
161.56505117708571
  0
LINE
  5
210D1
  8
0
 10
346.6814082124888
 20
415.4986979340037
 30
0.0
 11
344.1814082124888
 21
407.9986979340037
 31
0.0
  0
ARC
  5
210D2
  8
0
 10
348.45048305371608
 20
361.57567298692771
 30
0.0
 40
4.5000000000000027
 50
18.43494882291423
 51
198.43494882291421
  0
LINE
  5
210D3
  8
0
 10
344.1814082124888
 20
360.15264803985201
 30
0.0
 11
346.6814082124888
 21
352.65264803985201
 31
0.0
  0
ARC
  5
210D4
  8
0
 10
350.95048305371608
 20
354.07567298692771
 30
0.0
 40
4.5000000000000027
 50
198.43494882291421
 51
18.43494882291423
  0
LINE
  5
210D5
  8
0
 10
355.21955789494342
 20
355.4986979340037
 30
0.0
 11
352.71955789494342
 21
362.99869793400381
 31
0.0
  0
LINE
  5
210D6
  8
0
 10
342.6802289665423
 20
391.07567298692771
 30
0.0
 11
342.6802289665423
 21
377.07567298692771
 31
0.0
  0
LINE
  5
210D7
  8
0
 10
285.95048305371608
 20
397.80541889975387
 30
0.0
 11
335.95048305371608
 21
397.80541889975387
 31
0.0
  0
ARC
  5
210D8
  8
0
 10
285.95048305371608
 20
391.07567298692771
 30
0.0
 40
6.7297459128262211
 50
90.0
 51
179.99999914622629
  0
LINE
  5
210D9
  8
0
 10
279.22073714088992
 20
391.07567298692771
 30
0.0
 11
279.22073714088992
 21
377.07567298692771
 31
0.0
  0
LINE
  5
210DA
  8
0
 10
285.95048305371608
 20
370.34592707410138
 30
0.0
 11
335.95048305371608
 21
370.34592707410138
 31
0.0
  0
ARC
  5
210DB
  8
0
 10
285.95048305371608
 20
377.07567298692771
 30
0.0
 40
1.6397026822587499
 50
180.0
 51
270.0
  0
ARC
  5
210DE
  8
0
 10
285.95048305371608
 20
377.07567298692771
 30
0.0
 40
6.7297459128262238
 50
180.0
 51
270.0
  0
ARC
  5
210E6
  8
0
 10
335.95048305371608
 20
391.07567298692771
 30
0.0
 40
6.7297459128262167
 50
0.0
 51
90.0
  0
ARC
  5
210E8
  8
0
 10
335.95048305371608
 20
391.07567298692771
 30
0.0
 40
1.639702682258743
 50
0.0
 51
90.0
  0
ARC
  5
210EE
  8
0
 10
335.95048305371608
 20
377.07567298692771
 30
0.0
 40
1.639702682258747
 50
270.0
 51
0.0
  0
ARC
  5
210F0
  8
0
 10
335.95048305371608
 20
377.07567298692771
 30
0.0
 40
6.7297459128262194
 50
270.0
 51
0.0000008537736463
  0
LINE
  5
210F2
  8
1
 10
264.21441507621631
 20
414.0756729869276
 30
0.0
 11
277.68655103121591
 21
414.0756729869276
 31
0.0
  0
LINE
  5
210F3
  8
1
 10
270.95048305371608
 20
407.33960500942788
 30
0.0
 11
270.95048305371608
 21
420.81174096442732
 31
0.0
  0
LINE
  5
210F4
  8
1
 10
266.71441507621631
 20
406.5756729869276
 30
0.0
 11
280.18655103121591
 21
406.5756729869276
 31
0.0
  0
LINE
  5
210F5
  8
1
 10
273.45048305371608
 20
399.83960500942788
 30
0.0
 11
273.45048305371608
 21
413.31174096442732
 31
0.0
  0
LINE
  5
210F6
  8
1
 10
264.21441507621631
 20
354.07567298692771
 30
0.0
 11
277.68655103121591
 21
354.07567298692771
 31
0.0
  0
LINE
  5
210F7
  8
1
 10
270.95048305371608
 20
347.33960500942788
 30
0.0
 11
270.95048305371608
 21
360.81174096442737
 31
0.0
  0
LINE
  5
210F8
  8
1
 10
266.71441507621631
 20
361.57567298692771
 30
0.0
 11
280.18655103121591
 21
361.57567298692771
 31
0.0
  0
LINE
  5
210F9
  8
1
 10
273.45048305371608
 20
354.83960500942788
 30
0.0
 11
273.45048305371608
 21
368.31174096442737
 31
0.0
  0
LINE
  5
210FA
  8
1
 10
341.71441507621631
 20
406.5756729869276
 30
0.0
 11
355.18655103121591
 21
406.5756729869276
 31
0.0
  0
LINE
  5
210FB
  8
1
 10
348.45048305371608
 20
399.83960500942788
 30
0.0
 11
348.45048305371608
 21
413.31174096442732
 31
0.0
  0
LINE
  5
210FC
  8
1
 10
344.21441507621631
 20
414.0756729869276
 30
0.0
 11
357.6865510312158
 21
414.0756729869276
 31
0.0
  0
LINE
  5
210FD
  8
1
 10
350.95048305371608
 20
407.33960500942788
 30
0.0
 11
350.95048305371608
 21
420.81174096442732
 31
0.0
  0
LINE
  5
210FE
  8
1
 10
341.71441507621631
 20
361.57567298692771
 30
0.0
 11
355.18655103121591
 21
361.57567298692771
 31
0.0
  0
LINE
  5
210FF
  8
1
 10
348.45048305371608
 20
354.83960500942788
 30
0.0
 11
348.45048305371608
 21
368.31174096442737
 31
0.0
  0
LINE
  5
21100
  8
1
 10
344.21441507621631
 20
354.07567298692771
 30
0.0
 11
357.68655103121591
 21
354.07567298692771
 31
0.0
  0
LINE
  5
21101
  8
1
 10
350.95048305371608
 20
347.33960500942788
 30
0.0
 11
350.95048305371608
 21
360.81174096442737
 31
0.0
  0
LINE
  5
21102
  8
0
 10
305.13548305371609
 20
359.57567298692771
 30
0.0
 11
305.13548305371609
 21
358.97567298692769
 31
0.0
  0
LINE
  5
21103
  8
0
 10
316.76548305371608
 20
358.97567298692769
 30
0.0
 11
316.76548305371608
 21
359.57567298692771
 31
0.0
  0
LINE
  5
21104
  8
0
 10
306.95048305371608
 20
418.80867298692777
 30
0.0
 11
306.95048305371608
 21
416.57567298692771
 31
0.0
  0
LINE
  5
21105
  8
0
 10
314.95048305371608
 20
416.57567298692771
 30
0.0
 11
314.95048305371608
 21
418.80867298692777
 31
0.0
  0
LINE
  5
21106
  8
0
 10
307.71748305371608
 20
419.5756729869276
 30
0.0
 11
306.95048305371608
 21
418.80867298692777
 31
0.0
  0
LINE
  5
21107
  8
0
 10
314.95048305371608
 20
418.80867298692777
 30
0.0
 11
314.18348305371609
 21
419.5756729869276
 31
0.0
  0
LINE
  5
21108
  8
0
 10
317.20881638704941
 20
354.27567298692787
 30
0.0
 11
318.1769839230729
 21
354.53509269634333
 31
0.0
  0
LINE
  5
21109
  8
0
 10
303.72398218435927
 20
354.53509269634333
 30
0.0
 11
304.69214972038282
 21
354.27567298692787
 31
0.0
  0
LINE
  5
2110A
  8
0
 10
318.1769839230729
 20
358.71625327751241
 30
0.0
 11
317.20881638704941
 21
358.97567298692769
 31
0.0
  0
LINE
  5
2110B
  8
0
 10
304.69214972038282
 20
358.97567298692769
 30
0.0
 11
303.72398218435927
 21
358.71625327751241
 31
0.0
  0
LINE
  5
2110E
  8
0
 10
305.13548305371609
 20
416.57567298692771
 30
0.0
 11
305.13548305371609
 21
414.0756729869276
 31
0.0
  0
LINE
  5
2110F
  8
0
 10
316.76548305371608
 20
414.0756729869276
 30
0.0
 11
316.76548305371608
 21
416.57567298692771
 31
0.0
  0
LINE
  5
21110
  8
0
 10
317.20881638704941
 20
408.5756729869276
 30
0.0
 11
318.1769839230729
 21
408.83509269634351
 31
0.0
  0
LINE
  5
21111
  8
0
 10
303.72398218435927
 20
408.83509269634351
 30
0.0
 11
304.69214972038282
 21
408.5756729869276
 31
0.0
  0
LINE
  5
21112
  8
0
 10
318.1769839230729
 20
413.81625327751232
 30
0.0
 11
317.20881638704941
 21
414.0756729869276
 31
0.0
  0
LINE
  5
21113
  8
0
 10
304.69214972038282
 20
414.0756729869276
 30
0.0
 11
303.72398218435927
 21
413.81625327751232
 31
0.0
  0
LINE
  5
21118
  8
0
 10
314.95048305371608
 20
418.80867298692777
 30
0.0
 11
306.95048305371608
 21
418.80867298692777
 31
0.0
  0
LINE
  5
21119
  8
0
 10
314.18348305371609
 20
419.5756729869276
 30
0.0
 11
307.71748305371608
 21
419.5756729869276
 31
0.0
  0
LINE
  5
2111A
  8
0
 10
317.20881638704941
 20
354.27567298692787
 30
0.0
 11
304.69214972038282
 21
354.27567298692787
 31
0.0
  0
LINE
  5
2111B
  8
0
 10
317.20881638704941
 20
358.97567298692769
 30
0.0
 11
304.69214972038282
 21
358.97567298692769
 31
0.0
  0
POLYLINE
  5
2111C
  8
0
 66
     1
 10
0.0
 20
0.0
 30
0.0
  0
VERTEX
  5
29644
  8
0
 10
307.33723261903771
 20
354.53509269634333
 30
0.0
  0
VERTEX
  5
29645
  8
0
 10
307.01265872336552
 20
354.45424804308499
 30
0.0
  0
VERTEX
  5
29646
  8
0
 10
306.40309814459363
 20
354.33963770433229
 30
0.0
  0
VERTEX
  5
29647
  8
0
 10
305.82068997301792
 20
354.28286312054752
 30
0.0
  0
VERTEX
  5
29648
  8
0
 10
305.53060740169849
 20
354.27567298692787
 30
0.0
  0
SEQEND
  5
29649
  8
0
  0
POLYLINE
  5
2111D
  8
0
 66
     1
 10
0.0
 20
0.0
 30
0.0
  0
VERTEX
  5
2964A
  8
0
 10
305.53060740169849
 20
354.27567298692787
 30
0.0
  0
VERTEX
  5
2964B
  8
0
 10
305.240524830379
 20
354.28286312054752
 30
0.0
  0
VERTEX
  5
2964C
  8
0
 10
304.65811665880341
 20
354.33963770433229
 30
0.0
  0
VERTEX
  5
2964D
  8
0
 10
304.0485560800314
 20
354.45424804308499
 30
0.0
  0
VERTEX
  5
2964E
  8
0
 10
303.72398218435927
 20
354.53509269634333
 30
0.0
  0
SEQEND
  5
2964F
  8
0
  0
POLYLINE
  5
2111E
  8
0
 66
     1
 10
0.0
 20
0.0
 30
0.0
  0
VERTEX
  5
29650
  8
0
 10
303.72398218435927
 20
358.71625327751241
 30
0.0
  0
VERTEX
  5
29651
  8
0
 10
304.0485560800314
 20
358.79709793077058
 30
0.0
  0
VERTEX
  5
29652
  8
0
 10
304.65811665880341
 20
358.91170826952339
 30
0.0
  0
VERTEX
  5
29653
  8
0
 10
305.240524830379
 20
358.96848285330771
 30
0.0
  0
VERTEX
  5
29654
  8
0
 10
305.53060740169849
 20
358.97567298692769
 30
0.0
  0
SEQEND
  5
29655
  8
0
  0
POLYLINE
  5
2111F
  8
0
 66
     1
 10
0.0
 20
0.0
 30
0.0
  0
VERTEX
  5
29656
  8
0
 10
305.53060740169849
 20
358.97567298692769
 30
0.0
  0
VERTEX
  5
29657
  8
0
 10
305.82068997301798
 20
358.96848285330771
 30
0.0
  0
VERTEX
  5
29658
  8
0
 10
306.40309814459363
 20
358.91170826952339
 30
0.0
  0
VERTEX
  5
29659
  8
0
 10
307.01265872336552
 20
358.79709793077058
 30
0.0
  0
VERTEX
  5
2965A
  8
0
 10
307.33723261903771
 20
358.71625327751241
 30
0.0
  0
SEQEND
  5
2965B
  8
0
  0
LINE
  5
21120
  8
0
 10
303.72398218435927
 20
354.53509269634333
 30
0.0
 11
303.72398218435927
 21
358.71625327751241
 31
0.0
  0
POLYLINE
  5
21129
  8
0
 66
     1
 10
0.0
 20
0.0
 30
0.0
  0
VERTEX
  5
2965C
  8
0
 10
316.37035870573368
 20
358.97567298692769
 30
0.0
  0
VERTEX
  5
2965D
  8
0
 10
316.66044127705322
 20
358.96848285330771
 30
0.0
  0
VERTEX
  5
2965E
  8
0
 10
317.24284944862882
 20
358.91170826952339
 30
0.0
  0
VERTEX
  5
2965F
  8
0
 10
317.85241002740071
 20
358.79709793077058
 30
0.0
  0
VERTEX
  5
29660
  8
0
 10
318.1769839230729
 20
358.71625327751241
 30
0.0
  0
SEQEND
  5
29661
  8
0
  0
POLYLINE
  5
2112A
  8
0
 66
     1
 10
0.0
 20
0.0
 30
0.0
  0
VERTEX
  5
29662
  8
0
 10
318.1769839230729
 20
354.53509269634333
 30
0.0
  0
VERTEX
  5
29663
  8
0
 10
317.85241002740071
 20
354.45424804308499
 30
0.0
  0
VERTEX
  5
29664
  8
0
 10
317.24284944862882
 20
354.33963770433229
 30
0.0
  0
VERTEX
  5
29665
  8
0
 10
316.66044127705322
 20
354.28286312054752
 30
0.0
  0
VERTEX
  5
29666
  8
0
 10
316.37035870573368
 20
354.27567298692787
 30
0.0
  0
SEQEND
  5
29667
  8
0
  0
POLYLINE
  5
2112B
  8
0
 66
     1
 10
0.0
 20
0.0
 30
0.0
  0
VERTEX
  5
29668
  8
0
 10
316.37035870573368
 20
354.27567298692787
 30
0.0
  0
VERTEX
  5
29669
  8
0
 10
316.08027613441431
 20
354.28286312054752
 30
0.0
  0
VERTEX
  5
2966A
  8
0
 10
315.4978679628386
 20
354.33963770433229
 30
0.0
  0
VERTEX
  5
2966B
  8
0
 10
314.88830738406671
 20
354.45424804308499
 30
0.0
  0
VERTEX
  5
2966C
  8
0
 10
314.56373348839452
 20
354.53509269634333
 30
0.0
  0
SEQEND
  5
2966D
  8
0
  0
POLYLINE
  5
2112C
  8
0
 66
     1
 10
0.0
 20
0.0
 30
0.0
  0
VERTEX
  5
2966E
  8
0
 10
314.56373348839452
 20
358.71625327751241
 30
0.0
  0
VERTEX
  5
2966F
  8
0
 10
314.88830738406671
 20
358.79709793077058
 30
0.0
  0
VERTEX
  5
29670
  8
0
 10
315.49786796283848
 20
358.91170826952339
 30
0.0
  0
VERTEX
  5
29671
  8
0
 10
316.08027613441431
 20
358.96848285330771
 30
0.0
  0
VERTEX
  5
29672
  8
0
 10
316.37035870573368
 20
358.97567298692769
 30
0.0
  0
SEQEND
  5
29673
  8
0
  0
LINE
  5
21130
  8
0
 10
318.1769839230729
 20
354.53509269634333
 30
0.0
 11
318.1769839230729
 21
358.71625327751241
 31
0.0
  0
POLYLINE
  5
21132
  8
0
 66
     1
 10
0.0
 20
0.0
 30
0.0
  0
VERTEX
  5
29674
  8
0
 10
310.95048305371608
 20
358.97567298692769
 30
0.0
  0
VERTEX
  5
29675
  8
0
 10
311.53064819635512
 20
358.96848285330771
 30
0.0
  0
VERTEX
  5
29676
  8
0
 10
312.69546453950642
 20
358.91170826952339
 30
0.0
  0
VERTEX
  5
29677
  8
0
 10
313.91458569705009
 20
358.79709793077058
 30
0.0
  0
VERTEX
  5
29678
  8
0
 10
314.56373348839452
 20
358.71625327751241
 30
0.0
  0
SEQEND
  5
29679
  8
0
  0
LINE
  5
21133
  8
0
 10
314.56373348839452
 20
354.53509269634333
 30
0.0
 11
314.56373348839452
 21
358.71625327751241
 31
0.0
  0
POLYLINE
  5
21134
  8
0
 66
     1
 10
0.0
 20
0.0
 30
0.0
  0
VERTEX
  5
2967A
  8
0
 10
314.56373348839452
 20
354.53509269634333
 30
0.0
  0
VERTEX
  5
2967B
  8
0
 10
313.91458569705009
 20
354.45424804308499
 30
0.0
  0
VERTEX
  5
2967C
  8
0
 10
312.69546453950642
 20
354.33963770433229
 30
0.0
  0
VERTEX
  5
2967D
  8
0
 10
311.530648196355
 20
354.28286312054752
 30
0.0
  0
VERTEX
  5
2967E
  8
0
 10
310.95048305371608
 20
354.27567298692787
 30
0.0
  0
SEQEND
  5
2967F
  8
0
  0
POLYLINE
  5
21135
  8
0
 66
     1
 10
0.0
 20
0.0
 30
0.0
  0
VERTEX
  5
29680
  8
0
 10
310.95048305371608
 20
354.27567298692787
 30
0.0
  0
VERTEX
  5
29681
  8
0
 10
310.37031791107722
 20
354.28286312054752
 30
0.0
  0
VERTEX
  5
29682
  8
0
 10
309.20550156792581
 20
354.33963770433229
 30
0.0
  0
VERTEX
  5
29683
  8
0
 10
307.98638041038208
 20
354.45424804308499
 30
0.0
  0
VERTEX
  5
29684
  8
0
 10
307.33723261903771
 20
354.53509269634333
 30
0.0
  0
SEQEND
  5
29685
  8
0
  0
LINE
  5
21136
  8
0
 10
307.33723261903771
 20
354.53509269634333
 30
0.0
 11
307.33723261903771
 21
358.71625327751241
 31
0.0
  0
POLYLINE
  5
21137
  8
0
 66
     1
 10
0.0
 20
0.0
 30
0.0
  0
VERTEX
  5
29686
  8
0
 10
307.33723261903771
 20
358.71625327751241
 30
0.0
  0
VERTEX
  5
29687
  8
0
 10
307.98638041038208
 20
358.79709793077058
 30
0.0
  0
VERTEX
  5
29688
  8
0
 10
309.20550156792581
 20
358.91170826952339
 30
0.0
  0
VERTEX
  5
29689
  8
0
 10
310.37031791107722
 20
358.96848285330771
 30
0.0
  0
VERTEX
  5
2968A
  8
0
 10
310.95048305371608
 20
358.97567298692769
 30
0.0
  0
SEQEND
  5
2968B
  8
0
  0
LINE
  5
21138
  8
0
 10
316.76548305371608
 20
416.57567298692771
 30
0.0
 11
305.13548305371609
 21
416.57567298692771
 31
0.0
  0
LINE
  5
21139
  8
0
 10
317.20881638704941
 20
414.0756729869276
 30
0.0
 11
304.69214972038282
 21
414.0756729869276
 31
0.0
  0
POLYLINE
  5
2113A
  8
0
 66
     1
 10
0.0
 20
0.0
 30
0.0
  0
VERTEX
  5
2968C
  8
0
 10
307.33723261903771
 20
408.83509269634351
 30
0.0
  0
VERTEX
  5
2968D
  8
0
 10
307.01265872336552
 20
408.75424804308523
 30
0.0
  0
VERTEX
  5
2968E
  8
0
 10
306.40309814459363
 20
408.6396377043319
 30
0.0
  0
VERTEX
  5
2968F
  8
0
 10
305.82068997301792
 20
408.5828631205477
 30
0.0
  0
VERTEX
  5
29690
  8
0
 10
305.53060740169849
 20
408.5756729869276
 30
0.0
  0
SEQEND
  5
29691
  8
0
  0
POLYLINE
  5
2113B
  8
0
 66
     1
 10
0.0
 20
0.0
 30
0.0
  0
VERTEX
  5
29692
  8
0
 10
305.53060740169849
 20
408.5756729869276
 30
0.0
  0
VERTEX
  5
29693
  8
0
 10
305.240524830379
 20
408.5828631205477
 30
0.0
  0
VERTEX
  5
29694
  8
0
 10
304.65811665880341
 20
408.6396377043319
 30
0.0
  0
VERTEX
  5
29695
  8
0
 10
304.0485560800314
 20
408.75424804308523
 30
0.0
  0
VERTEX
  5
29696
  8
0
 10
303.72398218435927
 20
408.83509269634351
 30
0.0
  0
SEQEND
  5
29697
  8
0
  0
POLYLINE
  5
2113C
  8
0
 66
     1
 10
0.0
 20
0.0
 30
0.0
  0
VERTEX
  5
29698
  8
0
 10
303.72398218435927
 20
413.81625327751232
 30
0.0
  0
VERTEX
  5
29699
  8
0
 10
304.0485560800314
 20
413.89709793077049
 30
0.0
  0
VERTEX
  5
2969A
  8
0
 10
304.65811665880341
 20
414.01170826952318
 30
0.0
  0
VERTEX
  5
2969B
  8
0
 10
305.240524830379
 20
414.06848285330801
 30
0.0
  0
VERTEX
  5
2969C
  8
0
 10
305.53060740169849
 20
414.0756729869276
 30
0.0
  0
SEQEND
  5
2969D
  8
0
  0
POLYLINE
  5
2113D
  8
0
 66
     1
 10
0.0
 20
0.0
 30
0.0
  0
VERTEX
  5
2969E
  8
0
 10
305.53060740169849
 20
414.0756729869276
 30
0.0
  0
VERTEX
  5
2969F
  8
0
 10
305.82068997301792
 20
414.06848285330801
 30
0.0
  0
VERTEX
  5
296A0
  8
0
 10
306.40309814459363
 20
414.01170826952318
 30
0.0
  0
VERTEX
  5
296A1
  8
0
 10
307.01265872336552
 20
413.89709793077049
 30
0.0
  0
VERTEX
  5
296A2
  8
0
 10
307.33723261903771
 20
413.81625327751232
 30
0.0
  0
SEQEND
  5
296A3
  8
0
  0
LINE
  5
2113E
  8
0
 10
303.72398218435927
 20
408.83509269634351
 30
0.0
 11
303.72398218435927
 21
413.81625327751232
 31
0.0
  0
POLYLINE
  5
21147
  8
0
 66
     1
 10
0.0
 20
0.0
 30
0.0
  0
VERTEX
  5
296A4
  8
0
 10
316.37035870573368
 20
414.0756729869276
 30
0.0
  0
VERTEX
  5
296A5
  8
0
 10
316.66044127705322
 20
414.06848285330801
 30
0.0
  0
VERTEX
  5
296A6
  8
0
 10
317.24284944862882
 20
414.01170826952318
 30
0.0
  0
VERTEX
  5
296A7
  8
0
 10
317.85241002740071
 20
413.89709793077049
 30
0.0
  0
VERTEX
  5
296A8
  8
0
 10
318.1769839230729
 20
413.81625327751232
 30
0.0
  0
SEQEND
  5
296A9
  8
0
  0
POLYLINE
  5
21148
  8
0
 66
     1
 10
0.0
 20
0.0
 30
0.0
  0
VERTEX
  5
296AA
  8
0
 10
318.1769839230729
 20
408.83509269634351
 30
0.0
  0
VERTEX
  5
296AB
  8
0
 10
317.85241002740071
 20
408.75424804308523
 30
0.0
  0
VERTEX
  5
296AC
  8
0
 10
317.24284944862882
 20
408.6396377043319
 30
0.0
  0
VERTEX
  5
296AD
  8
0
 10
316.66044127705322
 20
408.5828631205477
 30
0.0
  0
VERTEX
  5
296AE
  8
0
 10
316.37035870573368
 20
408.5756729869276
 30
0.0
  0
SEQEND
  5
296AF
  8
0
  0
POLYLINE
  5
21149
  8
0
 66
     1
 10
0.0
 20
0.0
 30
0.0
  0
VERTEX
  5
296B0
  8
0
 10
316.37035870573368
 20
408.5756729869276
 30
0.0
  0
VERTEX
  5
296B1
  8
0
 10
316.08027613441431
 20
408.5828631205477
 30
0.0
  0
VERTEX
  5
296B2
  8
0
 10
315.4978679628386
 20
408.6396377043319
 30
0.0
  0
VERTEX
  5
296B3
  8
0
 10
314.88830738406671
 20
408.75424804308523
 30
0.0
  0
VERTEX
  5
296B4
  8
0
 10
314.56373348839452
 20
408.83509269634351
 30
0.0
  0
SEQEND
  5
296B5
  8
0
  0
POLYLINE
  5
2114A
  8
0
 66
     1
 10
0.0
 20
0.0
 30
0.0
  0
VERTEX
  5
296B6
  8
0
 10
314.56373348839452
 20
413.81625327751232
 30
0.0
  0
VERTEX
  5
296B7
  8
0
 10
314.88830738406671
 20
413.89709793077049
 30
0.0
  0
VERTEX
  5
296B8
  8
0
 10
315.4978679628386
 20
414.01170826952318
 30
0.0
  0
VERTEX
  5
296B9
  8
0
 10
316.08027613441431
 20
414.06848285330801
 30
0.0
  0
VERTEX
  5
296BA
  8
0
 10
316.37035870573368
 20
414.0756729869276
 30
0.0
  0
SEQEND
  5
296BB
  8
0
  0
LINE
  5
2114E
  8
0
 10
318.1769839230729
 20
408.83509269634351
 30
0.0
 11
318.1769839230729
 21
413.81625327751232
 31
0.0
  0
POLYLINE
  5
21150
  8
0
 66
     1
 10
0.0
 20
0.0
 30
0.0
  0
VERTEX
  5
296BC
  8
0
 10
310.95048305371608
 20
414.0756729869276
 30
0.0
  0
VERTEX
  5
296BD
  8
0
 10
311.53064819635512
 20
414.06848285330801
 30
0.0
  0
VERTEX
  5
296BE
  8
0
 10
312.69546453950642
 20
414.01170826952318
 30
0.0
  0
VERTEX
  5
296BF
  8
0
 10
313.91458569705009
 20
413.89709793077049
 30
0.0
  0
VERTEX
  5
296C0
  8
0
 10
314.56373348839452
 20
413.81625327751232
 30
0.0
  0
SEQEND
  5
296C1
  8
0
  0
LINE
  5
21151
  8
0
 10
314.56373348839452
 20
408.83509269634351
 30
0.0
 11
314.56373348839452
 21
413.81625327751232
 31
0.0
  0
POLYLINE
  5
21152
  8
0
 66
     1
 10
0.0
 20
0.0
 30
0.0
  0
VERTEX
  5
296C2
  8
0
 10
314.56373348839452
 20
408.83509269634351
 30
0.0
  0
VERTEX
  5
296C3
  8
0
 10
313.91458569705622
 20
408.75424804308562
 30
0.0
  0
VERTEX
  5
296C4
  8
0
 10
312.69546453952358
 20
408.63963770433338
 30
0.0
  0
VERTEX
  5
296C5
  8
0
 10
311.53064819638308
 20
408.5828631205481
 30
0.0
  0
VERTEX
  5
296C6
  8
0
 10
310.95048305375002
 20
408.5756729869276
 30
0.0
  0
SEQEND
  5
296C7
  8
0
  0
POLYLINE
  5
21153
  8
0
 66
     1
 10
0.0
 20
0.0
 30
0.0
  0
VERTEX
  5
296C8
  8
0
 10
310.95048305371608
 20
408.5756729869276
 30
0.0
  0
VERTEX
  5
296C9
  8
0
 10
310.37031791107711
 20
408.5828631205477
 30
0.0
  0
VERTEX
  5
296CA
  8
0
 10
309.20550156792581
 20
408.6396377043319
 30
0.0
  0
VERTEX
  5
296CB
  8
0
 10
307.98638041038208
 20
408.75424804308523
 30
0.0
  0
VERTEX
  5
296CC
  8
0
 10
307.33723261903771
 20
408.83509269634351
 30
0.0
  0
SEQEND
  5
296CD
  8
0
  0
LINE
  5
21154
  8
0
 10
307.33723261903771
 20
408.83509269634351
 30
0.0
 11
307.33723261903771
 21
413.81625327751232
 31
0.0
  0
POLYLINE
  5
21155
  8
0
 66
     1
 10
0.0
 20
0.0
 30
0.0
  0
VERTEX
  5
296CE
  8
0
 10
307.33723261903771
 20
413.81625327751232
 30
0.0
  0
VERTEX
  5
296CF
  8
0
 10
307.98638041038208
 20
413.89709793077049
 30
0.0
  0
VERTEX
  5
296D0
  8
0
 10
309.20550156792581
 20
414.01170826952318
 30
0.0
  0
VERTEX
  5
296D1
  8
0
 10
310.37031791107711
 20
414.06848285330801
 30
0.0
  0
VERTEX
  5
296D2
  8
0
 10
310.95048305371608
 20
414.0756729869276
 30
0.0
  0
SEQEND
  5
296D3
  8
0
  0
LINE
  5
24A8D
  8
0
 10
307.33723261903771
 20
186.00202206475339
 30
0.0
 11
314.56373348839452
 21
186.00202206475339
 31
0.0
  0
LINE
  5
24A8E
  8
0
 10
307.33723261903771
 20
173.48535539808699
 30
0.0
 11
314.56373348839452
 21
173.48535539808699
 31
0.0
  0
LINE
  5
24A8F
  8
0
 10
314.56373348839452
 20
186.00202206475339
 30
0.0
 11
318.1769839230729
 21
179.74368873142021
 31
0.0
  0
LINE
  5
24A90
  8
0
 10
318.1769839230729
 20
179.74368873142021
 30
0.0
 11
314.56373348839452
 21
173.48535539808699
 31
0.0
  0
LINE
  5
24A91
  8
0
 10
307.3372326190381
 20
186.00202206475339
 30
0.0
 11
303.72398218435973
 21
179.74368873142021
 31
0.0
  0
LINE
  5
24A92
  8
0
 10
303.72398218435973
 20
179.74368873142021
 30
0.0
 11
307.3372326190381
 21
173.48535539808699
 31
0.0
  0
LINE
  5
24AD2
  8
0
 10
335.95048305371608
 20
375.4359703046689
 30
0.0
 11
285.95048305371608
 21
375.4359703046689
 31
0.0
  0
LINE
  5
24AD3
  8
3
 10
314.18348305371609
 20
419.5756729869276
 30
0.0
 11
314.18348305371609
 21
416.57567298692771
 31
0.0
  0
LINE
  5
24AD4
  8
3
 10
307.71748305371608
 20
419.5756729869276
 30
0.0
 11
307.71748305371608
 21
416.57567298692771
 31
0.0
  0
LINE
  5
24B55
  8
1
 10
428.31855858573317
 20
179.74368873142021
 30
0.0
 11
515.95419758367541
 21
179.74368873142021
 31
0.0
  0
LINE
  5
24B56
  8
1
 10
472.13637808470452
 20
128.59280666813581
 30
0.0
 11
472.13637808470452
 21
257.89457079470458
 31
0.0
  0
LINE
  5
24B57
  8
3
 10
507.63637808470452
 20
176.51068873142049
 30
0.0
 11
504.63637808470457
 21
176.51068873142049
 31
0.0
  0
LINE
  5
24B58
  8
3
 10
507.63637808470452
 20
182.97668873142041
 30
0.0
 11
506.7043145752433
 21
182.97668873142041
 31
0.0
  0
LINE
  5
24B59
  8
3
 10
452.13637808470457
 20
176.51068873142
 30
0.0
 11
449.63637808470457
 21
176.51068873142049
 31
0.0
  0
LINE
  5
24B5A
  8
3
 10
452.13637808470457
 20
182.97668873142081
 30
0.0
 11
449.63637808470457
 21
182.97668873142041
 31
0.0
  0
LINE
  5
24B5B
  8
3
 10
494.63637808470452
 20
182.97668873142081
 30
0.0
 11
492.13637808470457
 21
182.97668873142081
 31
0.0
  0
LINE
  5
24B5C
  8
3
 10
494.63637808470452
 20
176.51068873142
 30
0.0
 11
492.13637808470457
 21
176.51068873142
 31
0.0
  0
LINE
  5
24B5E
  8
0
 10
190.26458802272779
 20
244.74368873142021
 30
0.0
 11
190.26458802272779
 21
195.54817315835811
 31
0.0
  0
LINE
  5
24B5F
  8
0
 10
190.26458802272779
 20
244.74368873142021
 30
0.0
 11
109.26458802272781
 21
244.74368873142021
 31
0.0
  0
LINE
  5
24B60
  8
0
 10
172.26458802272779
 20
244.74368873142021
 30
0.0
 11
172.26458802272779
 21
170.74368873142021
 31
0.0
  0
LINE
  5
24B61
  8
0
 10
109.26458802272781
 20
244.74368873142021
 30
0.0
 11
109.26458802272781
 21
195.54817315835811
 31
0.0
  0
LINE
  5
24B62
  8
0
 10
127.26458802272781
 20
244.74368873142021
 30
0.0
 11
127.26458802272781
 21
170.74368873142021
 31
0.0
  0
POLYLINE
  5
24B63
  8
0
 66
     1
 10
0.0
 20
0.0
 30
0.0
  0
VERTEX
  5
296D4
  8
0
 10
107.4555112363896
 20
192.80321381140581
 30
0.0
  0
VERTEX
  5
296D5
  8
0
 10
107.4431184190713
 20
192.8673780372755
 30
0.0
  0
VERTEX
  5
296D6
  8
0
 10
107.41981620823771
 20
192.9980540033489
 30
0.0
  0
VERTEX
  5
296D7
  8
0
 10
107.398449952753
 20
193.13181860711481
 30
0.0
  0
VERTEX
  5
296D8
  8
0
 10
107.38847597178381
 20
193.1998422354477
 30
0.0
  0
VERTEX
  5
296D9
  8
0
 10
107.3789652028326
 20
193.26861703083341
 30
0.0
  0
VERTEX
  5
296DA
  8
0
 10
107.36130300022
 20
193.40838904400789
 30
0.0
  0
VERTEX
  5
296DB
  8
0
 10
107.3454001545531
 20
193.55106955875181
 30
0.0
  0
VERTEX
  5
296DC
  8
0
 10
107.3311895707277
 20
193.69658920147231
 30
0.0
  0
VERTEX
  5
296DD
  8
0
 10
107.3186006167946
 20
193.8448748990977
 30
0.0
  0
VERTEX
  5
296DE
  8
0
 10
107.30755952288671
 20
193.99585047878011
 30
0.0
  0
VERTEX
  5
296DF
  8
0
 10
107.3025956157008
 20
194.072322473301
 30
0.0
  0
VERTEX
  5
296E0
  8
0
 10
107.2979898026053
 20
194.14943728061101
 30
0.0
  0
VERTEX
  5
296E1
  8
0
 10
107.2898126768193
 20
194.3055550423241
 30
0.0
  0
VERTEX
  5
296E2
  8
0
 10
107.2829475041608
 20
194.46412317331169
 30
0.0
  0
VERTEX
  5
296E3
  8
0
 10
107.2773124700941
 20
194.6250546634883
 30
0.0
  0
VERTEX
  5
296E4
  8
0
 10
107.2728247829146
 20
194.78825793566691
 30
0.0
  0
VERTEX
  5
296E5
  8
0
 10
107.2694009828212
 20
194.95363795671301
 30
0.0
  0
VERTEX
  5
296E6
  8
0
 10
107.2680618654027
 20
195.03711371822959
 30
0.0
  0
VERTEX
  5
296E7
  8
0
 10
107.26695730379249
 20
195.12109669757541
 30
0.0
  0
VERTEX
  5
296E8
  8
0
 10
107.2654100447385
 20
195.29053360376381
 30
0.0
  0
VERTEX
  5
296E9
  8
0
 10
107.264675944659
 20
195.4618460791034
 30
0.0
  0
VERTEX
  5
296EA
  8
0
 10
107.26458802272781
 20
195.54817315835811
 30
0.0
  0
SEQEND
  5
296EB
  8
0
  0
POLYLINE
  5
24B64
  8
0
 66
     1
 10
0.0
 20
0.0
 30
0.0
  0
VERTEX
  5
296EC
  8
0
 10
110.6331089636143
 20
187.2630697375821
 30
0.0
  0
VERTEX
  5
296ED
  8
0
 10
110.4990415125697
 20
187.38402928283361
 30
0.0
  0
VERTEX
  5
296EE
  8
0
 10
110.2375673831087
 20
187.63311123850141
 30
0.0
  0
VERTEX
  5
296EF
  8
0
 10
109.9852572292811
 20
187.8914716985027
 30
0.0
  0
VERTEX
  5
296F0
  8
0
 10
109.8626419465989
 20
188.02402653798339
 30
0.0
  0
VERTEX
  5
296F1
  8
0
 10
109.74244009012369
 20
188.1587737335644
 30
0.0
  0
VERTEX
  5
296F2
  8
0
 10
109.5094326247813
 20
188.4346687536563
 30
0.0
  0
VERTEX
  5
296F3
  8
0
 10
109.28653869954999
 20
188.71879696258969
 30
0.0
  0
VERTEX
  5
296F4
  8
0
 10
109.0740489916037
 20
189.0107878272301
 30
0.0
  0
VERTEX
  5
296F5
  8
0
 10
108.87224060992
 20
189.31026056071181
 30
0.0
  0
VERTEX
  5
296F6
  8
0
 10
108.6813767339014
 20
189.61682461902231
 30
0.0
  0
VERTEX
  5
296F7
  8
0
 10
108.5901273353689
 20
189.77264130710321
 30
0.0
  0
VERTEX
  5
296F8
  8
0
 10
108.50170627016119
 20
189.9300802103148
 30
0.0
  0
VERTEX
  5
296F9
  8
0
 10
108.3334635279231
 20
190.24961881627809
 30
0.0
  0
VERTEX
  5
296FA
  8
0
 10
108.1768679134575
 20
190.57502372488719
 30
0.0
  0
VERTEX
  5
296FB
  8
0
 10
108.0321236439525
 20
190.90587057384019
 30
0.0
  0
VERTEX
  5
296FC
  8
0
 10
107.89941948119311
 20
191.24172790397191
 30
0.0
  0
VERTEX
  5
296FD
  8
0
 10
107.77892848539589
 20
191.58215772192031
 30
0.0
  0
VERTEX
  5
296FE
  8
0
 10
107.72331265706281
 20
191.7539487946101
 30
0.0
  0
VERTEX
  5
296FF
  8
0
 10
107.6708077895202
 20
191.92671607131891
 30
0.0
  0
VERTEX
  5
29700
  8
0
 10
107.57519839435059
 20
192.27495361175889
 30
0.0
  0
VERTEX
  5
29701
  8
0
 10
107.4922249846167
 20
192.62641620478141
 30
0.0
  0
VERTEX
  5
29702
  8
0
 10
107.4555112363896
 20
192.80321381140581
 30
0.0
  0
SEQEND
  5
29703
  8
0
  0
POLYLINE
  5
24B65
  8
0
 66
     1
 10
0.0
 20
0.0
 30
0.0
  0
VERTEX
  5
29704
  8
0
 10
112.26458802272781
 20
185.84852554718421
 30
0.0
  0
VERTEX
  5
29705
  8
0
 10
111.9836186744119
 20
186.0865343654163
 30
0.0
  0
VERTEX
  5
29706
  8
0
 10
111.43054535851201
 20
186.56277011745081
 30
0.0
  0
VERTEX
  5
29707
  8
0
 10
110.893739595428
 20
187.0327475722124
 30
0.0
  0
VERTEX
  5
29708
  8
0
 10
110.6331089636143
 20
187.2630697375821
 30
0.0
  0
SEQEND
  5
29709
  8
0
  0
POLYLINE
  5
24B66
  8
0
 66
     1
 10
0.0
 20
0.0
 30
0.0
  0
VERTEX
  5
2970A
  8
0
 10
125.1445338245837
 20
170.74368873142021
 30
0.0
  0
VERTEX
  5
2970B
  8
0
 10
125.1380231462348
 20
170.7438203750871
 30
0.0
  0
VERTEX
  5
2970C
  8
0
 10
125.1244654017183
 20
170.74487516624589
 30
0.0
  0
VERTEX
  5
2970D
  8
0
 10
125.1101909307086
 20
170.7469887003999
 30
0.0
  0
VERTEX
  5
2970E
  8
0
 10
125.102784449056
 20
170.7484436618156
 30
0.0
  0
SEQEND
  5
2970F
  8
0
  0
POLYLINE
  5
24B67
  8
0
 66
     1
 10
0.0
 20
0.0
 30
0.0
  0
VERTEX
  5
29710
  8
0
 10
123.28815372196669
 20
172.49169888723819
 30
0.0
  0
VERTEX
  5
29711
  8
0
 10
123.1828881309836
 20
172.62140030028419
 30
0.0
  0
VERTEX
  5
29712
  8
0
 10
122.9696060841017
 20
172.89062147628141
 30
0.0
  0
VERTEX
  5
29713
  8
0
 10
122.7540311186853
 20
173.17164610834101
 30
0.0
  0
VERTEX
  5
29714
  8
0
 10
122.64591320432881
 20
173.3160757498099
 30
0.0
  0
SEQEND
  5
29715
  8
0
  0
POLYLINE
  5
24B68
  8
0
 66
     1
 10
0.0
 20
0.0
 30
0.0
  0
VERTEX
  5
29716
  8
0
 10
122.6458953209949
 20
173.3160998372332
 30
0.0
  0
VERTEX
  5
29717
  8
0
 10
122.6252768940446
 20
173.34391530340639
 30
0.0
  0
VERTEX
  5
29718
  8
0
 10
122.5840533557658
 20
173.39979413417359
 30
0.0
  0
VERTEX
  5
29719
  8
0
 10
122.5428576038569
 20
173.45599330151339
 30
0.0
  0
VERTEX
  5
2971A
  8
0
 10
122.52227391192579
 20
173.48420915989249
 30
0.0
  0
SEQEND
  5
2971B
  8
0
  0
LINE
  5
24B69
  8
0
 10
127.26458802272781
 20
170.74368873142021
 30
0.0
 11
125.1445338245837
 21
170.74368873142021
 31
0.0
  0
POLYLINE
  5
24B6A
  8
0
 66
     1
 10
0.0
 20
0.0
 30
0.0
  0
VERTEX
  5
2971C
  8
0
 10
127.15834359385229
 20
170.74368873142021
 30
0.0
  0
VERTEX
  5
2971D
  8
0
 10
127.123155940872
 20
170.74803977270861
 30
0.0
  0
VERTEX
  5
2971E
  8
0
 10
127.03693747977471
 20
170.7832030859422
 30
0.0
  0
VERTEX
  5
2971F
  8
0
 10
126.9296247066881
 20
170.85413574496391
 30
0.0
  0
VERTEX
  5
29720
  8
0
 10
126.8681787600279
 20
170.90306659553329
 30
0.0
  0
VERTEX
  5
29721
  8
0
 10
126.8016581313576
 20
170.96093646929461
 30
0.0
  0
VERTEX
  5
29722
  8
0
 10
126.6538971323116
 20
171.10320947355689
 30
0.0
  0
VERTEX
  5
29723
  8
0
 10
126.4876197372472
 20
171.2800893107983
 30
0.0
  0
VERTEX
  5
29724
  8
0
 10
126.3045103555137
 20
171.49025481269331
 30
0.0
  0
VERTEX
  5
29725
  8
0
 10
126.10652186952581
 20
171.7320861582825
 30
0.0
  0
VERTEX
  5
29726
  8
0
 10
125.8958047902732
 20
172.0037659982072
 30
0.0
  0
VERTEX
  5
29727
  8
0
 10
125.7864598216629
 20
172.15009588205339
 30
0.0
  0
VERTEX
  5
29728
  8
0
 10
125.674908906255
 20
172.30300155498301
 30
0.0
  0
VERTEX
  5
29729
  8
0
 10
125.4466130427256
 20
172.627182603378
 30
0.0
  0
VERTEX
  5
2972A
  8
0
 10
125.2138570374167
 20
172.97342152683041
 30
0.0
  0
VERTEX
  5
2972B
  8
0
 10
124.979724389475
 20
173.33850403929091
 30
0.0
  0
VERTEX
  5
2972C
  8
0
 10
124.7472969222371
 20
173.7190191064951
 30
0.0
  0
VERTEX
  5
2972D
  8
0
 10
124.5133522263815
 20
174.12241473253511
 30
0.0
  0
VERTEX
  5
2972E
  8
0
 10
124.3952957229744
 20
174.33470868139011
 30
0.0
  0
VERTEX
  5
2972F
  8
0
 10
124.2770906374852
 20
174.55380866159379
 30
0.0
  0
VERTEX
  5
29730
  8
0
 10
124.0420426635568
 20
175.01157288388779
 30
0.0
  0
VERTEX
  5
29731
  8
0
 10
123.8119255224547
 20
175.49390983612781
 30
0.0
  0
VERTEX
  5
29732
  8
0
 10
123.6999160763703
 20
175.74368873142021
 30
0.0
  0
SEQEND
  5
29733
  8
0
  0
POLYLINE
  5
24B6B
  8
0
 66
     1
 10
0.0
 20
0.0
 30
0.0
  0
VERTEX
  5
29734
  8
0
 10
121.0868390340168
 20
175.74368873142021
 30
0.0
  0
VERTEX
  5
29735
  8
0
 10
121.2225964850272
 20
175.4971523471954
 30
0.0
  0
VERTEX
  5
29736
  8
0
 10
121.4998104276838
 20
175.0207818056324
 30
0.0
  0
VERTEX
  5
29737
  8
0
 10
121.7809400131451
 20
174.56810037685449
 30
0.0
  0
VERTEX
  5
29738
  8
0
 10
121.921653161714
 20
174.3511597173065
 30
0.0
  0
VERTEX
  5
29739
  8
0
 10
122.0617946853919
 20
174.14075321069001
 30
0.0
  0
VERTEX
  5
2973A
  8
0
 10
122.3384686936047
 20
173.74029537833749
 30
0.0
  0
VERTEX
  5
2973B
  8
0
 10
122.611648340912
 20
173.36234955452301
 30
0.0
  0
VERTEX
  5
2973C
  8
0
 10
122.88591249429651
 20
172.9986447265232
 30
0.0
  0
VERTEX
  5
2973D
  8
0
 10
123.1578594715005
 20
172.65254667885799
 30
0.0
  0
VERTEX
  5
2973E
  8
0
 10
123.4240052584516
 20
172.3274085168745
 30
0.0
  0
VERTEX
  5
2973F
  8
0
 10
123.5538645316288
 20
172.1736636333921
 30
0.0
  0
VERTEX
  5
29740
  8
0
 10
123.6810506328552
 20
172.0262841226922
 30
0.0
  0
VERTEX
  5
29741
  8
0
 10
123.9258904993758
 20
171.75197332820011
 30
0.0
  0
VERTEX
  5
29742
  8
0
 10
124.1556786591685
 20
171.5069825723281
 30
0.0
  0
VERTEX
  5
29743
  8
0
 10
124.36801964956599
 20
171.29335638401969
 30
0.0
  0
VERTEX
  5
29744
  8
0
 10
124.5607319698229
 20
171.11295162762821
 30
0.0
  0
VERTEX
  5
29745
  8
0
 10
124.731911357581
 20
170.96734674981411
 30
0.0
  0
VERTEX
  5
29746
  8
0
 10
124.8089515641648
 20
170.9079645645611
 30
0.0
  0
VERTEX
  5
29747
  8
0
 10
124.8212219589241
 20
170.8989485625498
 30
0.0
  0
VERTEX
  5
29748
  8
0
 10
124.8452691915335
 20
170.8816752438224
 30
0.0
  0
VERTEX
  5
29749
  8
0
 10
124.8686547786685
 20
170.86541572821301
 30
0.0
  0
VERTEX
  5
2974A
  8
0
 10
124.8800981926192
 20
170.85766689665749
 30
0.0
  0
VERTEX
  5
2974B
  8
0
 10
124.891374721905
 20
170.8501723699587
 30
0.0
  0
VERTEX
  5
2974C
  8
0
 10
124.91342536106271
 20
170.83594715025311
 30
0.0
  0
VERTEX
  5
2974D
  8
0
 10
124.93480338713761
 20
170.8227416615218
 30
0.0
  0
VERTEX
  5
2974E
  8
0
 10
124.9555058542384
 20
170.81055709311661
 30
0.0
  0
VERTEX
  5
2974F
  8
0
 10
124.9755301904875
 20
170.79939421848661
 30
0.0
  0
VERTEX
  5
29750
  8
0
 10
124.99487420784661
 20
170.78925338386989
 30
0.0
  0
VERTEX
  5
29751
  8
0
 10
125.0042905203039
 20
170.78456622051911
 30
0.0
  0
VERTEX
  5
29752
  8
0
 10
125.01353611082931
 20
170.78013449854689
 30
0.0
  0
VERTEX
  5
29753
  8
0
 10
125.03151450406629
 20
170.77203702671019
 30
0.0
  0
VERTEX
  5
29754
  8
0
 10
125.04880839868819
 20
170.7649599809906
 30
0.0
  0
VERTEX
  5
29755
  8
0
 10
125.0654172174946
 20
170.75890191769031
 30
0.0
  0
VERTEX
  5
29756
  8
0
 10
125.081340798881
 20
170.7538609337571
 30
0.0
  0
VERTEX
  5
29757
  8
0
 10
125.0965793994954
 20
170.74983466555841
 30
0.0
  0
VERTEX
  5
29758
  8
0
 10
125.1039420269435
 20
170.7482011853931
 30
0.0
  0
VERTEX
  5
29759
  8
0
 10
125.1111336956002
 20
170.7468202894797
 30
0.0
  0
VERTEX
  5
2975A
  8
0
 10
125.1250047831182
 20
170.7448145244048
 30
0.0
  0
VERTEX
  5
2975B
  8
0
 10
125.1381941763413
 20
170.74381363610431
 30
0.0
  0
VERTEX
  5
2975C
  8
0
 10
125.1445338245837
 20
170.74368873142021
 30
0.0
  0
SEQEND
  5
2975D
  8
0
  0
POLYLINE
  5
24B6C
  8
0
 66
     1
 10
0.0
 20
0.0
 30
0.0
  0
VERTEX
  5
2975E
  8
0
 10
123.6999160763703
 20
175.74368873142021
 30
0.0
  0
VERTEX
  5
2975F
  8
0
 10
123.5821668465677
 20
176.00911638626619
 30
0.0
  0
VERTEX
  5
29760
  8
0
 10
123.3416275693891
 20
176.53313436018601
 30
0.0
  0
VERTEX
  5
29761
  8
0
 10
123.0944653233786
 20
177.0478233352278
 30
0.0
  0
VERTEX
  5
29762
  8
0
 10
122.9684381397594
 20
177.3015908080865
 30
0.0
  0
VERTEX
  5
29763
  8
0
 10
122.84080067589881
 20
177.55293224273689
 30
0.0
  0
VERTEX
  5
29764
  8
0
 10
122.58075736622661
 20
178.0482146872796
 30
0.0
  0
VERTEX
  5
29765
  8
0
 10
122.3144622451919
 20
178.5334290668352
 30
0.0
  0
VERTEX
  5
29766
  8
0
 10
122.0420452132992
 20
179.00833869065079
 30
0.0
  0
VERTEX
  5
29767
  8
0
 10
121.7636391573613
 20
179.4727118947003
 30
0.0
  0
VERTEX
  5
29768
  8
0
 10
121.4793798856759
 20
179.92632215469351
 30
0.0
  0
VERTEX
  5
29769
  8
0
 10
121.33509851659009
 20
180.1490218244694
 30
0.0
  0
VERTEX
  5
2976A
  8
0
 10
121.1894060617781
 20
180.3689481965734
 30
0.0
  0
VERTEX
  5
2976B
  8
0
 10
120.8938591367986
 20
180.8003741044576
 30
0.0
  0
VERTEX
  5
2976C
  8
0
 10
120.5928832804634
 20
181.2203894259614
 30
0.0
  0
VERTEX
  5
2976D
  8
0
 10
120.28662531076721
 20
181.62878927486051
 30
0.0
  0
VERTEX
  5
2976E
  8
0
 10
119.9752346223536
 20
182.02537443103259
 30
0.0
  0
VERTEX
  5
2976F
  8
0
 10
119.65886311364029
 20
182.4099514376407
 30
0.0
  0
VERTEX
  5
29770
  8
0
 10
119.49885768634211
 20
182.5976780287769
 30
0.0
  0
VERTEX
  5
29771
  8
0
 10
119.33766511272189
 20
182.78233269550171
 30
0.0
  0
VERTEX
  5
29772
  8
0
 10
119.0117973020872
 20
183.14233655459839
 30
0.0
  0
VERTEX
  5
29773
  8
0
 10
118.6814186421889
 20
183.4897874026905
 30
0.0
  0
VERTEX
  5
29774
  8
0
 10
118.51458802272781
 20
183.65875224088131
 30
0.0
  0
SEQEND
  5
29775
  8
0
  0
LINE
  5
24B6D
  8
0
 10
118.51458802272781
 20
183.65875224088131
 30
0.0
 11
116.9813383378925
 21
185.1920019257168
 31
0.0
  0
LINE
  5
24B6E
  8
0
 10
112.9813383378925
 20
185.1920019257168
 30
0.0
 11
117.51458802272781
 21
180.65875224088131
 31
0.0
  0
POLYLINE
  5
24B6F
  8
0
 66
     1
 10
0.0
 20
0.0
 30
0.0
  0
VERTEX
  5
29776
  8
0
 10
117.51458802272781
 20
180.65875224088131
 30
0.0
  0
VERTEX
  5
29777
  8
0
 10
117.6244752175682
 20
180.54782136332321
 30
0.0
  0
VERTEX
  5
29778
  8
0
 10
117.8426545220693
 20
180.32129301873141
 30
0.0
  0
VERTEX
  5
29779
  8
0
 10
118.05865813715771
 20
180.08859357213299
 30
0.0
  0
VERTEX
  5
2977A
  8
0
 10
118.1658258575749
 20
179.96994920662331
 30
0.0
  0
VERTEX
  5
2977B
  8
0
 10
118.27242788594469
 20
179.8497856971544
 30
0.0
  0
VERTEX
  5
2977C
  8
0
 10
118.4839061931948
 20
179.60493371262319
 30
0.0
  0
VERTEX
  5
2977D
  8
0
 10
118.6930361008335
 20
179.3541035652442
 30
0.0
  0
VERTEX
  5
2977E
  8
0
 10
118.8997612832877
 20
179.09736281183899
 30
0.0
  0
VERTEX
  5
2977F
  8
0
 10
119.10402606265571
 20
178.83478060115019
 30
0.0
  0
VERTEX
  5
29780
  8
0
 10
119.30577542370381
 20
178.5664276552165
 30
0.0
  0
VERTEX
  5
29781
  8
0
 10
119.4056898149457
 20
178.43010968268979
 30
0.0
  0
VERTEX
  5
29782
  8
0
 10
119.5049550286831
 20
178.2923762503269
 30
0.0
  0
VERTEX
  5
29783
  8
0
 10
119.7015112319646
 20
178.01270019755199
 30
0.0
  0
VERTEX
  5
29784
  8
0
 10
119.89539109448801
 20
177.72747482286599
 30
0.0
  0
VERTEX
  5
29785
  8
0
 10
120.0865423980195
 20
177.43677694685761
 30
0.0
  0
VERTEX
  5
29786
  8
0
 10
120.2749136592162
 20
177.1406848640413
 30
0.0
  0
VERTEX
  5
29787
  8
0
 10
120.4604541434925
 20
176.83927832176869
 30
0.0
  0
VERTEX
  5
29788
  8
0
 10
120.5521471978324
 20
176.68660744136599
 30
0.0
  0
VERTEX
  5
29789
  8
0
 10
120.64311387868359
 20
176.5326384987502
 30
0.0
  0
VERTEX
  5
2978A
  8
0
 10
120.822843668506
 20
176.2208479831915
 30
0.0
  0
VERTEX
  5
2978B
  8
0
 10
120.99959510580661
 20
175.90399075054941
 30
0.0
  0
VERTEX
  5
2978C
  8
0
 10
121.0868390340168
 20
175.74368873142021
 30
0.0
  0
SEQEND
  5
2978D
  8
0
  0
POLYLINE
  5
24B70
  8
0
 66
     1
 10
0.0
 20
0.0
 30
0.0
  0
VERTEX
  5
2978E
  8
0
 10
116.9813383378925
 20
185.1920019257168
 30
0.0
  0
VERTEX
  5
2978F
  8
0
 10
116.9179631128906
 20
185.254848303362
 30
0.0
  0
VERTEX
  5
29790
  8
0
 10
116.7888462978854
 20
185.3797345073217
 30
0.0
  0
VERTEX
  5
29791
  8
0
 10
116.6565971597179
 20
185.5035233183257
 30
0.0
  0
VERTEX
  5
29792
  8
0
 10
116.58930668606141
 20
185.56499800918479
 30
0.0
  0
VERTEX
  5
29793
  8
0
 10
116.5212436738606
 20
185.62618855056641
 30
0.0
  0
VERTEX
  5
29794
  8
0
 10
116.3828144724685
 20
185.74770425591259
 30
0.0
  0
VERTEX
  5
29795
  8
0
 10
116.2413388383214
 20
185.86804472940091
 30
0.0
  0
VERTEX
  5
29796
  8
0
 10
116.09684669862941
 20
185.9871845146713
 30
0.0
  0
VERTEX
  5
29797
  8
0
 10
115.9493686187031
 20
186.10509840935259
 30
0.0
  0
VERTEX
  5
29798
  8
0
 10
115.7989357954869
 20
186.22176147039411
 30
0.0
  0
VERTEX
  5
29799
  8
0
 10
115.7226212752815
 20
186.2796162158038
 30
0.0
  0
VERTEX
  5
2979A
  8
0
 10
115.6455800509605
 20
186.33714901934121
 30
0.0
  0
VERTEX
  5
2979B
  8
0
 10
115.4893338254071
 20
186.45123664755741
 30
0.0
  0
VERTEX
  5
2979C
  8
0
 10
115.330230170551
 20
186.5640002213845
 30
0.0
  0
VERTEX
  5
2979D
  8
0
 10
115.1683027425661
 20
186.67541588725129
 30
0.0
  0
VERTEX
  5
2979E
  8
0
 10
115.00358579495639
 20
186.7854600767173
 30
0.0
  0
VERTEX
  5
2979F
  8
0
 10
114.8361141713102
 20
186.89410951145871
 30
0.0
  0
VERTEX
  5
297A0
  8
0
 10
114.7513564041346
 20
186.94790400187321
 30
0.0
  0
VERTEX
  5
297A1
  8
0
 10
114.6659232979293
 20
187.0013412081926
 30
0.0
  0
VERTEX
  5
297A2
  8
0
 10
114.49304917633511
 20
187.10713248353929
 30
0.0
  0
VERTEX
  5
297A3
  8
0
 10
114.3175283756529
 20
187.2114609588202
 30
0.0
  0
VERTEX
  5
297A4
  8
0
 10
114.2287870518084
 20
187.2630697375821
 30
0.0
  0
SEQEND
  5
297A5
  8
0
  0
POLYLINE
  5
24B71
  8
0
 66
     1
 10
0.0
 20
0.0
 30
0.0
  0
VERTEX
  5
297A6
  8
0
 10
110.6331089636143
 20
187.2630697375821
 30
0.0
  0
VERTEX
  5
297A7
  8
0
 10
110.8937395954275
 20
187.03274757221291
 30
0.0
  0
VERTEX
  5
297A8
  8
0
 10
111.43054535851419
 20
186.56277011744891
 30
0.0
  0
VERTEX
  5
297A9
  8
0
 10
111.98361867441351
 20
186.08653436541451
 30
0.0
  0
VERTEX
  5
297AA
  8
0
 10
112.26458802272781
 20
185.84852554718421
 30
0.0
  0
SEQEND
  5
297AB
  8
0
  0
POLYLINE
  5
24B72
  8
0
 66
     1
 10
0.0
 20
0.0
 30
0.0
  0
VERTEX
  5
297AC
  8
0
 10
112.26458802272781
 20
185.84852554718421
 30
0.0
  0
VERTEX
  5
297AD
  8
0
 10
112.3901433874681
 20
185.74136636510141
 30
0.0
  0
VERTEX
  5
297AE
  8
0
 10
112.63399835153029
 20
185.52427956679821
 30
0.0
  0
VERTEX
  5
297AF
  8
0
 10
112.8680435903711
 20
185.3036228925539
 30
0.0
  0
VERTEX
  5
297B0
  8
0
 10
112.9813383378925
 20
185.1920019257168
 30
0.0
  0
SEQEND
  5
297B1
  8
0
  0
LINE
  5
24B73
  8
0
 10
114.2287870518085
 20
187.2630697375821
 30
0.0
 11
113.26458802272781
 21
187.81975030657441
 31
0.0
  0
POLYLINE
  5
24B74
  8
0
 66
     1
 10
0.0
 20
0.0
 30
0.0
  0
VERTEX
  5
297B2
  8
0
 10
113.26458802272781
 20
187.81975030657441
 30
0.0
  0
VERTEX
  5
297B3
  8
0
 10
113.111315824363
 20
187.91053223592871
 30
0.0
  0
VERTEX
  5
297B4
  8
0
 10
112.81102447366899
 20
188.102220190221
 30
0.0
  0
VERTEX
  5
297B5
  8
0
 10
112.51956503823089
 20
188.3070873779707
 30
0.0
  0
VERTEX
  5
297B6
  8
0
 10
112.3773286284584
 20
188.41433722283719
 30
0.0
  0
VERTEX
  5
297B7
  8
0
 10
112.23751551474849
 20
188.52472752460201
 30
0.0
  0
VERTEX
  5
297B8
  8
0
 10
111.96543523901281
 20
188.75470902533149
 30
0.0
  0
VERTEX
  5
297B9
  8
0
 10
111.7038637766794
 20
188.99657580108851
 30
0.0
  0
VERTEX
  5
297BA
  8
0
 10
111.4533198532509
 20
189.2498482029709
 30
0.0
  0
VERTEX
  5
297BB
  8
0
 10
111.2143003253849
 20
189.5140239634429
 30
0.0
  0
VERTEX
  5
297BC
  8
0
 10
110.9872791955718
 20
189.78857919238769
 30
0.0
  0
VERTEX
  5
297BD
  8
0
 10
110.87840967423941
 20
189.92957973427929
 30
0.0
  0
VERTEX
  5
297BE
  8
0
 10
110.7727066721355
 20
190.07296941603909
 30
0.0
  0
VERTEX
  5
297BF
  8
0
 10
110.57100827641921
 20
190.36663065673611
 30
0.0
  0
VERTEX
  5
297C0
  8
0
 10
110.38258399892889
 20
190.6689805513524
 30
0.0
  0
VERTEX
  5
297C1
  8
0
 10
110.2078075061079
 20
190.97941950618809
 30
0.0
  0
VERTEX
  5
297C2
  8
0
 10
110.0470253993139
 20
191.2973318860308
 30
0.0
  0
VERTEX
  5
297C3
  8
0
 10
109.9005565274702
 20
191.62208723502951
 30
0.0
  0
VERTEX
  5
297C4
  8
0
 10
109.83278144962939
 20
191.78683026010961
 30
0.0
  0
VERTEX
  5
297C5
  8
0
 10
109.76869135475221
 20
191.95304152695871
 30
0.0
  0
VERTEX
  5
297C6
  8
0
 10
109.6516913845644
 20
192.2895384423955
 30
0.0
  0
VERTEX
  5
297C7
  8
0
 10
109.5497886409501
 20
192.6309106702729
 30
0.0
  0
VERTEX
  5
297C8
  8
0
 10
109.5045630614097
 20
192.80321381140581
 30
0.0
  0
SEQEND
  5
297C9
  8
0
  0
POLYLINE
  5
24B75
  8
0
 66
     1
 10
0.0
 20
0.0
 30
0.0
  0
VERTEX
  5
297CA
  8
0
 10
107.4555112363896
 20
192.80321381140581
 30
0.0
  0
VERTEX
  5
297CB
  8
0
 10
107.4922249846167
 20
192.62641620478141
 30
0.0
  0
VERTEX
  5
297CC
  8
0
 10
107.57519839435071
 20
192.27495361175889
 30
0.0
  0
VERTEX
  5
297CD
  8
0
 10
107.6708077895202
 20
191.92671607131891
 30
0.0
  0
VERTEX
  5
297CE
  8
0
 10
107.72331265706281
 20
191.7539487946101
 30
0.0
  0
VERTEX
  5
297CF
  8
0
 10
107.77892848539589
 20
191.58215772192031
 30
0.0
  0
VERTEX
  5
297D0
  8
0
 10
107.89941948119311
 20
191.24172790397191
 30
0.0
  0
VERTEX
  5
297D1
  8
0
 10
108.0321236439525
 20
190.90587057384019
 30
0.0
  0
VERTEX
  5
297D2
  8
0
 10
108.1768679134575
 20
190.57502372488719
 30
0.0
  0
VERTEX
  5
297D3
  8
0
 10
108.3334635279231
 20
190.24961881627809
 30
0.0
  0
VERTEX
  5
297D4
  8
0
 10
108.50170627016119
 20
189.9300802103152
 30
0.0
  0
VERTEX
  5
297D5
  8
0
 10
108.5901273353689
 20
189.77264130710321
 30
0.0
  0
VERTEX
  5
297D6
  8
0
 10
108.6813767339014
 20
189.61682461902231
 30
0.0
  0
VERTEX
  5
297D7
  8
0
 10
108.87224060992
 20
189.31026056071181
 30
0.0
  0
VERTEX
  5
297D8
  8
0
 10
109.0740489916037
 20
189.0107878272301
 30
0.0
  0
VERTEX
  5
297D9
  8
0
 10
109.28653869954999
 20
188.71879696258969
 30
0.0
  0
VERTEX
  5
297DA
  8
0
 10
109.5094326247813
 20
188.4346687536563
 30
0.0
  0
VERTEX
  5
297DB
  8
0
 10
109.74244009012369
 20
188.1587737335644
 30
0.0
  0
VERTEX
  5
297DC
  8
0
 10
109.8626419465989
 20
188.02402653798339
 30
0.0
  0
VERTEX
  5
297DD
  8
0
 10
109.9852572292811
 20
187.8914716985027
 30
0.0
  0
VERTEX
  5
297DE
  8
0
 10
110.2375673831087
 20
187.63311123850141
 30
0.0
  0
VERTEX
  5
297DF
  8
0
 10
110.4990415125697
 20
187.38402928283361
 30
0.0
  0
VERTEX
  5
297E0
  8
0
 10
110.6331089636143
 20
187.2630697375821
 30
0.0
  0
SEQEND
  5
297E1
  8
0
  0
POLYLINE
  5
24B76
  8
0
 66
     1
 10
0.0
 20
0.0
 30
0.0
  0
VERTEX
  5
297E2
  8
0
 10
109.5045630614097
 20
192.80321381140581
 30
0.0
  0
VERTEX
  5
297E3
  8
0
 10
109.4883624068557
 20
192.86965882274811
 30
0.0
  0
VERTEX
  5
297E4
  8
0
 10
109.4584012575186
 20
193.00318438778459
 30
0.0
  0
VERTEX
  5
297E5
  8
0
 10
109.4315508596019
 20
193.13713337221901
 30
0.0
  0
VERTEX
  5
297E6
  8
0
 10
109.419208842069
 20
193.20425330093209
 30
0.0
  0
VERTEX
  5
297E7
  8
0
 10
109.40743912294229
 20
193.2721078000522
 30
0.0
  0
VERTEX
  5
297E8
  8
0
 10
109.3855440863279
 20
193.4102098569879
 30
0.0
  0
VERTEX
  5
297E9
  8
0
 10
109.36578586726689
 20
193.5514498668617
 30
0.0
  0
VERTEX
  5
297EA
  8
0
 10
109.3480925390016
 20
193.69575872436499
 30
0.0
  0
VERTEX
  5
297EB
  8
0
 10
109.33238670545271
 20
193.84306139832501
 30
0.0
  0
VERTEX
  5
297EC
  8
0
 10
109.3185859285223
 20
193.99327766109721
 30
0.0
  0
VERTEX
  5
297ED
  8
0
 10
109.31237291528051
 20
194.06945207686519
 30
0.0
  0
VERTEX
  5
297EE
  8
0
 10
109.30660321817319
 20
194.14632282291899
 30
0.0
  0
VERTEX
  5
297EF
  8
0
 10
109.2963475697611
 20
194.30210847091851
 30
0.0
  0
VERTEX
  5
297F0
  8
0
 10
109.2877245349697
 20
194.46054321356269
 30
0.0
  0
VERTEX
  5
297F1
  8
0
 10
109.2806368137326
 20
194.62153344949451
 30
0.0
  0
VERTEX
  5
297F2
  8
0
 10
109.2749848373537
 20
194.78498484175091
 30
0.0
  0
VERTEX
  5
297F3
  8
0
 10
109.270667535101
 20
194.9507971511398
 30
0.0
  0
VERTEX
  5
297F4
  8
0
 10
109.2689774935459
 20
195.03455571035229
 30
0.0
  0
VERTEX
  5
297F5
  8
0
 10
109.2675827467158
 20
195.11886450240081
 30
0.0
  0
VERTEX
  5
297F6
  8
0
 10
109.26562764986789
 20
195.28907744047501
 30
0.0
  0
VERTEX
  5
297F7
  8
0
 10
109.2646992764879
 20
195.46132351251799
 30
0.0
  0
VERTEX
  5
297F8
  8
0
 10
109.26458802272781
 20
195.54817315835811
 30
0.0
  0
SEQEND
  5
297F9
  8
0
  0
POLYLINE
  5
24B77
  8
0
 66
     1
 10
0.0
 20
0.0
 30
0.0
  0
VERTEX
  5
297FA
  8
0
 10
107.26458802272781
 20
195.54817315835811
 30
0.0
  0
VERTEX
  5
297FB
  8
0
 10
107.264675944659
 20
195.4618460791034
 30
0.0
  0
VERTEX
  5
297FC
  8
0
 10
107.2654100447385
 20
195.29053360376381
 30
0.0
  0
VERTEX
  5
297FD
  8
0
 10
107.26695730379249
 20
195.12109669757541
 30
0.0
  0
VERTEX
  5
297FE
  8
0
 10
107.2680618654027
 20
195.03711371822959
 30
0.0
  0
VERTEX
  5
297FF
  8
0
 10
107.2694009828212
 20
194.95363795671301
 30
0.0
  0
VERTEX
  5
29800
  8
0
 10
107.2728247829146
 20
194.78825793566691
 30
0.0
  0
VERTEX
  5
29801
  8
0
 10
107.2773124700941
 20
194.6250546634883
 30
0.0
  0
VERTEX
  5
29802
  8
0
 10
107.2829475041608
 20
194.46412317331169
 30
0.0
  0
VERTEX
  5
29803
  8
0
 10
107.2898126768193
 20
194.3055550423241
 30
0.0
  0
VERTEX
  5
29804
  8
0
 10
107.2979898026053
 20
194.14943728061101
 30
0.0
  0
VERTEX
  5
29805
  8
0
 10
107.3025956157008
 20
194.072322473301
 30
0.0
  0
VERTEX
  5
29806
  8
0
 10
107.30755952288671
 20
193.99585047878011
 30
0.0
  0
VERTEX
  5
29807
  8
0
 10
107.3186006167946
 20
193.8448748990977
 30
0.0
  0
VERTEX
  5
29808
  8
0
 10
107.3311895707277
 20
193.69658920147231
 30
0.0
  0
VERTEX
  5
29809
  8
0
 10
107.3454001545531
 20
193.55106955875181
 30
0.0
  0
VERTEX
  5
2980A
  8
0
 10
107.36130300022
 20
193.40838904400789
 30
0.0
  0
VERTEX
  5
2980B
  8
0
 10
107.3789652028326
 20
193.2686170308329
 30
0.0
  0
VERTEX
  5
2980C
  8
0
 10
107.3884759717839
 20
193.1998422354477
 30
0.0
  0
VERTEX
  5
2980D
  8
0
 10
107.398449952753
 20
193.13181860711481
 30
0.0
  0
VERTEX
  5
2980E
  8
0
 10
107.41981620823771
 20
192.9980540033489
 30
0.0
  0
VERTEX
  5
2980F
  8
0
 10
107.4431184190713
 20
192.8673780372755
 30
0.0
  0
VERTEX
  5
29810
  8
0
 10
107.4555112363896
 20
192.80321381140581
 30
0.0
  0
SEQEND
  5
29811
  8
0
  0
LINE
  5
24B78
  8
0
 10
107.26458802272781
 20
246.74368873142021
 30
0.0
 11
107.26458802272781
 21
195.54817315835811
 31
0.0
  0
POLYLINE
  5
24B79
  8
0
 66
     1
 10
0.0
 20
0.0
 30
0.0
  0
VERTEX
  5
29812
  8
0
 10
192.26458802272779
 20
195.54817315835811
 30
0.0
  0
VERTEX
  5
29813
  8
0
 10
192.2645001007966
 20
195.4618460791034
 30
0.0
  0
VERTEX
  5
29814
  8
0
 10
192.2637660007172
 20
195.29053360376381
 30
0.0
  0
VERTEX
  5
29815
  8
0
 10
192.2622187416631
 20
195.12109669757541
 30
0.0
  0
VERTEX
  5
29816
  8
0
 10
192.2611141800528
 20
195.03711371822959
 30
0.0
  0
VERTEX
  5
29817
  8
0
 10
192.25977506263439
 20
194.95363795671301
 30
0.0
  0
VERTEX
  5
29818
  8
0
 10
192.25635126254099
 20
194.78825793566691
 30
0.0
  0
VERTEX
  5
29819
  8
0
 10
192.25186357536151
 20
194.6250546634883
 30
0.0
  0
VERTEX
  5
2981A
  8
0
 10
192.24622854129481
 20
194.46412317331169
 30
0.0
  0
VERTEX
  5
2981B
  8
0
 10
192.2393633686363
 20
194.3055550423241
 30
0.0
  0
VERTEX
  5
2981C
  8
0
 10
192.2311862428503
 20
194.14943728061101
 30
0.0
  0
VERTEX
  5
2981D
  8
0
 10
192.22658042975479
 20
194.072322473301
 30
0.0
  0
VERTEX
  5
2981E
  8
0
 10
192.22161652256881
 20
193.99585047878011
 30
0.0
  0
VERTEX
  5
2981F
  8
0
 10
192.210575428661
 20
193.8448748990977
 30
0.0
  0
VERTEX
  5
29820
  8
0
 10
192.197986474728
 20
193.69658920147231
 30
0.0
  0
VERTEX
  5
29821
  8
0
 10
192.18377589090261
 20
193.55106955875181
 30
0.0
  0
VERTEX
  5
29822
  8
0
 10
192.16787304523561
 20
193.40838904400789
 30
0.0
  0
VERTEX
  5
29823
  8
0
 10
192.1502108426229
 20
193.2686170308329
 30
0.0
  0
VERTEX
  5
29824
  8
0
 10
192.14070007367181
 20
193.1998422354477
 30
0.0
  0
VERTEX
  5
29825
  8
0
 10
192.1307260927025
 20
193.13181860711481
 30
0.0
  0
VERTEX
  5
29826
  8
0
 10
192.10935983721791
 20
192.9980540033489
 30
0.0
  0
VERTEX
  5
29827
  8
0
 10
192.0860576263843
 20
192.8673780372755
 30
0.0
  0
VERTEX
  5
29828
  8
0
 10
192.07366480906609
 20
192.80321381140581
 30
0.0
  0
SEQEND
  5
29829
  8
0
  0
POLYLINE
  5
24B7A
  8
0
 66
     1
 10
0.0
 20
0.0
 30
0.0
  0
VERTEX
  5
2982A
  8
0
 10
192.07366480906609
 20
192.80321381140581
 30
0.0
  0
VERTEX
  5
2982B
  8
0
 10
192.0369510608389
 20
192.62641620478141
 30
0.0
  0
VERTEX
  5
2982C
  8
0
 10
191.95397765110491
 20
192.27495361175889
 30
0.0
  0
VERTEX
  5
2982D
  8
0
 10
191.8583682559354
 20
191.92671607131891
 30
0.0
  0
VERTEX
  5
2982E
  8
0
 10
191.80586338839279
 20
191.7539487946101
 30
0.0
  0
VERTEX
  5
2982F
  8
0
 10
191.75024756005971
 20
191.58215772192031
 30
0.0
  0
VERTEX
  5
29830
  8
0
 10
191.62975656426249
 20
191.24172790397191
 30
0.0
  0
VERTEX
  5
29831
  8
0
 10
191.497052401503
 20
190.90587057384019
 30
0.0
  0
VERTEX
  5
29832
  8
0
 10
191.35230813199809
 20
190.57502372488719
 30
0.0
  0
VERTEX
  5
29833
  8
0
 10
191.1957125175326
 20
190.24961881627809
 30
0.0
  0
VERTEX
  5
29834
  8
0
 10
191.02746977529449
 20
189.9300802103148
 30
0.0
  0
VERTEX
  5
29835
  8
0
 10
190.93904871008669
 20
189.77264130710321
 30
0.0
  0
VERTEX
  5
29836
  8
0
 10
190.84779931155421
 20
189.61682461902231
 30
0.0
  0
VERTEX
  5
29837
  8
0
 10
190.65693543553559
 20
189.31026056071181
 30
0.0
  0
VERTEX
  5
29838
  8
0
 10
190.4551270538519
 20
189.0107878272301
 30
0.0
  0
VERTEX
  5
29839
  8
0
 10
190.24263734590551
 20
188.71879696258969
 30
0.0
  0
VERTEX
  5
2983A
  8
0
 10
190.0197434206743
 20
188.4346687536563
 30
0.0
  0
VERTEX
  5
2983B
  8
0
 10
189.78673595533189
 20
188.1587737335644
 30
0.0
  0
VERTEX
  5
2983C
  8
0
 10
189.66653409885669
 20
188.02402653798339
 30
0.0
  0
VERTEX
  5
2983D
  8
0
 10
189.54391881617451
 20
187.8914716985027
 30
0.0
  0
VERTEX
  5
2983E
  8
0
 10
189.2916086623469
 20
187.63311123850141
 30
0.0
  0
VERTEX
  5
2983F
  8
0
 10
189.03013453288591
 20
187.38402928283361
 30
0.0
  0
VERTEX
  5
29840
  8
0
 10
188.8960670818413
 20
187.2630697375821
 30
0.0
  0
SEQEND
  5
29841
  8
0
  0
POLYLINE
  5
24B7B
  8
0
 66
     1
 10
0.0
 20
0.0
 30
0.0
  0
VERTEX
  5
29842
  8
0
 10
188.8960670818413
 20
187.2630697375821
 30
0.0
  0
VERTEX
  5
29843
  8
0
 10
188.6354364500281
 20
187.03274757221291
 30
0.0
  0
VERTEX
  5
29844
  8
0
 10
188.0986306869415
 20
186.56277011744891
 30
0.0
  0
VERTEX
  5
29845
  8
0
 10
187.54555737104221
 20
186.08653436541499
 30
0.0
  0
VERTEX
  5
29846
  8
0
 10
187.26458802272779
 20
185.84852554718421
 30
0.0
  0
SEQEND
  5
29847
  8
0
  0
POLYLINE
  5
24B7C
  8
0
 66
     1
 10
0.0
 20
0.0
 30
0.0
  0
VERTEX
  5
29848
  8
0
 10
177.00690213352991
 20
173.48420915989249
 30
0.0
  0
VERTEX
  5
29849
  8
0
 10
176.98631767335911
 20
173.45599225011529
 30
0.0
  0
VERTEX
  5
2984A
  8
0
 10
176.94512038307889
 20
173.39979099756371
 30
0.0
  0
VERTEX
  5
2984B
  8
0
 10
176.9038953050289
 20
173.3439101061781
 30
0.0
  0
VERTEX
  5
2984C
  8
0
 10
176.88327610808909
 20
173.31609361934261
 30
0.0
  0
SEQEND
  5
2984D
  8
0
  0
POLYLINE
  5
24B7D
  8
0
 66
     1
 10
0.0
 20
0.0
 30
0.0
  0
VERTEX
  5
2984E
  8
0
 10
176.88326328755471
 20
173.3160763511118
 30
0.0
  0
VERTEX
  5
2984F
  8
0
 10
176.77514529873511
 20
173.17164660115569
 30
0.0
  0
VERTEX
  5
29850
  8
0
 10
176.5595701832334
 20
172.89062176086779
 30
0.0
  0
VERTEX
  5
29851
  8
0
 10
176.34628798768179
 20
172.6214003912155
 30
0.0
  0
VERTEX
  5
29852
  8
0
 10
176.2410223239734
 20
172.4916988878303
 30
0.0
  0
SEQEND
  5
29853
  8
0
  0
POLYLINE
  5
24B7E
  8
0
 66
     1
 10
0.0
 20
0.0
 30
0.0
  0
VERTEX
  5
29854
  8
0
 10
175.71436152122101
 20
171.8748308917811
 30
0.0
  0
VERTEX
  5
29855
  8
0
 10
175.68479509900021
 20
171.84186403033121
 30
0.0
  0
VERTEX
  5
29856
  8
0
 10
175.6262972423261
 20
171.7772011474508
 30
0.0
  0
VERTEX
  5
29857
  8
0
 10
175.5686782778356
 20
171.71426053741101
 30
0.0
  0
VERTEX
  5
29858
  8
0
 10
175.5402102008037
 20
171.68344624037169
 30
0.0
  0
VERTEX
  5
29859
  8
0
 10
175.51197588200409
 20
171.65307454674851
 30
0.0
  0
VERTEX
  5
2985A
  8
0
 10
175.45622651617381
 20
171.59367429634449
 30
0.0
  0
VERTEX
  5
2985B
  8
0
 10
175.40146341058909
 20
171.53608759765029
 30
0.0
  0
VERTEX
  5
2985C
  8
0
 10
175.34771100190551
 20
171.4803333885925
 30
0.0
  0
VERTEX
  5
2985D
  8
0
 10
175.2950019614467
 20
171.42643960873551
 30
0.0
  0
VERTEX
  5
2985E
  8
0
 10
175.2433694530985
 20
171.37443479174269
 30
0.0
  0
VERTEX
  5
2985F
  8
0
 10
175.21796698314861
 20
171.3491493839947
 30
0.0
  0
VERTEX
  5
29860
  8
0
 10
175.19284561164901
 20
171.32434644827021
 30
0.0
  0
VERTEX
  5
29861
  8
0
 10
175.1434614570976
 20
171.27620097091631
 30
0.0
  0
VERTEX
  5
29862
  8
0
 10
175.095246811924
 20
171.23002354434581
 30
0.0
  0
VERTEX
  5
29863
  8
0
 10
175.04823022177141
 20
171.1858380611657
 30
0.0
  0
VERTEX
  5
29864
  8
0
 10
175.0024388800486
 20
171.14366704420721
 30
0.0
  0
VERTEX
  5
29865
  8
0
 10
174.9578985569909
 20
171.10353157594679
 30
0.0
  0
VERTEX
  5
29866
  8
0
 10
174.9361051751824
 20
171.0842333514147
 30
0.0
  0
VERTEX
  5
29867
  8
0
 10
174.9146335337698
 20
171.0654512358733
 30
0.0
  0
VERTEX
  5
29868
  8
0
 10
174.87266654227651
 20
171.02944404667781
 30
0.0
  0
VERTEX
  5
29869
  8
0
 10
174.83201871124601
 20
170.99552643022389
 30
0.0
  0
VERTEX
  5
2986A
  8
0
 10
174.81219563358891
 20
170.9793558974597
 30
0.0
  0
SEQEND
  5
2986B
  8
0
  0
POLYLINE
  5
24B7F
  8
0
 66
     1
 10
0.0
 20
0.0
 30
0.0
  0
VERTEX
  5
2986C
  8
0
 10
174.6844663854925
 20
170.88207095731559
 30
0.0
  0
VERTEX
  5
2986D
  8
0
 10
174.62165865752729
 20
170.83970059451619
 30
0.0
  0
VERTEX
  5
2986E
  8
0
 10
174.51134249767071
 20
170.77813472590239
 30
0.0
  0
VERTEX
  5
2986F
  8
0
 10
174.42169670448919
 20
170.7474945419103
 30
0.0
  0
VERTEX
  5
29870
  8
0
 10
174.38464222087191
 20
170.74368873142021
 30
0.0
  0
SEQEND
  5
29871
  8
0
  0
LINE
  5
24B80
  8
0
 10
174.38464222087191
 20
170.74368873142021
 30
0.0
 11
172.26458802272779
 21
170.74368873142021
 31
0.0
  0
POLYLINE
  5
24B81
  8
0
 66
     1
 10
0.0
 20
0.0
 30
0.0
  0
VERTEX
  5
29872
  8
0
 10
174.38464222087191
 20
170.74368873142021
 30
0.0
  0
VERTEX
  5
29873
  8
0
 10
174.39098186911431
 20
170.74381363610431
 30
0.0
  0
VERTEX
  5
29874
  8
0
 10
174.4041712623374
 20
170.7448145244048
 30
0.0
  0
VERTEX
  5
29875
  8
0
 10
174.4180423498554
 20
170.7468202894797
 30
0.0
  0
VERTEX
  5
29876
  8
0
 10
174.42523401851199
 20
170.7482011853931
 30
0.0
  0
VERTEX
  5
29877
  8
0
 10
174.43259664596019
 20
170.74983466555841
 30
0.0
  0
VERTEX
  5
29878
  8
0
 10
174.44783524657461
 20
170.7538609337571
 30
0.0
  0
VERTEX
  5
29879
  8
0
 10
174.46375882796099
 20
170.75890191769031
 30
0.0
  0
VERTEX
  5
2987A
  8
0
 10
174.48036764676741
 20
170.7649599809906
 30
0.0
  0
VERTEX
  5
2987B
  8
0
 10
174.49766154138931
 20
170.77203702671019
 30
0.0
  0
VERTEX
  5
2987C
  8
0
 10
174.51563993462639
 20
170.78013449854689
 30
0.0
  0
VERTEX
  5
2987D
  8
0
 10
174.52488552515169
 20
170.78456622051911
 30
0.0
  0
VERTEX
  5
2987E
  8
0
 10
174.53430183760901
 20
170.78925338386989
 30
0.0
  0
VERTEX
  5
2987F
  8
0
 10
174.55364585496801
 20
170.79939421848661
 30
0.0
  0
VERTEX
  5
29880
  8
0
 10
174.57367019121719
 20
170.81055709311661
 30
0.0
  0
VERTEX
  5
29881
  8
0
 10
174.59437265831809
 20
170.8227416615218
 30
0.0
  0
VERTEX
  5
29882
  8
0
 10
174.61575068439299
 20
170.83594715025311
 30
0.0
  0
VERTEX
  5
29883
  8
0
 10
174.6378013235506
 20
170.8501723699587
 30
0.0
  0
VERTEX
  5
29884
  8
0
 10
174.6490778528364
 20
170.85766689665749
 30
0.0
  0
VERTEX
  5
29885
  8
0
 10
174.6605212667871
 20
170.86541572821301
 30
0.0
  0
VERTEX
  5
29886
  8
0
 10
174.68390685392211
 20
170.8816752438224
 30
0.0
  0
VERTEX
  5
29887
  8
0
 10
174.70795408653149
 20
170.8989485625498
 30
0.0
  0
VERTEX
  5
29888
  8
0
 10
174.7202244812909
 20
170.9079645645611
 30
0.0
  0
VERTEX
  5
29889
  8
0
 10
174.79726468787459
 20
170.96734674981411
 30
0.0
  0
VERTEX
  5
2988A
  8
0
 10
174.96844407563279
 20
171.11295162762821
 30
0.0
  0
VERTEX
  5
2988B
  8
0
 10
175.16115639588961
 20
171.29335638401969
 30
0.0
  0
VERTEX
  5
2988C
  8
0
 10
175.37349738628711
 20
171.5069825723281
 30
0.0
  0
VERTEX
  5
2988D
  8
0
 10
175.6032855460798
 20
171.75197332820011
 30
0.0
  0
VERTEX
  5
2988E
  8
0
 10
175.8481254126003
 20
172.0262841226922
 30
0.0
  0
VERTEX
  5
2988F
  8
0
 10
175.9753115138268
 20
172.1736636333921
 30
0.0
  0
VERTEX
  5
29890
  8
0
 10
176.105170787004
 20
172.3274085168745
 30
0.0
  0
VERTEX
  5
29891
  8
0
 10
176.37131657395511
 20
172.65254667885799
 30
0.0
  0
VERTEX
  5
29892
  8
0
 10
176.64326355115909
 20
172.9986447265232
 30
0.0
  0
VERTEX
  5
29893
  8
0
 10
176.9175277045436
 20
173.36234955452301
 30
0.0
  0
VERTEX
  5
29894
  8
0
 10
177.1907073518509
 20
173.74029537833749
 30
0.0
  0
VERTEX
  5
29895
  8
0
 10
177.46738136006371
 20
174.14075321069001
 30
0.0
  0
VERTEX
  5
29896
  8
0
 10
177.60752288374161
 20
174.3511597173065
 30
0.0
  0
VERTEX
  5
29897
  8
0
 10
177.7482360323105
 20
174.56810037685449
 30
0.0
  0
VERTEX
  5
29898
  8
0
 10
178.02936561777179
 20
175.0207818056324
 30
0.0
  0
VERTEX
  5
29899
  8
0
 10
178.30657956042839
 20
175.4971523471954
 30
0.0
  0
VERTEX
  5
2989A
  8
0
 10
178.44233701143881
 20
175.74368873142021
 30
0.0
  0
SEQEND
  5
2989B
  8
0
  0
POLYLINE
  5
24B82
  8
0
 66
     1
 10
0.0
 20
0.0
 30
0.0
  0
VERTEX
  5
2989C
  8
0
 10
175.82925996908531
 20
175.74368873142021
 30
0.0
  0
VERTEX
  5
2989D
  8
0
 10
175.71725052300081
 20
175.49390983612781
 30
0.0
  0
VERTEX
  5
2989E
  8
0
 10
175.48713338189879
 20
175.01157288388779
 30
0.0
  0
VERTEX
  5
2989F
  8
0
 10
175.25208540797041
 20
174.55380866159379
 30
0.0
  0
VERTEX
  5
298A0
  8
0
 10
175.1338803224811
 20
174.33470868139011
 30
0.0
  0
VERTEX
  5
298A1
  8
0
 10
175.015823819074
 20
174.12241473253511
 30
0.0
  0
VERTEX
  5
298A2
  8
0
 10
174.7818791232184
 20
173.7190191064951
 30
0.0
  0
VERTEX
  5
298A3
  8
0
 10
174.54945165598059
 20
173.33850403929091
 30
0.0
  0
VERTEX
  5
298A4
  8
0
 10
174.3153190080389
 20
172.97342152683041
 30
0.0
  0
VERTEX
  5
298A5
  8
0
 10
174.08256300273001
 20
172.627182603378
 30
0.0
  0
VERTEX
  5
298A6
  8
0
 10
173.8542671392006
 20
172.30300155498301
 30
0.0
  0
VERTEX
  5
298A7
  8
0
 10
173.7427162237926
 20
172.15009588205339
 30
0.0
  0
VERTEX
  5
298A8
  8
0
 10
173.6333712551824
 20
172.0037659982072
 30
0.0
  0
VERTEX
  5
298A9
  8
0
 10
173.42265417592981
 20
171.7320861582825
 30
0.0
  0
VERTEX
  5
298AA
  8
0
 10
173.22466568994179
 20
171.49025481269331
 30
0.0
  0
VERTEX
  5
298AB
  8
0
 10
173.04155630820841
 20
171.2800893107983
 30
0.0
  0
VERTEX
  5
298AC
  8
0
 10
172.87527891314389
 20
171.10320947355689
 30
0.0
  0
VERTEX
  5
298AD
  8
0
 10
172.727517914098
 20
170.96093646929461
 30
0.0
  0
VERTEX
  5
298AE
  8
0
 10
172.6609972854277
 20
170.90306659553329
 30
0.0
  0
VERTEX
  5
298AF
  8
0
 10
172.5995513387675
 20
170.85413574496391
 30
0.0
  0
VERTEX
  5
298B0
  8
0
 10
172.49223856568079
 20
170.7832030859422
 30
0.0
  0
VERTEX
  5
298B1
  8
0
 10
172.4060201045836
 20
170.74803977270861
 30
0.0
  0
VERTEX
  5
298B2
  8
0
 10
172.37083245160329
 20
170.74368873142021
 30
0.0
  0
SEQEND
  5
298B3
  8
0
  0
POLYLINE
  5
24B83
  8
0
 66
     1
 10
0.0
 20
0.0
 30
0.0
  0
VERTEX
  5
298B4
  8
0
 10
181.01458802272779
 20
183.65875224088131
 30
0.0
  0
VERTEX
  5
298B5
  8
0
 10
180.84775740326671
 20
183.4897874026905
 30
0.0
  0
VERTEX
  5
298B6
  8
0
 10
180.5173787433684
 20
183.14233655459839
 30
0.0
  0
VERTEX
  5
298B7
  8
0
 10
180.19151093273371
 20
182.78233269550171
 30
0.0
  0
VERTEX
  5
298B8
  8
0
 10
180.03031835911349
 20
182.5976780287769
 30
0.0
  0
VERTEX
  5
298B9
  8
0
 10
179.87031293181531
 20
182.4099514376407
 30
0.0
  0
VERTEX
  5
298BA
  8
0
 10
179.553941423102
 20
182.02537443103259
 30
0.0
  0
VERTEX
  5
298BB
  8
0
 10
179.24255073468839
 20
181.62878927486051
 30
0.0
  0
VERTEX
  5
298BC
  8
0
 10
178.93629276499209
 20
181.2203894259614
 30
0.0
  0
VERTEX
  5
298BD
  8
0
 10
178.63531690865699
 20
180.8003741044576
 30
0.0
  0
VERTEX
  5
298BE
  8
0
 10
178.33976998367751
 20
180.3689481965734
 30
0.0
  0
VERTEX
  5
298BF
  8
0
 10
178.19407752886551
 20
180.1490218244694
 30
0.0
  0
VERTEX
  5
298C0
  8
0
 10
178.0497961597797
 20
179.92632215469351
 30
0.0
  0
VERTEX
  5
298C1
  8
0
 10
177.76553688809429
 20
179.4727118947003
 30
0.0
  0
VERTEX
  5
298C2
  8
0
 10
177.48713083215631
 20
179.00833869065079
 30
0.0
  0
VERTEX
  5
298C3
  8
0
 10
177.2147138002637
 20
178.5334290668352
 30
0.0
  0
VERTEX
  5
298C4
  8
0
 10
176.94841867922901
 20
178.0482146872796
 30
0.0
  0
VERTEX
  5
298C5
  8
0
 10
176.68837536955681
 20
177.55293224273689
 30
0.0
  0
VERTEX
  5
298C6
  8
0
 10
176.56073790569619
 20
177.30159080808701
 30
0.0
  0
VERTEX
  5
298C7
  8
0
 10
176.434710722077
 20
177.0478233352278
 30
0.0
  0
VERTEX
  5
298C8
  8
0
 10
176.1875484760665
 20
176.53313436018601
 30
0.0
  0
VERTEX
  5
298C9
  8
0
 10
175.94700919888791
 20
176.00911638626619
 30
0.0
  0
VERTEX
  5
298CA
  8
0
 10
175.82925996908531
 20
175.74368873142021
 30
0.0
  0
SEQEND
  5
298CB
  8
0
  0
POLYLINE
  5
24B84
  8
0
 66
     1
 10
0.0
 20
0.0
 30
0.0
  0
VERTEX
  5
298CC
  8
0
 10
178.44233701143881
 20
175.74368873142021
 30
0.0
  0
VERTEX
  5
298CD
  8
0
 10
178.52958093964901
 20
175.90399075054941
 30
0.0
  0
VERTEX
  5
298CE
  8
0
 10
178.7063323769496
 20
176.2208479831915
 30
0.0
  0
VERTEX
  5
298CF
  8
0
 10
178.88606216677201
 20
176.5326384987502
 30
0.0
  0
VERTEX
  5
298D0
  8
0
 10
178.97702884762319
 20
176.68660744136599
 30
0.0
  0
VERTEX
  5
298D1
  8
0
 10
179.0687219019631
 20
176.83927832176869
 30
0.0
  0
VERTEX
  5
298D2
  8
0
 10
179.2542623862393
 20
177.1406848640413
 30
0.0
  0
VERTEX
  5
298D3
  8
0
 10
179.44263364743611
 20
177.43677694685761
 30
0.0
  0
VERTEX
  5
298D4
  8
0
 10
179.63378495096759
 20
177.72747482286599
 30
0.0
  0
VERTEX
  5
298D5
  8
0
 10
179.827664813491
 20
178.01270019755199
 30
0.0
  0
VERTEX
  5
298D6
  8
0
 10
180.02422101677249
 20
178.2923762503269
 30
0.0
  0
VERTEX
  5
298D7
  8
0
 10
180.12348623051
 20
178.43010968268979
 30
0.0
  0
VERTEX
  5
298D8
  8
0
 10
180.22340062175181
 20
178.5664276552165
 30
0.0
  0
VERTEX
  5
298D9
  8
0
 10
180.42514998279989
 20
178.83478060115019
 30
0.0
  0
VERTEX
  5
298DA
  8
0
 10
180.6294147621679
 20
179.09736281183899
 30
0.0
  0
VERTEX
  5
298DB
  8
0
 10
180.83613994462209
 20
179.3541035652442
 30
0.0
  0
VERTEX
  5
298DC
  8
0
 10
181.04526985226079
 20
179.60493371262319
 30
0.0
  0
VERTEX
  5
298DD
  8
0
 10
181.25674815951089
 20
179.8497856971544
 30
0.0
  0
VERTEX
  5
298DE
  8
0
 10
181.36335018788071
 20
179.96994920662331
 30
0.0
  0
VERTEX
  5
298DF
  8
0
 10
181.47051790829789
 20
180.08859357213299
 30
0.0
  0
VERTEX
  5
298E0
  8
0
 10
181.6865215233864
 20
180.32129301873141
 30
0.0
  0
VERTEX
  5
298E1
  8
0
 10
181.90470082788741
 20
180.54782136332321
 30
0.0
  0
VERTEX
  5
298E2
  8
0
 10
182.01458802272779
 20
180.65875224088131
 30
0.0
  0
SEQEND
  5
298E3
  8
0
  0
LINE
  5
24B85
  8
0
 10
182.01458802272779
 20
180.65875224088131
 30
0.0
 11
186.54783770756299
 21
185.1920019257168
 31
0.0
  0
LINE
  5
24B86
  8
0
 10
182.5478377075631
 20
185.1920019257168
 30
0.0
 11
181.01458802272779
 21
183.65875224088131
 31
0.0
  0
POLYLINE
  5
24B87
  8
0
 66
     1
 10
0.0
 20
0.0
 30
0.0
  0
VERTEX
  5
298E4
  8
0
 10
186.5478377075631
 20
185.1920019257168
 30
0.0
  0
VERTEX
  5
298E5
  8
0
 10
186.6611324550845
 20
185.3036228925539
 30
0.0
  0
VERTEX
  5
298E6
  8
0
 10
186.89517769392529
 20
185.52427956679821
 30
0.0
  0
VERTEX
  5
298E7
  8
0
 10
187.13903265798751
 20
185.74136636510141
 30
0.0
  0
VERTEX
  5
298E8
  8
0
 10
187.26458802272779
 20
185.84852554718421
 30
0.0
  0
SEQEND
  5
298E9
  8
0
  0
POLYLINE
  5
24B88
  8
0
 66
     1
 10
0.0
 20
0.0
 30
0.0
  0
VERTEX
  5
298EA
  8
0
 10
187.26458802272779
 20
185.84852554718421
 30
0.0
  0
VERTEX
  5
298EB
  8
0
 10
187.5455573710438
 20
186.0865343654163
 30
0.0
  0
VERTEX
  5
298EC
  8
0
 10
188.09863068694361
 20
186.56277011745081
 30
0.0
  0
VERTEX
  5
298ED
  8
0
 10
188.6354364500277
 20
187.03274757221291
 30
0.0
  0
VERTEX
  5
298EE
  8
0
 10
188.8960670818413
 20
187.2630697375821
 30
0.0
  0
SEQEND
  5
298EF
  8
0
  0
POLYLINE
  5
24B89
  8
0
 66
     1
 10
0.0
 20
0.0
 30
0.0
  0
VERTEX
  5
298F0
  8
0
 10
185.3003889936472
 20
187.2630697375821
 30
0.0
  0
VERTEX
  5
298F1
  8
0
 10
185.21164766980269
 20
187.2114609588202
 30
0.0
  0
VERTEX
  5
298F2
  8
0
 10
185.03612686912049
 20
187.10713248353929
 30
0.0
  0
VERTEX
  5
298F3
  8
0
 10
184.8632527475263
 20
187.0013412081926
 30
0.0
  0
VERTEX
  5
298F4
  8
0
 10
184.777819641321
 20
186.94790400187321
 30
0.0
  0
VERTEX
  5
298F5
  8
0
 10
184.6930618741454
 20
186.89410951145871
 30
0.0
  0
VERTEX
  5
298F6
  8
0
 10
184.52559025049911
 20
186.7854600767173
 30
0.0
  0
VERTEX
  5
298F7
  8
0
 10
184.3608733028895
 20
186.67541588725129
 30
0.0
  0
VERTEX
  5
298F8
  8
0
 10
184.19894587490461
 20
186.5640002213845
 30
0.0
  0
VERTEX
  5
298F9
  8
0
 10
184.0398422200484
 20
186.45123664755741
 30
0.0
  0
VERTEX
  5
298FA
  8
0
 10
183.88359599449501
 20
186.33714901934121
 30
0.0
  0
VERTEX
  5
298FB
  8
0
 10
183.8065547701741
 20
186.2796162158038
 30
0.0
  0
VERTEX
  5
298FC
  8
0
 10
183.73024024996869
 20
186.22176147039411
 30
0.0
  0
VERTEX
  5
298FD
  8
0
 10
183.5798074267525
 20
186.10509840935259
 30
0.0
  0
VERTEX
  5
298FE
  8
0
 10
183.43232934682621
 20
185.9871845146713
 30
0.0
  0
VERTEX
  5
298FF
  8
0
 10
183.2878372071342
 20
185.86804472940091
 30
0.0
  0
VERTEX
  5
29900
  8
0
 10
183.14636157298699
 20
185.74770425591259
 30
0.0
  0
VERTEX
  5
29901
  8
0
 10
183.0079323715949
 20
185.62618855056641
 30
0.0
  0
VERTEX
  5
29902
  8
0
 10
182.93986935939409
 20
185.56499800918479
 30
0.0
  0
VERTEX
  5
29903
  8
0
 10
182.87257888573779
 20
185.5035233183257
 30
0.0
  0
VERTEX
  5
29904
  8
0
 10
182.74032974757009
 20
185.3797345073217
 30
0.0
  0
VERTEX
  5
29905
  8
0
 10
182.611212932565
 20
185.254848303362
 30
0.0
  0
VERTEX
  5
29906
  8
0
 10
182.5478377075631
 20
185.1920019257168
 30
0.0
  0
SEQEND
  5
29907
  8
0
  0
LINE
  5
24B8A
  8
0
 10
186.26458802272779
 20
187.81975030657441
 30
0.0
 11
185.3003889936472
 21
187.2630697375821
 31
0.0
  0
POLYLINE
  5
24B8B
  8
0
 66
     1
 10
0.0
 20
0.0
 30
0.0
  0
VERTEX
  5
29908
  8
0
 10
188.8960670818413
 20
187.2630697375821
 30
0.0
  0
VERTEX
  5
29909
  8
0
 10
189.03013453288591
 20
187.38402928283361
 30
0.0
  0
VERTEX
  5
2990A
  8
0
 10
189.2916086623469
 20
187.63311123850141
 30
0.0
  0
VERTEX
  5
2990B
  8
0
 10
189.54391881617451
 20
187.8914716985027
 30
0.0
  0
VERTEX
  5
2990C
  8
0
 10
189.66653409885669
 20
188.02402653798339
 30
0.0
  0
VERTEX
  5
2990D
  8
0
 10
189.78673595533189
 20
188.1587737335644
 30
0.0
  0
VERTEX
  5
2990E
  8
0
 10
190.0197434206743
 20
188.4346687536563
 30
0.0
  0
VERTEX
  5
2990F
  8
0
 10
190.24263734590559
 20
188.71879696258969
 30
0.0
  0
VERTEX
  5
29910
  8
0
 10
190.4551270538519
 20
189.0107878272301
 30
0.0
  0
VERTEX
  5
29911
  8
0
 10
190.65693543553559
 20
189.31026056071181
 30
0.0
  0
VERTEX
  5
29912
  8
0
 10
190.84779931155421
 20
189.61682461902231
 30
0.0
  0
VERTEX
  5
29913
  8
0
 10
190.93904871008669
 20
189.77264130710321
 30
0.0
  0
VERTEX
  5
29914
  8
0
 10
191.02746977529449
 20
189.9300802103148
 30
0.0
  0
VERTEX
  5
29915
  8
0
 10
191.1957125175326
 20
190.24961881627809
 30
0.0
  0
VERTEX
  5
29916
  8
0
 10
191.35230813199809
 20
190.57502372488719
 30
0.0
  0
VERTEX
  5
29917
  8
0
 10
191.497052401503
 20
190.90587057384019
 30
0.0
  0
VERTEX
  5
29918
  8
0
 10
191.62975656426249
 20
191.24172790397191
 30
0.0
  0
VERTEX
  5
29919
  8
0
 10
191.75024756005971
 20
191.58215772192031
 30
0.0
  0
VERTEX
  5
2991A
  8
0
 10
191.80586338839279
 20
191.7539487946101
 30
0.0
  0
VERTEX
  5
2991B
  8
0
 10
191.8583682559354
 20
191.92671607131891
 30
0.0
  0
VERTEX
  5
2991C
  8
0
 10
191.95397765110491
 20
192.27495361175889
 30
0.0
  0
VERTEX
  5
2991D
  8
0
 10
192.0369510608389
 20
192.62641620478141
 30
0.0
  0
VERTEX
  5
2991E
  8
0
 10
192.07366480906609
 20
192.80321381140581
 30
0.0
  0
SEQEND
  5
2991F
  8
0
  0
POLYLINE
  5
24B8C
  8
0
 66
     1
 10
0.0
 20
0.0
 30
0.0
  0
VERTEX
  5
29920
  8
0
 10
190.02461298404589
 20
192.80321381140581
 30
0.0
  0
VERTEX
  5
29921
  8
0
 10
189.9793874045055
 20
192.6309106702729
 30
0.0
  0
VERTEX
  5
29922
  8
0
 10
189.87748466089121
 20
192.2895384423955
 30
0.0
  0
VERTEX
  5
29923
  8
0
 10
189.76048469070341
 20
191.95304152695871
 30
0.0
  0
VERTEX
  5
29924
  8
0
 10
189.69639459582621
 20
191.78683026010961
 30
0.0
  0
VERTEX
  5
29925
  8
0
 10
189.62861951798541
 20
191.62208723502951
 30
0.0
  0
VERTEX
  5
29926
  8
0
 10
189.48215064614169
 20
191.2973318860308
 30
0.0
  0
VERTEX
  5
29927
  8
0
 10
189.3213685393477
 20
190.97941950618809
 30
0.0
  0
VERTEX
  5
29928
  8
0
 10
189.14659204652671
 20
190.6689805513524
 30
0.0
  0
VERTEX
  5
29929
  8
0
 10
188.95816776903641
 20
190.36663065673611
 30
0.0
  0
VERTEX
  5
2992A
  8
0
 10
188.7564693733201
 20
190.07296941603909
 30
0.0
  0
VERTEX
  5
2992B
  8
0
 10
188.65076637121629
 20
189.92957973427929
 30
0.0
  0
VERTEX
  5
2992C
  8
0
 10
188.54189684988381
 20
189.78857919238769
 30
0.0
  0
VERTEX
  5
2992D
  8
0
 10
188.3148757200708
 20
189.5140239634429
 30
0.0
  0
VERTEX
  5
2992E
  8
0
 10
188.0758561922047
 20
189.2498482029709
 30
0.0
  0
VERTEX
  5
2992F
  8
0
 10
187.8253122687762
 20
188.99657580108851
 30
0.0
  0
VERTEX
  5
29930
  8
0
 10
187.56374080644289
 20
188.75470902533149
 30
0.0
  0
VERTEX
  5
29931
  8
0
 10
187.29166053070699
 20
188.52472752460201
 30
0.0
  0
VERTEX
  5
29932
  8
0
 10
187.15184741699721
 20
188.41433722283719
 30
0.0
  0
VERTEX
  5
29933
  8
0
 10
187.00961100722469
 20
188.3070873779707
 30
0.0
  0
VERTEX
  5
29934
  8
0
 10
186.71815157178659
 20
188.102220190221
 30
0.0
  0
VERTEX
  5
29935
  8
0
 10
186.4178602210927
 20
187.91053223592871
 30
0.0
  0
VERTEX
  5
29936
  8
0
 10
186.26458802272779
 20
187.81975030657441
 30
0.0
  0
SEQEND
  5
29937
  8
0
  0
POLYLINE
  5
24B8D
  8
0
 66
     1
 10
0.0
 20
0.0
 30
0.0
  0
VERTEX
  5
29938
  8
0
 10
190.26458802272779
 20
195.54817315835811
 30
0.0
  0
VERTEX
  5
29939
  8
0
 10
190.2644767689676
 20
195.46132351251799
 30
0.0
  0
VERTEX
  5
2993A
  8
0
 10
190.26354839558769
 20
195.28907744047501
 30
0.0
  0
VERTEX
  5
2993B
  8
0
 10
190.2615932987398
 20
195.1188645024003
 30
0.0
  0
VERTEX
  5
2993C
  8
0
 10
190.26019855190981
 20
195.03455571035229
 30
0.0
  0
VERTEX
  5
2993D
  8
0
 10
190.2585085103546
 20
194.9507971511398
 30
0.0
  0
VERTEX
  5
2993E
  8
0
 10
190.2541912081019
 20
194.78498484175091
 30
0.0
  0
VERTEX
  5
2993F
  8
0
 10
190.2485392317229
 20
194.62153344949451
 30
0.0
  0
VERTEX
  5
29940
  8
0
 10
190.2414515104858
 20
194.4605432135622
 30
0.0
  0
VERTEX
  5
29941
  8
0
 10
190.2328284756945
 20
194.30210847091851
 30
0.0
  0
VERTEX
  5
29942
  8
0
 10
190.22257282728239
 20
194.14632282291899
 30
0.0
  0
VERTEX
  5
29943
  8
0
 10
190.21680313017509
 20
194.06945207686519
 30
0.0
  0
VERTEX
  5
29944
  8
0
 10
190.21059011693319
 20
193.99327766109721
 30
0.0
  0
VERTEX
  5
29945
  8
0
 10
190.19678934000291
 20
193.84306139832461
 30
0.0
  0
VERTEX
  5
29946
  8
0
 10
190.18108350645389
 20
193.69575872436459
 30
0.0
  0
VERTEX
  5
29947
  8
0
 10
190.16339017818859
 20
193.5514498668617
 30
0.0
  0
VERTEX
  5
29948
  8
0
 10
190.14363195912759
 20
193.41020985698739
 30
0.0
  0
VERTEX
  5
29949
  8
0
 10
190.12173692251309
 20
193.2721078000518
 30
0.0
  0
VERTEX
  5
2994A
  8
0
 10
190.1099672033865
 20
193.20425330093161
 30
0.0
  0
VERTEX
  5
2994B
  8
0
 10
190.0976251858537
 20
193.1371333722181
 30
0.0
  0
VERTEX
  5
2994C
  8
0
 10
190.0707747879369
 20
193.0031843877841
 30
0.0
  0
VERTEX
  5
2994D
  8
0
 10
190.0408136385999
 20
192.86965882274811
 30
0.0
  0
VERTEX
  5
2994E
  8
0
 10
190.02461298404589
 20
192.80321381140581
 30
0.0
  0
SEQEND
  5
2994F
  8
0
  0
POLYLINE
  5
24B8E
  8
0
 66
     1
 10
0.0
 20
0.0
 30
0.0
  0
VERTEX
  5
29950
  8
0
 10
192.07366480906609
 20
192.80321381140581
 30
0.0
  0
VERTEX
  5
29951
  8
0
 10
192.0860576263843
 20
192.8673780372755
 30
0.0
  0
VERTEX
  5
29952
  8
0
 10
192.10935983721791
 20
192.9980540033489
 30
0.0
  0
VERTEX
  5
29953
  8
0
 10
192.1307260927025
 20
193.13181860711481
 30
0.0
  0
VERTEX
  5
29954
  8
0
 10
192.14070007367181
 20
193.1998422354477
 30
0.0
  0
VERTEX
  5
29955
  8
0
 10
192.1502108426229
 20
193.26861703083341
 30
0.0
  0
VERTEX
  5
29956
  8
0
 10
192.16787304523561
 20
193.40838904400789
 30
0.0
  0
VERTEX
  5
29957
  8
0
 10
192.18377589090261
 20
193.55106955875181
 30
0.0
  0
VERTEX
  5
29958
  8
0
 10
192.197986474728
 20
193.69658920147231
 30
0.0
  0
VERTEX
  5
29959
  8
0
 10
192.210575428661
 20
193.8448748990977
 30
0.0
  0
VERTEX
  5
2995A
  8
0
 10
192.22161652256881
 20
193.99585047878011
 30
0.0
  0
VERTEX
  5
2995B
  8
0
 10
192.22658042975479
 20
194.072322473301
 30
0.0
  0
VERTEX
  5
2995C
  8
0
 10
192.2311862428503
 20
194.14943728061101
 30
0.0
  0
VERTEX
  5
2995D
  8
0
 10
192.2393633686363
 20
194.3055550423241
 30
0.0
  0
VERTEX
  5
2995E
  8
0
 10
192.24622854129481
 20
194.46412317331169
 30
0.0
  0
VERTEX
  5
2995F
  8
0
 10
192.25186357536151
 20
194.6250546634883
 30
0.0
  0
VERTEX
  5
29960
  8
0
 10
192.25635126254099
 20
194.78825793566691
 30
0.0
  0
VERTEX
  5
29961
  8
0
 10
192.25977506263439
 20
194.95363795671301
 30
0.0
  0
VERTEX
  5
29962
  8
0
 10
192.2611141800528
 20
195.03711371822959
 30
0.0
  0
VERTEX
  5
29963
  8
0
 10
192.2622187416631
 20
195.12109669757541
 30
0.0
  0
VERTEX
  5
29964
  8
0
 10
192.2637660007172
 20
195.29053360376381
 30
0.0
  0
VERTEX
  5
29965
  8
0
 10
192.2645001007966
 20
195.4618460791034
 30
0.0
  0
VERTEX
  5
29966
  8
0
 10
192.26458802272779
 20
195.54817315835811
 30
0.0
  0
SEQEND
  5
29967
  8
0
  0
LINE
  5
24B8F
  8
0
 10
192.26458802272779
 20
195.54817315835811
 30
0.0
 11
192.26458802272779
 21
246.74368873142021
 31
0.0
  0
LINE
  5
24B90
  8
0
 10
142.75848754263899
 20
237.74368873142021
 30
0.0
 11
156.7706885028166
 21
237.74368873142021
 31
0.0
  0
POLYLINE
  5
24B91
  8
0
 66
     1
 10
0.0
 20
0.0
 30
0.0
  0
VERTEX
  5
29968
  8
0
 10
142.75848754263899
 20
237.74368873142021
 30
0.0
  0
VERTEX
  5
29969
  8
0
 10
142.64821068426451
 20
237.7454264464414
 30
0.0
  0
VERTEX
  5
2996A
  8
0
 10
142.42809486964609
 20
237.75931781522419
 30
0.0
  0
VERTEX
  5
2996B
  8
0
 10
142.20929102253899
 20
237.78704539108139
 30
0.0
  0
VERTEX
  5
2996C
  8
0
 10
142.10065290223861
 20
237.8060654847732
 30
0.0
  0
VERTEX
  5
2996D
  8
0
 10
141.99266799858731
 20
237.8284990696375
 30
0.0
  0
VERTEX
  5
2996E
  8
0
 10
141.77908599353049
 20
237.88351424106941
 30
0.0
  0
VERTEX
  5
2996F
  8
0
 10
141.56939312742239
 20
237.95187244376081
 30
0.0
  0
VERTEX
  5
29970
  8
0
 10
141.3644220768027
 20
238.03330223179731
 30
0.0
  0
VERTEX
  5
29971
  8
0
 10
141.1649867681933
 20
238.12748025286149
 30
0.0
  0
VERTEX
  5
29972
  8
0
 10
140.9718791460495
 20
238.23403253224481
 30
0.0
  0
VERTEX
  5
29973
  8
0
 10
140.87793891342511
 20
238.29181867107539
 30
0.0
  0
VERTEX
  5
29974
  8
0
 10
140.7858660280011
 20
238.35253595787341
 30
0.0
  0
VERTEX
  5
29975
  8
0
 10
140.60768605987039
 20
238.4825199604611
 30
0.0
  0
VERTEX
  5
29976
  8
0
 10
140.43804678255759
 20
238.6234683821076
 30
0.0
  0
VERTEX
  5
29977
  8
0
 10
140.27762182244351
 20
238.77482152592711
 30
0.0
  0
VERTEX
  5
29978
  8
0
 10
140.12704821646261
 20
238.9359783785699
 30
0.0
  0
VERTEX
  5
29979
  8
0
 10
139.9869238824723
 20
239.1062989968041
 30
0.0
  0
VERTEX
  5
2997A
  8
0
 10
139.92095575754331
 20
239.19468571322571
 30
0.0
  0
VERTEX
  5
2997B
  8
0
 10
139.8578052449601
 20
239.28510704868859
 30
0.0
  0
VERTEX
  5
2997C
  8
0
 10
139.78777429543669
 20
239.3930502462222
 30
0.0
  0
VERTEX
  5
2997D
  8
0
 10
139.76849889081291
 20
239.42435702391049
 30
0.0
  0
VERTEX
  5
2997E
  8
0
 10
139.74955339923099
 20
239.45586454525619
 30
0.0
  0
VERTEX
  5
2997F
  8
0
 10
139.74020502551869
 20
239.47169249924451
 30
0.0
  0
VERTEX
  5
29980
  8
0
 10
139.73093991112191
 20
239.48756933374401
 30
0.0
  0
VERTEX
  5
29981
  8
0
 10
139.7126604802836
 20
239.51946789109161
 30
0.0
  0
VERTEX
  5
29982
  8
0
 10
139.6947171236543
 20
239.5515566976373
 30
0.0
  0
VERTEX
  5
29983
  8
0
 10
139.67711182109031
 20
239.58383221272649
 30
0.0
  0
VERTEX
  5
29984
  8
0
 10
139.659846515147
 20
239.61629087510391
 30
0.0
  0
VERTEX
  5
29985
  8
0
 10
139.64292311086501
 20
239.64892910330531
 30
0.0
  0
VERTEX
  5
29986
  8
0
 10
139.6345902068623
 20
239.6653144299548
 30
0.0
  0
VERTEX
  5
29987
  8
0
 10
139.62634347555959
 20
239.68174329605469
 30
0.0
  0
VERTEX
  5
29988
  8
0
 10
139.61010943861501
 20
239.71472983265861
 30
0.0
  0
VERTEX
  5
29989
  8
0
 10
139.59422279128239
 20
239.7478850734083
 30
0.0
  0
VERTEX
  5
2998A
  8
0
 10
139.58641028801071
 20
239.76452481532809
 30
0.0
  0
SEQEND
  5
2998B
  8
0
  0
LINE
  5
24B92
  8
0
 10
139.58641028801071
 20
239.76452481532809
 30
0.0
 11
138.31484055442201
 21
242.4914149089195
 31
0.0
  0
POLYLINE
  5
24B93
  8
0
 66
     1
 10
0.0
 20
0.0
 30
0.0
  0
VERTEX
  5
2998C
  8
0
 10
138.31484055442201
 20
242.4914149089195
 30
0.0
  0
VERTEX
  5
2998D
  8
0
 10
138.1999154294717
 20
242.73787263471559
 30
0.0
  0
VERTEX
  5
2998E
  8
0
 10
137.97851514688901
 20
243.2126670729171
 30
0.0
  0
VERTEX
  5
2998F
  8
0
 10
137.768786247994
 20
243.6624321480285
 30
0.0
  0
VERTEX
  5
29990
  8
0
 10
137.6684443120715
 20
243.87761612403119
 30
0.0
  0
SEQEND
  5
29991
  8
0
  0
POLYLINE
  5
24B94
  8
0
 66
     1
 10
0.0
 20
0.0
 30
0.0
  0
VERTEX
  5
29992
  8
0
 10
137.6684443120715
 20
243.87761612403119
 30
0.0
  0
VERTEX
  5
29993
  8
0
 10
137.66165799753131
 20
243.89197057921271
 30
0.0
  0
VERTEX
  5
29994
  8
0
 10
137.64766883528659
 20
243.9203860402931
 30
0.0
  0
VERTEX
  5
29995
  8
0
 10
137.63315284498441
 20
243.9483682655096
 30
0.0
  0
VERTEX
  5
29996
  8
0
 10
137.6257087620595
 20
243.9621818052529
 30
0.0
  0
VERTEX
  5
29997
  8
0
 10
137.61814710258631
 20
243.97586930183209
 30
0.0
  0
VERTEX
  5
29998
  8
0
 10
137.60269143033341
 20
244.00284454142499
 30
0.0
  0
VERTEX
  5
29999
  8
0
 10
137.58682786551179
 20
244.0292532150597
 30
0.0
  0
VERTEX
  5
2999A
  8
0
 10
137.5706001305162
 20
244.0550587371626
 30
0.0
  0
VERTEX
  5
2999B
  8
0
 10
137.55405311011441
 20
244.08022892969171
 30
0.0
  0
VERTEX
  5
2999C
  8
0
 10
137.53723207507929
 20
244.10473652590559
 30
0.0
  0
VERTEX
  5
2999D
  8
0
 10
137.52873232725739
 20
244.11673551123249
 30
0.0
  0
VERTEX
  5
2999E
  8
0
 10
137.5201805475495
 20
244.12856138225609
 30
0.0
  0
VERTEX
  5
2999F
  8
0
 10
137.50294413957971
 20
244.1516842805631
 30
0.0
  0
VERTEX
  5
299A0
  8
0
 10
137.4855699710796
 20
244.17408769551051
 30
0.0
  0
VERTEX
  5
299A1
  8
0
 10
137.46810588486349
 20
244.1957566300234
 30
0.0
  0
VERTEX
  5
299A2
  8
0
 10
137.45060007601501
 20
244.21667876755461
 30
0.0
  0
VERTEX
  5
299A3
  8
0
 10
137.4331007581668
 20
244.23684452853189
 30
0.0
  0
VERTEX
  5
299A4
  8
0
 10
137.42436853143721
 20
244.246641519072
 30
0.0
  0
VERTEX
  5
299A5
  8
0
 10
137.4156558667799
 20
244.25624705090189
 30
0.0
  0
VERTEX
  5
299A6
  8
0
 10
137.3983127981549
 20
244.27488211195171
 30
0.0
  0
VERTEX
  5
299A7
  8
0
 10
137.3811181818966
 20
244.29274800601431
 30
0.0
  0
VERTEX
  5
299A8
  8
0
 10
137.37259085643271
 20
244.3013926332242
 30
0.0
  0
VERTEX
  5
299A9
  8
0
 10
137.3641176837734
 20
244.3098453904058
 30
0.0
  0
VERTEX
  5
299AA
  8
0
 10
137.34733616525679
 20
244.32619597803301
 30
0.0
  0
VERTEX
  5
299AB
  8
0
 10
137.33061266961039
 20
244.34199290844251
 30
0.0
  0
VERTEX
  5
299AC
  8
0
 10
137.32225718942581
 20
244.34970621333201
 30
0.0
  0
VERTEX
  5
299AD
  8
0
 10
137.31390689764351
 20
244.3572987256953
 30
0.0
  0
VERTEX
  5
299AE
  8
0
 10
137.29722475524679
 20
244.37212902885989
 30
0.0
  0
VERTEX
  5
299AF
  8
0
 10
137.2805717689167
 20
244.38649866666131
 30
0.0
  0
VERTEX
  5
299B0
  8
0
 10
137.2639531438206
 20
244.40042176917359
 30
0.0
  0
VERTEX
  5
299B1
  8
0
 10
137.24737381471741
 20
244.4139117816508
 30
0.0
  0
VERTEX
  5
299B2
  8
0
 10
137.230838490179
 20
244.42698149986339
 30
0.0
  0
VERTEX
  5
299B3
  8
0
 10
137.222588748671
 20
244.43336257861441
 30
0.0
  0
VERTEX
  5
299B4
  8
0
 10
137.2143516905781
 20
244.43964310634189
 30
0.0
  0
VERTEX
  5
299B5
  8
0
 10
137.19791778032129
 20
244.45190820702049
 30
0.0
  0
VERTEX
  5
299B6
  8
0
 10
137.18154099480901
 20
244.46378786782219
 30
0.0
  0
VERTEX
  5
299B7
  8
0
 10
137.12473094283871
 20
244.502479696027
 30
0.0
  0
VERTEX
  5
299B8
  8
0
 10
137.0295637643454
 20
244.5592733280964
 30
0.0
  0
VERTEX
  5
299B9
  8
0
 10
136.9378342429759
 20
244.6055057715416
 30
0.0
  0
VERTEX
  5
299BA
  8
0
 10
136.85019835203369
 20
244.6426474670038
 30
0.0
  0
VERTEX
  5
299BB
  8
0
 10
136.80810865604559
 20
244.65821098703779
 30
0.0
  0
VERTEX
  5
299BC
  8
0
 10
136.7672625887588
 20
244.6719672339504
 30
0.0
  0
VERTEX
  5
299BD
  8
0
 10
136.68954853998571
 20
244.69460898743409
 30
0.0
  0
VERTEX
  5
299BE
  8
0
 10
136.61751062598859
 20
244.71161600367441
 30
0.0
  0
VERTEX
  5
299BF
  8
0
 10
136.55154054875291
 20
244.72394737665309
 30
0.0
  0
VERTEX
  5
299C0
  8
0
 10
136.4919773788543
 20
244.73248452750749
 30
0.0
  0
VERTEX
  5
299C1
  8
0
 10
136.43909736934339
 20
244.7380347940848
 30
0.0
  0
VERTEX
  5
299C2
  8
0
 10
136.41522997749459
 20
244.73992116706401
 30
0.0
  0
VERTEX
  5
299C3
  8
0
 10
136.393104695587
 20
244.74132803323391
 30
0.0
  0
VERTEX
  5
299C4
  8
0
 10
136.35413598555539
 20
244.74300896893419
 30
0.0
  0
VERTEX
  5
299C5
  8
0
 10
136.32225913284771
 20
244.7436299751071
 30
0.0
  0
VERTEX
  5
299C6
  8
0
 10
136.30898263151661
 20
244.74368873142021
 30
0.0
  0
SEQEND
  5
299C7
  8
0
  0
POLYLINE
  5
24B95
  8
0
 66
     1
 10
0.0
 20
0.0
 30
0.0
  0
VERTEX
  5
299C8
  8
0
 10
159.9427657574449
 20
239.76452481532809
 30
0.0
  0
VERTEX
  5
299C9
  8
0
 10
159.93495325417319
 20
239.7478850734083
 30
0.0
  0
VERTEX
  5
299CA
  8
0
 10
159.9190666068406
 20
239.71472983265861
 30
0.0
  0
VERTEX
  5
299CB
  8
0
 10
159.90283256989599
 20
239.68174329605469
 30
0.0
  0
VERTEX
  5
299CC
  8
0
 10
159.89458583859329
 20
239.6653144299548
 30
0.0
  0
VERTEX
  5
299CD
  8
0
 10
159.8862529345906
 20
239.64892910330579
 30
0.0
  0
VERTEX
  5
299CE
  8
0
 10
159.86932953030859
 20
239.61629087510391
 30
0.0
  0
VERTEX
  5
299CF
  8
0
 10
159.85206422436531
 20
239.58383221272649
 30
0.0
  0
VERTEX
  5
299D0
  8
0
 10
159.83445892180131
 20
239.5515566976373
 30
0.0
  0
VERTEX
  5
299D1
  8
0
 10
159.81651556517201
 20
239.51946789109161
 30
0.0
  0
VERTEX
  5
299D2
  8
0
 10
159.79823613433371
 20
239.48756933374401
 30
0.0
  0
VERTEX
  5
299D3
  8
0
 10
159.78897101993701
 20
239.47169249924451
 30
0.0
  0
VERTEX
  5
299D4
  8
0
 10
159.77962264622471
 20
239.45586454525619
 30
0.0
  0
VERTEX
  5
299D5
  8
0
 10
159.76067715464271
 20
239.42435702391049
 30
0.0
  0
VERTEX
  5
299D6
  8
0
 10
159.74140175001889
 20
239.3930502462222
 30
0.0
  0
VERTEX
  5
299D7
  8
0
 10
159.67137080049551
 20
239.28510704868859
 30
0.0
  0
VERTEX
  5
299D8
  8
0
 10
159.6082202879123
 20
239.19468571322571
 30
0.0
  0
VERTEX
  5
299D9
  8
0
 10
159.54225216298329
 20
239.1062989968041
 30
0.0
  0
VERTEX
  5
299DA
  8
0
 10
159.402127828993
 20
238.9359783785699
 30
0.0
  0
VERTEX
  5
299DB
  8
0
 10
159.25155422301211
 20
238.77482152592711
 30
0.0
  0
VERTEX
  5
299DC
  8
0
 10
159.09112926289799
 20
238.6234683821076
 30
0.0
  0
VERTEX
  5
299DD
  8
0
 10
158.9214899855852
 20
238.4825199604611
 30
0.0
  0
VERTEX
  5
299DE
  8
0
 10
158.74331001745449
 20
238.35253595787341
 30
0.0
  0
VERTEX
  5
299DF
  8
0
 10
158.6512371320305
 20
238.29181867107539
 30
0.0
  0
VERTEX
  5
299E0
  8
0
 10
158.5572968994062
 20
238.23403253224481
 30
0.0
  0
VERTEX
  5
299E1
  8
0
 10
158.36418927726231
 20
238.12748025286149
 30
0.0
  0
VERTEX
  5
299E2
  8
0
 10
158.1647539686528
 20
238.03330223179731
 30
0.0
  0
VERTEX
  5
299E3
  8
0
 10
157.95978291803311
 20
237.95187244376081
 30
0.0
  0
VERTEX
  5
299E4
  8
0
 10
157.7500900519251
 20
237.88351424106941
 30
0.0
  0
VERTEX
  5
299E5
  8
0
 10
157.53650804686819
 20
237.8284990696375
 30
0.0
  0
VERTEX
  5
299E6
  8
0
 10
157.42852314321701
 20
237.8060654847732
 30
0.0
  0
VERTEX
  5
299E7
  8
0
 10
157.31988502291659
 20
237.78704539108139
 30
0.0
  0
VERTEX
  5
299E8
  8
0
 10
157.1010811758095
 20
237.75931781522419
 30
0.0
  0
VERTEX
  5
299E9
  8
0
 10
156.8809653611911
 20
237.7454264464414
 30
0.0
  0
VERTEX
  5
299EA
  8
0
 10
156.7706885028166
 20
237.74368873142021
 30
0.0
  0
SEQEND
  5
299EB
  8
0
  0
LINE
  5
24B96
  8
0
 10
161.21433549103361
 20
242.4914149089195
 30
0.0
 11
159.9427657574449
 21
239.76452481532809
 31
0.0
  0
POLYLINE
  5
24B97
  8
0
 66
     1
 10
0.0
 20
0.0
 30
0.0
  0
VERTEX
  5
299EC
  8
0
 10
161.86073173338411
 20
243.87761612403119
 30
0.0
  0
VERTEX
  5
299ED
  8
0
 10
161.76038979746161
 20
243.6624321480285
 30
0.0
  0
VERTEX
  5
299EE
  8
0
 10
161.5506608985666
 20
243.2126670729171
 30
0.0
  0
VERTEX
  5
299EF
  8
0
 10
161.32926061598391
 20
242.73787263471559
 30
0.0
  0
VERTEX
  5
299F0
  8
0
 10
161.21433549103361
 20
242.4914149089195
 30
0.0
  0
SEQEND
  5
299F1
  8
0
  0
POLYLINE
  5
24B98
  8
0
 66
     1
 10
0.0
 20
0.0
 30
0.0
  0
VERTEX
  5
299F2
  8
0
 10
163.220193413939
 20
244.74368873142021
 30
0.0
  0
VERTEX
  5
299F3
  8
0
 10
163.20691691260791
 20
244.7436299751071
 30
0.0
  0
VERTEX
  5
299F4
  8
0
 10
163.1750400599002
 20
244.74300896893419
 30
0.0
  0
VERTEX
  5
299F5
  8
0
 10
163.13607134986859
 20
244.74132803323391
 30
0.0
  0
VERTEX
  5
299F6
  8
0
 10
163.113946067961
 20
244.73992116706401
 30
0.0
  0
VERTEX
  5
299F7
  8
0
 10
163.0900786761122
 20
244.7380347940848
 30
0.0
  0
VERTEX
  5
299F8
  8
0
 10
163.03719866660131
 20
244.73248452750749
 30
0.0
  0
VERTEX
  5
299F9
  8
0
 10
162.9776354967027
 20
244.72394737665309
 30
0.0
  0
VERTEX
  5
299FA
  8
0
 10
162.911665419467
 20
244.71161600367441
 30
0.0
  0
VERTEX
  5
299FB
  8
0
 10
162.83962750546979
 20
244.69460898743409
 30
0.0
  0
VERTEX
  5
299FC
  8
0
 10
162.76191345669679
 20
244.6719672339504
 30
0.0
  0
VERTEX
  5
299FD
  8
0
 10
162.72106738941
 20
244.65821098703779
 30
0.0
  0
VERTEX
  5
299FE
  8
0
 10
162.6789776934219
 20
244.6426474670038
 30
0.0
  0
VERTEX
  5
299FF
  8
0
 10
162.59134180247969
 20
244.6055057715416
 30
0.0
  0
VERTEX
  5
29A00
  8
0
 10
162.49961228111019
 20
244.5592733280964
 30
0.0
  0
VERTEX
  5
29A01
  8
0
 10
162.4044451026169
 20
244.502479696027
 30
0.0
  0
VERTEX
  5
29A02
  8
0
 10
162.3476350506466
 20
244.46378786782219
 30
0.0
  0
VERTEX
  5
29A03
  8
0
 10
162.3312582651343
 20
244.45190820702049
 30
0.0
  0
VERTEX
  5
29A04
  8
0
 10
162.31482435487749
 20
244.43964310634189
 30
0.0
  0
VERTEX
  5
29A05
  8
0
 10
162.30658729678461
 20
244.43336257861441
 30
0.0
  0
VERTEX
  5
29A06
  8
0
 10
162.29833755527659
 20
244.42698149986339
 30
0.0
  0
VERTEX
  5
29A07
  8
0
 10
162.28180223073821
 20
244.4139117816508
 30
0.0
  0
VERTEX
  5
29A08
  8
0
 10
162.26522290163501
 20
244.40042176917359
 30
0.0
  0
VERTEX
  5
29A09
  8
0
 10
162.24860427653891
 20
244.38649866666131
 30
0.0
  0
VERTEX
  5
29A0A
  8
0
 10
162.23195129020891
 20
244.37212902885989
 30
0.0
  0
VERTEX
  5
29A0B
  8
0
 10
162.21526914781199
 20
244.3572987256953
 30
0.0
  0
VERTEX
  5
29A0C
  8
0
 10
162.20691885602989
 20
244.34970621333201
 30
0.0
  0
VERTEX
  5
29A0D
  8
0
 10
162.1985633758452
 20
244.34199290844251
 30
0.0
  0
VERTEX
  5
29A0E
  8
0
 10
162.18183988019879
 20
244.32619597803301
 30
0.0
  0
VERTEX
  5
29A0F
  8
0
 10
162.16505836168221
 20
244.3098453904058
 30
0.0
  0
VERTEX
  5
29A10
  8
0
 10
162.15658518902291
 20
244.3013926332242
 30
0.0
  0
VERTEX
  5
29A11
  8
0
 10
162.14805786355899
 20
244.29274800601431
 30
0.0
  0
VERTEX
  5
29A12
  8
0
 10
162.13086324730071
 20
244.27488211195171
 30
0.0
  0
VERTEX
  5
29A13
  8
0
 10
162.11352017867571
 20
244.25624705090189
 30
0.0
  0
VERTEX
  5
29A14
  8
0
 10
162.1048075140184
 20
244.246641519072
 30
0.0
  0
VERTEX
  5
29A15
  8
0
 10
162.09607528728881
 20
244.23684452853189
 30
0.0
  0
VERTEX
  5
29A16
  8
0
 10
162.07857596944061
 20
244.21667876755461
 30
0.0
  0
VERTEX
  5
29A17
  8
0
 10
162.0610701605921
 20
244.1957566300234
 30
0.0
  0
VERTEX
  5
29A18
  8
0
 10
162.04360607437599
 20
244.17408769551051
 30
0.0
  0
VERTEX
  5
29A19
  8
0
 10
162.0262319058759
 20
244.1516842805631
 30
0.0
  0
VERTEX
  5
29A1A
  8
0
 10
162.00899549790611
 20
244.12856138225649
 30
0.0
  0
VERTEX
  5
29A1B
  8
0
 10
162.0004437181982
 20
244.11673551123249
 30
0.0
  0
VERTEX
  5
29A1C
  8
0
 10
161.99194397037621
 20
244.10473652590559
 30
0.0
  0
VERTEX
  5
29A1D
  8
0
 10
161.97512293534109
 20
244.08022892969171
 30
0.0
  0
VERTEX
  5
29A1E
  8
0
 10
161.9585759149395
 20
244.0550587371626
 30
0.0
  0
VERTEX
  5
29A1F
  8
0
 10
161.94234817994379
 20
244.0292532150597
 30
0.0
  0
VERTEX
  5
29A20
  8
0
 10
161.92648461512221
 20
244.00284454142499
 30
0.0
  0
VERTEX
  5
29A21
  8
0
 10
161.91102894286939
 20
243.97586930183209
 30
0.0
  0
VERTEX
  5
29A22
  8
0
 10
161.90346728339611
 20
243.9621818052529
 30
0.0
  0
VERTEX
  5
29A23
  8
0
 10
161.89602320047121
 20
243.9483682655096
 30
0.0
  0
VERTEX
  5
29A24
  8
0
 10
161.88150721016899
 20
243.9203860402931
 30
0.0
  0
VERTEX
  5
29A25
  8
0
 10
161.86751804792431
 20
243.89197057921271
 30
0.0
  0
VERTEX
  5
29A26
  8
0
 10
161.86073173338411
 20
243.87761612403119
 30
0.0
  0
SEQEND
  5
29A27
  8
0
  0
LINE
  5
24B99
  8
0
 10
192.26458802272779
 20
246.74368873142021
 30
0.0
 11
107.26458802272781
 21
246.74368873142021
 31
0.0
  0
LINE
  5
24B9A
  8
0
 10
117.26458802272781
 20
175.74368873142021
 30
0.0
 11
115.0315880227278
 21
175.74368873142021
 31
0.0
  0
LINE
  5
24B9B
  8
0
 10
114.26458802272781
 20
182.97668873142041
 30
0.0
 11
114.7306197774583
 21
183.44272048615079
 31
0.0
  0
LINE
  5
24B9C
  8
0
 10
115.0315880227278
 20
175.74368873142021
 30
0.0
 11
114.26458802272781
 21
176.51068873142049
 31
0.0
  0
LINE
  5
24B9D
  8
0
 10
127.26458802272781
 20
183.74368873142021
 30
0.0
 11
129.76458802272779
 21
183.74368873142021
 31
0.0
  0
LINE
  5
24B9E
  8
0
 10
129.76458802272779
 20
175.74368873142021
 30
0.0
 11
127.26458802272781
 21
175.74368873142021
 31
0.0
  0
LINE
  5
24B9F
  8
0
 10
119.76458802272781
 20
173.9286887314201
 30
0.0
 11
117.26458802272781
 21
173.9286887314201
 31
0.0
  0
LINE
  5
24BA0
  8
0
 10
169.76458802272779
 20
183.74368873142021
 30
0.0
 11
172.26458802272779
 21
183.74368873142021
 31
0.0
  0
LINE
  5
24BA1
  8
0
 10
172.26458802272779
 20
175.74368873142021
 30
0.0
 11
169.76458802272779
 21
175.74368873142021
 31
0.0
  0
LINE
  5
24BA2
  8
0
 10
129.76458802272779
 20
185.74368873142021
 30
0.0
 11
137.26458802272779
 21
185.74368873142021
 31
0.0
  0
LINE
  5
24BA3
  8
0
 10
162.26458802272779
 20
185.74368873142021
 30
0.0
 11
169.76458802272779
 21
185.74368873142021
 31
0.0
  0
LINE
  5
24BA4
  8
0
 10
169.76458802272779
 20
173.74368873142021
 30
0.0
 11
162.26458802272779
 21
173.74368873142021
 31
0.0
  0
LINE
  5
24BA5
  8
0
 10
137.26458802272779
 20
173.74368873142021
 30
0.0
 11
129.76458802272779
 21
173.74368873142021
 31
0.0
  0
LINE
  5
24BA6
  8
0
 10
115.0315880227278
 20
175.74368873142021
 30
0.0
 11
115.0315880227278
 21
183.1455395010266
 31
0.0
  0
LINE
  5
24BA7
  8
0
 10
114.26458802272781
 20
176.51068873142049
 30
0.0
 11
114.26458802272781
 21
182.97668873142041
 31
0.0
  0
LINE
  5
24BA8
  8
0
 10
179.5645880227278
 20
173.48535539808699
 30
0.0
 11
179.5645880227278
 21
177.62227862217509
 31
0.0
  0
LINE
  5
24BA9
  8
0
 10
179.5645880227278
 20
173.48535539808699
 30
0.0
 11
177.00773126042981
 21
173.48535539808699
 31
0.0
  0
POLYLINE
  5
24BAA
  8
0
 66
     1
 10
0.0
 20
0.0
 30
0.0
  0
VERTEX
  5
29A28
  8
0
 10
179.30516831331229
 20
173.48535539808699
 30
0.0
  0
VERTEX
  5
29A29
  8
0
 10
179.38601296657041
 20
174.04753387620161
 30
0.0
  0
VERTEX
  5
29A2A
  8
0
 10
179.5006233053235
 20
175.10332376892569
 30
0.0
  0
VERTEX
  5
29A2B
  8
0
 10
179.5573978891079
 20
176.11208431283831
 30
0.0
  0
VERTEX
  5
29A2C
  8
0
 10
179.5645880227278
 20
176.6145220647536
 30
0.0
  0
SEQEND
  5
29A2D
  8
0
  0
POLYLINE
  5
24BAB
  8
0
 66
     1
 10
0.0
 20
0.0
 30
0.0
  0
VERTEX
  5
29A2E
  8
0
 10
179.5645880227278
 20
176.6145220647536
 30
0.0
  0
VERTEX
  5
29A2F
  8
0
 10
179.56384133662871
 20
176.776280196193
 30
0.0
  0
VERTEX
  5
29A30
  8
0
 10
179.5579175641775
 20
177.09842477053871
 30
0.0
  0
VERTEX
  5
29A31
  8
0
 10
179.54616348021969
 20
177.42015415439249
 30
0.0
  0
VERTEX
  5
29A32
  8
0
 10
179.53811430459689
 20
177.58138198519549
 30
0.0
  0
SEQEND
  5
29A33
  8
0
  0
LINE
  5
24BAC
  8
0
 10
117.26458802272781
 20
173.9286887314201
 30
0.0
 11
117.26458802272781
 21
180.90908718920349
 31
0.0
  0
LINE
  5
24BAD
  8
0
 10
119.76458802272781
 20
173.48535539808699
 30
0.0
 11
119.76458802272781
 21
177.91946605934299
 31
0.0
  0
POLYLINE
  5
24BAE
  8
0
 66
     1
 10
0.0
 20
0.0
 30
0.0
  0
VERTEX
  5
29A34
  8
0
 10
119.76458802272781
 20
176.6145220647536
 30
0.0
  0
VERTEX
  5
29A35
  8
0
 10
119.77177815634769
 20
176.11208431283831
 30
0.0
  0
VERTEX
  5
29A36
  8
0
 10
119.8285527401321
 20
175.10332376892569
 30
0.0
  0
VERTEX
  5
29A37
  8
0
 10
119.94316307888521
 20
174.04753387620161
 30
0.0
  0
VERTEX
  5
29A38
  8
0
 10
120.0240077321433
 20
173.48535539808699
 30
0.0
  0
SEQEND
  5
29A39
  8
0
  0
LINE
  5
24BAF
  8
0
 10
122.5214450091898
 20
173.48535539808699
 30
0.0
 11
119.76458802272781
 21
173.48535539808699
 31
0.0
  0
POLYLINE
  5
24BB0
  8
0
 66
     1
 10
0.0
 20
0.0
 30
0.0
  0
VERTEX
  5
29A3A
  8
0
 10
119.8079729915986
 20
177.8553437795822
 30
0.0
  0
VERTEX
  5
29A3B
  8
0
 10
119.7947746774269
 20
177.64752597421599
 30
0.0
  0
VERTEX
  5
29A3C
  8
0
 10
119.7755205118809
 20
177.23441253588899
 30
0.0
  0
VERTEX
  5
29A3D
  8
0
 10
119.7658135736858
 20
176.82177169802159
 30
0.0
  0
VERTEX
  5
29A3E
  8
0
 10
119.76458802272781
 20
176.6145220647536
 30
0.0
  0
SEQEND
  5
29A3F
  8
0
  0
LINE
  5
24BB1
  8
0
 10
169.76458802272779
 20
173.74368873142021
 30
0.0
 11
169.76458802272779
 21
185.74368873142021
 31
0.0
  0
LINE
  5
24BB2
  8
0
 10
129.76458802272779
 20
173.74368873142021
 30
0.0
 11
129.76458802272779
 21
185.74368873142021
 31
0.0
  0
LINE
  5
24BB3
  8
0
 10
140.52265145483079
 20
219.74368873142021
 30
0.0
 11
159.00652459062479
 21
219.74368873142021
 31
0.0
  0
LINE
  5
24BB4
  8
0
 10
159.00652459062479
 20
139.74368873142021
 30
0.0
 11
140.52265145483079
 21
139.74368873142021
 31
0.0
  0
ARC
  5
24BB5
  8
0
 10
140.52265145483079
 20
142.24368873142021
 30
0.0
 40
2.499999999999992
 50
194.9999999999944
 51
270.0
  0
ARC
  5
24BB6
  8
0
 10
140.52265145483079
 20
217.24368873142021
 30
0.0
 40
2.4999999999999938
 50
90.0
 51
165.00000000000551
  0
LINE
  5
24BB7
  8
0
 10
137.26458802272779
 20
214.74368873142021
 30
0.0
 11
138.10783688910811
 21
217.8907363441767
 31
0.0
  0
LINE
  5
24BB8
  8
0
 10
138.10783688910811
 20
141.59664111866411
 30
0.0
 11
137.26458802272779
 21
144.74368873142021
 31
0.0
  0
LINE
  5
24BB9
  8
0
 10
161.42133915634739
 20
217.8907363441767
 30
0.0
 11
162.26458802272779
 21
214.74368873142021
 31
0.0
  0
LINE
  5
24BBA
  8
0
 10
162.26458802272779
 20
144.74368873142021
 30
0.0
 11
161.42133915634739
 21
141.59664111866411
 31
0.0
  0
ARC
  5
24BBB
  8
0
 10
159.00652459062479
 20
142.24368873142021
 30
0.0
 40
2.4999999999999778
 50
270.0
 51
345.00000000000551
  0
ARC
  5
24BBC
  8
0
 10
159.00652459062479
 20
217.24368873142021
 30
0.0
 40
2.4999999999999778
 50
14.99999999999447
 51
90.0
  0
LINE
  5
24BBD
  8
0
 10
140.52265145483079
 20
139.74368873142021
 30
0.0
 11
140.52265145483079
 21
219.74368873142021
 31
0.0
  0
LINE
  5
24BBE
  8
0
 10
137.26458802272779
 20
144.74368873142021
 30
0.0
 11
137.26458802272779
 21
214.74368873142021
 31
0.0
  0
LINE
  5
24BBF
  8
0
 10
162.26458802272779
 20
144.74368873142021
 30
0.0
 11
162.26458802272779
 21
214.74368873142021
 31
0.0
  0
LINE
  5
24BC0
  8
0
 10
159.00652459062479
 20
139.74368873142021
 30
0.0
 11
159.00652459062479
 21
219.74368873142021
 31
0.0
  0
LINE
  5
24BC1
  8
1
 10
193.58240752169911
 20
179.74368873142021
 30
0.0
 11
105.946768523757
 21
179.74368873142021
 31
0.0
  0
LINE
  5
24BC2
  8
1
 10
149.76458802272779
 20
128.59280666813581
 30
0.0
 11
149.76458802272779
 21
257.89457079470458
 31
0.0
  0
LINE
  5
24BC3
  8
3
 10
114.26458802272781
 20
176.51068873142049
 30
0.0
 11
117.26458802272781
 21
176.51068873142049
 31
0.0
  0
LINE
  5
24BC4
  8
3
 10
127.26458802272781
 20
176.51068873142
 30
0.0
 11
129.76458802272771
 21
176.51068873142
 31
0.0
  0
LINE
  5
24BC5
  8
3
 10
169.76458802272771
 20
176.51068873142
 30
0.0
 11
172.26458802272771
 21
176.51068873142049
 31
0.0
  0
LINE
  5
24BC6
  8
3
 10
114.26458802272781
 20
182.97668873142041
 30
0.0
 11
115.19665153218909
 21
182.97668873142041
 31
0.0
  0
LINE
  5
24BC7
  8
3
 10
127.26458802272781
 20
182.97668873142081
 30
0.0
 11
129.76458802272771
 21
182.97668873142081
 31
0.0
  0
LINE
  5
24BC8
  8
3
 10
169.76458802272771
 20
182.97668873142081
 30
0.0
 11
172.26458802272771
 21
182.97668873142041
 31
0.0
  0
LINE
  5
24BC9
  8
1
 10
246.12124214153249
 20
384.07567298692771
 30
0.0
 11
375.77972396589979
 21
384.07567298692771
 31
0.0
  0
LINE
  5
24BCA
  8
1
 10
310.95048305371608
 20
336.93215011022772
 30
0.0
 11
310.95048305371608
 21
431.21919586362759
 31
0.0
  0
TEXT
  5
2917B
  8
0
 62
     3
 10
0.0
 20
0.0
 30
0.0
 40
10.0
  1
CAF5-080PSL
  7
STANDARD1
  0
ENDSEC
  0
EOF
