  0
SECTION
  2
HEADER
  9
$ACADVER
  1
AC1009
  9
$INSBASE
 10
0.0
 20
0.0
 30
0.0
  9
$EXTMIN
 10
0.0
 20
-2.960436562073669
 30
0.0
  9
$EXTMAX
 10
475.63637808470497
 20
482.13476221680889
 30
0.0
  9
$LIMMIN
 10
0.0
 20
0.0
  9
$LIMMAX
 10
375.0
 20
270.0
  9
$ORTHOMODE
 70
     1
  9
$REGENMODE
 70
     1
  9
$FILLMODE
 70
     1
  9
$QTEXTMODE
 70
     0
  9
$MIRRTEXT
 70
     1
  9
$DRAGMODE
 70
     2
  9
$LTSCALE
 40
10.0
  9
$OSMODE
 70
  3071
  9
$ATTMODE
 70
     1
  9
$TEXTSIZE
 40
5.0
  9
$TRACEWID
 40
0.05
  9
$TEXTSTYLE
  7
STANDARD
  9
$CLAYER
  8
0
  9
$CELTYPE
  6
BYLAYER
  9
$CECOLOR
 62
   256
  9
$DIMSCALE
 40
2.0
  9
$DIMASZ
 40
3.0
  9
$DIMEXO
 40
2.0
  9
$DIMDLI
 40
0.38
  9
$DIMRND
 40
0.0
  9
$DIMDLE
 40
0.0
  9
$DIMEXE
 40
2.0
  9
$DIMTP
 40
0.0
  9
$DIMTM
 40
0.0
  9
$DIMTXT
 40
3.2000000000000002
  9
$DIMCEN
 40
0.0
  9
$DIMTSZ
 40
0.0
  9
$DIMTOL
 70
     0
  9
$DIMLIM
 70
     0
  9
$DIMTIH
 70
     0
  9
$DIMTOH
 70
     0
  9
$DIMSE1
 70
     0
  9
$DIMSE2
 70
     0
  9
$DIMTAD
 70
     1
  9
$DIMZIN
 70
     8
  9
$DIMBLK
  1

  9
$DIMASO
 70
     0
  9
$DIMSHO
 70
     0
  9
$DIMPOST
  1

  9
$DIMAPOST
  1

  9
$DIMALT
 70
     0
  9
$DIMALTD
 70
     2
  9
$DIMALTF
 40
25.399999999999999
  9
$DIMLFAC
 40
1.0
  9
$DIMTOFL
 70
     0
  9
$DIMTVP
 40
1.6000000000000001
  9
$DIMTIX
 70
     1
  9
$DIMSOXD
 70
     0
  9
$DIMSAH
 70
     0
  9
$DIMBLK1
  1

  9
$DIMBLK2
  1

  9
$DIMSTYLE
  2
STANDARD
  9
$DIMCLRD
 70
     0
  9
$DIMCLRE
 70
     0
  9
$DIMCLRT
 70
     0
  9
$DIMTFAC
 40
1.0
  9
$DIMGAP
 40
1.1999999999999991
  9
$LUNITS
 70
     2
  9
$LUPREC
 70
     4
  9
$SKETCHINC
 40
0.1
  9
$FILLETRAD
 40
0.0
  9
$AUNITS
 70
     0
  9
$AUPREC
 70
     4
  9
$MENU
  1
ACAD
  9
$ELEVATION
 40
0.0
  9
$PELEVATION
 40
0.0
  9
$THICKNESS
 40
0.0
  9
$LIMCHECK
 70
     0
  9
$BLIPMODE
 70
     0
  9
$CHAMFERA
 40
0.0
  9
$CHAMFERB
 40
0.0
  9
$SKPOLY
 70
     0
  9
$TDCREATE
 40
2448055.7149187499
  9
$TDUPDATE
 40
2456598.5597090521
  9
$TDINDWG
 40
2.9977281481000002
  9
$TDUSRTIMER
 40
2.9977281481000002
  9
$USRTIMER
 70
     1
  9
$ANGBASE
 50
0.0
  9
$ANGDIR
 70
     0
  9
$PDMODE
 70
     0
  9
$PDSIZE
 40
0.0
  9
$PLINEWID
 40
0.0
  9
$COORDS
 70
     1
  9
$SPLFRAME
 70
     0
  9
$SPLINETYPE
 70
     6
  9
$SPLINESEGS
 70
     8
  9
$ATTDIA
 70
     0
  9
$ATTREQ
 70
     1
  9
$HANDLING
 70
     1
  9
$HANDSEED
  5
2CFF9
  9
$SURFTAB1
 70
     6
  9
$SURFTAB2
 70
     6
  9
$SURFTYPE
 70
     6
  9
$SURFU
 70
     6
  9
$SURFV
 70
     6
  9
$UCSNAME
  2

  9
$UCSORG
 10
0.0
 20
0.0
 30
0.0
  9
$UCSXDIR
 10
1.0
 20
0.0
 30
0.0
  9
$UCSYDIR
 10
0.0
 20
1.0
 30
0.0
  9
$PUCSNAME
  2

  9
$PUCSORG
 10
0.0
 20
0.0
 30
0.0
  9
$PUCSXDIR
 10
1.0
 20
0.0
 30
0.0
  9
$PUCSYDIR
 10
0.0
 20
1.0
 30
0.0
  9
$USERI1
 70
     0
  9
$USERI2
 70
     0
  9
$USERI3
 70
     0
  9
$USERI4
 70
     0
  9
$USERI5
 70
     0
  9
$USERR1
 40
0.0
  9
$USERR2
 40
0.0
  9
$USERR3
 40
0.0
  9
$USERR4
 40
0.0
  9
$USERR5
 40
0.0
  9
$WORLDVIEW
 70
     1
  9
$SHADEDGE
 70
     3
  9
$SHADEDIF
 70
    70
  9
$TILEMODE
 70
     1
  9
$MAXACTVP
 70
    16
  9
$PLIMCHECK
 70
     0
  9
$PEXTMIN
 10
1.0000000000000000E+020
 20
1.0000000000000000E+020
 30
1.0000000000000000E+020
  9
$PEXTMAX
 10
-1.0000000000000000E+020
 20
-1.0000000000000000E+020
 30
-1.0000000000000000E+020
  9
$PLIMMIN
 10
0.0
 20
0.0
  9
$PLIMMAX
 10
12.0
 20
9.0
  9
$UNITMODE
 70
     0
  9
$VISRETAIN
 70
     0
  9
$PLINEGEN
 70
     1
  9
$PSLTSCALE
 70
     0
  0
ENDSEC
  0
SECTION
  2
TABLES
  0
TABLE
  2
VPORT
 70
     1
  0
VPORT
  2
*ACTIVE
 70
     0
 10
0.0
 20
0.0
 11
1.0
 21
1.0
 12
251.26099792117111
 22
239.57763172036371
 13
0.0
 23
0.0
 14
5.0
 24
5.0
 15
10.0
 25
10.0
 16
0.0
 26
0.0
 36
1.0
 17
0.0
 27
0.0
 37
0.0
 40
489.4947548965543
 41
1.831871345029239
 42
50.0
 43
0.0
 44
0.0
 50
0.0
 51
0.0
 71
     0
 72
   500
 73
     1
 74
     1
 75
     0
 76
     0
 77
     0
 78
     2
  0
ENDTAB
  0
TABLE
  2
LTYPE
 70
     3
  0
LTYPE
  2
CONTINUOUS
 70
     0
  3
実線
 72
    65
 73
     0
 40
0.0
  0
LTYPE
  2
CENTER
 70
     0
  3
____ _ ____ _ ____ _ ____ _ ____ _ ____ _ ____
 72
    65
 73
     4
 40
2.0
 49
1.25
 49
-0.25
 49
0.25
 49
-0.25
  0
LTYPE
  2
PHANTOM2
 70
     0
  3
___ _ _ ___ _ _ ___ _ _ ___ _ _
 72
    65
 73
     6
 40
1.25
 49
0.625
 49
-0.125
 49
0.125
 49
-0.125
 49
0.125
 49
-0.125
  0
ENDTAB
  0
TABLE
  2
LAYER
 70
     4
  0
LAYER
  2
0
 70
     0
 62
     7
  6
CONTINUOUS
  0
LAYER
  2
1
 70
     0
 62
     1
  6
CENTER
  0
LAYER
  2
DEFPOINTS
 70
     0
 62
     7
  6
CONTINUOUS
  0
LAYER
  2
3
 70
     0
 62
     3
  6
CONTINUOUS
  0
ENDTAB
  0
TABLE
  2
STYLE
 70
     3
  0
STYLE
  2
STANDARD
 70
     0
 40
0.0
 41
1.0
 50
0.0
 71
     0
 42
5.0
  3
simplex.shx
  4
bigfont.shx
  0
STYLE
  2
07500
 70
     0
 40
0.0
 41
0.75
 50
0.0
 71
     0
 42
0.2
  3
simplex.shx
  4
bigfont.shx
  0
STYLE
  2
STANDARD1
 70
     0
 40
0.0
 41
1.0
 50
0.0
 71
     0
 42
3.0
  3
txt
  4

  0
ENDTAB
  0
TABLE
  2
VIEW
 70
     2
  0
VIEW
  2
ALL
 70
     0
 40
270.0
 10
220.99159663865549
 20
135.0
 41
0.0
 11
0.0
 21
0.0
 31
1.0
 12
0.0
 22
0.0
 32
0.0
 42
0.0
 43
0.0
 44
0.0
 50
0.0
 71
     0
  0
VIEW
  2
OLE1
 70
     0
 40
168.2487151179721
 10
2892.3009567448912
 20
702.51600084347126
 41
162.5749581879237
 11
0.0
 21
0.0
 31
1.0
 12
0.0
 22
0.0
 32
0.0
 42
50.0
 43
0.0
 44
0.0
 50
0.0
 71
     0
  0
ENDTAB
  0
TABLE
  2
UCS
 70
     0
  0
ENDTAB
  0
TABLE
  2
APPID
 70
    48
  0
APPID
  2
ACAD
 70
     0
  0
APPID
  2
DCO15
 70
     0
  0
APPID
  2
GENIUS_GENOREF_13
 70
     0
  0
APPID
  2
GENIUS_GENOENT_13
 70
     0
  0
APPID
  2
GENIUS_GENBH_13
 70
     0
  0
APPID
  2
GENIUS_GENOBJ_13
 70
     0
  0
APPID
  2
GENIUS_GENODEF_13
 70
     0
  0
APPID
  2
GENIUS_GENOLIS_13
 70
     0
  0
APPID
  2
GENIUS_GENOBJ-NBEHI-BHF_13
 70
     0
  0
APPID
  2
GENIUS_GENOBJ-NBEHI-BHB_13
 70
     0
  0
APPID
  2
GENIUS_GENOBJ-F-PART_13
 70
     0
  0
APPID
  2
GENIUS_GEFSTDP_13
 70
     0
  0
APPID
  2
GENIUS_GENOBJ-N-RSSYM_13
 70
     0
  0
APPID
  2
GENIUS_GENSYMENT_13
 70
     0
  0
APPID
  2
GENIUS_GENOBJ-N-TIT_13
 70
     0
  0
APPID
  2
GENIUS_GENTITLE_13
 70
     0
  0
APPID
  2
GENIUS_GENZVEED_13
 70
     0
  0
APPID
  2
GENIUS_GENOBJ-N-LEADER_13
 70
     0
  0
APPID
  2
GENIUS_GENOBJ-N-FIL_13
 70
     0
  0
APPID
  2
GENIUS_GENOBJ-N-SEC_13
 70
     0
  0
APPID
  2
GENIUS_GENOBJ-N-CRS_13
 70
     0
  0
APPID
  2
GENIUS_GENOBJ-N-ZOO_13
 70
     0
  0
APPID
  2
GENIUS_GENZOO_13
 70
     0
  0
APPID
  2
GENIUS_GENOBJ-F-TOL_13
 70
     0
  0
APPID
  2
GENIUS_GENFIL_13
 70
     0
  0
APPID
  2
GENIUS_GENOBJ-N-CHA_13
 70
     0
  0
APPID
  2
_CALL_MAC$
 70
     0
  0
APPID
  2
ASM_BASE
 70
     0
  0
APPID
  2
ASM_EXPLO_VER_2_00
 70
     0
  0
APPID
  2
ASM_CADM_VER_12_00
 70
     0
  0
APPID
  2
ASM_BASEFORO
 70
     0
  0
APPID
  2
ASM_BASETRAVI
 70
     0
  0
APPID
  2
ASM_BASETRAVI1
 70
     0
  0
APPID
  2
ASM_GRUPPI
 70
     0
  0
APPID
  2
ASM_CADM_ALBERO
 70
     0
  0
APPID
  2
ASM_GOLE
 70
     0
  0
APPID
  2
ACAD_MLEADERVER
 70
     0
  0
APPID
  2
ACAD_DSTYLE_DIMJAG
 70
     0
  0
APPID
  2
ACAD_DSTYLE_DIMTALN
 70
     0
  0
APPID
  2
ACAD_EXEMPT_FROM_CAD_STANDARDS
 70
     0
  0
APPID
  2
ACAD_DSTYLE_DIMRADIAL_EXTENSION
 70
     0
  0
APPID
  2
ACAD_PSEXT
 70
     0
  0
APPID
  2
ACAD_DSTYLE_DIMBREAK
 70
     0
  0
APPID
  2
ACAECLAYERSTANDARD
 70
     0
  0
APPID
  2
ACCMTRANSPARENCY
 70
     0
  0
APPID
  2
GRADIENTCOLOR1ACI
 70
     0
  0
APPID
  2
GRADIENTCOLOR2ACI
 70
     0
  0
APPID
  2
ACAD_NAV_VCDISPLAY
 70
     0
  0
ENDTAB
  0
TABLE
  2
DIMSTYLE
 70
     1
  0
DIMSTYLE
  2
STANDARD
 70
     0
  3

  4

  5

  6

  7

 40
1.0
 41
0.18
 42
0.0625
 43
0.38
 44
0.18
 45
0.0
 46
0.0
 47
0.0
 48
0.0
140
0.18
141
0.09
142
0.0
143
25.399999999999999
144
1.0
145
0.0
146
1.0
147
0.09
 71
     0
 72
     0
 73
     1
 74
     1
 75
     0
 76
     0
 77
     0
 78
     0
170
     0
171
     2
172
     0
173
     0
174
     0
175
     0
176
     0
177
     0
178
     0
  0
ENDTAB
  0
ENDSEC
  0
SECTION
  2
BLOCKS
  0
BLOCK
  8
0
  2
$MODEL_SPACE
 70
     0
 10
0.0
 20
0.0
 30
0.0
  3
$MODEL_SPACE
  1

  0
ENDBLK
  5
36
  8
0
  0
BLOCK
 67
     1
  8
0
  2
$PAPER_SPACE
 70
     0
 10
0.0
 20
0.0
 30
0.0
  3
$PAPER_SPACE
  1

  0
ENDBLK
  5
34
 67
     1
  8
0
  0
ENDSEC
  0
SECTION
  2
ENTITIES
  0
LINE
  5
2C962
  8
0
 10
274.4504829978373
 20
235.74369045995479
 30
0.0
 11
274.4504829978373
 21
231.7436898043037
 31
0.0
  0
LINE
  5
2C963
  8
0
 10
347.45047959664731
 20
231.7436898043037
 30
0.0
 11
347.45047959664731
 21
235.74369045995479
 31
0.0
  0
LINE
  5
2C964
  8
0
 10
274.4504829978373
 20
243.4436866929413
 30
0.0
 11
275.80820090303092
 21
235.74369045995479
 31
0.0
  0
LINE
  5
2C965
  8
0
 10
346.09276774505042
 20
235.74369045995479
 30
0.0
 11
347.45047959664731
 21
243.4436866929413
 31
0.0
  0
LINE
  5
2C966
  8
0
 10
278.10048285106092
 20
244.2436853339554
 30
0.0
 11
278.10048285106092
 21
243.4436866929413
 31
0.0
  0
LINE
  5
2C967
  8
0
 10
343.80048486569791
 20
243.4436866929413
 30
0.0
 11
343.80048486569791
 21
244.2436853339554
 31
0.0
  0
LINE
  5
2C968
  8
0
 10
360.95048460343742
 20
244.2436853339554
 30
0.0
 11
360.95048460343742
 21
246.7436904003502
 31
0.0
  0
LINE
  5
2C96D
  8
0
 10
260.9504831133213
 20
244.2436853339554
 30
0.0
 11
260.9504831133213
 21
246.7436904003502
 31
0.0
  0
LINE
  5
2C96E
  8
0
 10
260.9504831133213
 20
244.2436853339554
 30
0.0
 11
360.9504846034373
 21
244.24368533395531
 31
0.0
  0
LINE
  5
2C96F
  8
0
 10
260.9504831133213
 20
246.7436904003502
 30
0.0
 11
360.9504846034373
 21
246.7436904003502
 31
0.0
  0
POLYLINE
  5
2C972
  8
0
 66
     1
 10
0.0
 20
0.0
 30
0.0
 70
   128
  0
VERTEX
  5
2CC7B
  8
0
 10
347.45047959664731
 20
231.7436898043037
 30
0.0
  0
VERTEX
  5
2CC7C
  8
0
 10
347.39509943107032
 20
231.6923478534103
 30
0.0
  0
VERTEX
  5
2CC7D
  8
0
 10
347.2291302976933
 20
231.53848218821301
 30
0.0
  0
VERTEX
  5
2CC7E
  8
0
 10
346.95307138541602
 20
231.28255474470859
 30
0.0
  0
VERTEX
  5
2CC7F
  8
0
 10
346.56775715926551
 20
230.92534783386
 30
0.0
  0
VERTEX
  5
2CC80
  8
0
 10
346.07437226155662
 20
230.46794178985371
 30
0.0
  0
VERTEX
  5
2CC81
  8
0
 10
345.47439190724759
 20
229.9117261459709
 30
0.0
  0
VERTEX
  5
2CC82
  8
0
 10
344.76965638974571
 20
229.25838845871701
 30
0.0
  0
VERTEX
  5
2CC83
  8
0
 10
343.96228912452131
 20
228.50991058253061
 30
0.0
  0
VERTEX
  5
2CC84
  8
0
 10
343.05474880317121
 20
227.66856121920361
 30
0.0
  0
VERTEX
  5
2CC85
  8
0
 10
342.04979214051627
 20
226.73689964317089
 30
0.0
  0
VERTEX
  5
2CC86
  8
0
 10
340.95045897344022
 20
225.7177496244789
 30
0.0
  0
VERTEX
  5
2CC87
  8
0
 10
339.76009461263089
 20
224.6142031540752
 30
0.0
  0
VERTEX
  5
2CC88
  8
0
 10
338.48230513909721
 20
223.42960926793819
 30
0.0
  0
VERTEX
  5
2CC89
  8
0
 10
337.12096485474967
 20
222.16756287120589
 30
0.0
  0
VERTEX
  5
2CC8A
  8
0
 10
335.68021628240012
 20
220.83189356230511
 30
0.0
  0
VERTEX
  5
2CC8B
  8
0
 10
334.16442173698812
 20
219.4266544570805
 30
0.0
  0
VERTEX
  5
2CC8C
  8
0
 10
332.57818567732238
 20
217.9561110129238
 30
0.0
  0
VERTEX
  5
2CC8D
  8
0
 10
330.9263174531784
 20
216.4247261276127
 30
0.0
  0
VERTEX
  5
2CC8E
  8
0
 10
329.2138350305882
 20
214.83714151285901
 30
0.0
  0
VERTEX
  5
2CC8F
  8
0
 10
327.44593146422773
 20
213.19818141959911
 30
0.0
  0
VERTEX
  5
2CC90
  8
0
 10
325.62797117212682
 20
211.51281538509139
 30
0.0
  0
VERTEX
  5
2CC91
  8
0
 10
323.7654750345078
 20
209.7861600955606
 30
0.0
  0
VERTEX
  5
2CC92
  8
0
 10
321.86408686617278
 20
208.02345144652131
 30
0.0
  0
VERTEX
  5
2CC93
  8
0
 10
319.92958459237479
 20
206.23004268013241
 30
0.0
  0
VERTEX
  5
2CC94
  8
0
 10
317.96783182004361
 20
204.4113745828748
 30
0.0
  0
VERTEX
  5
2CC95
  8
0
 10
315.98478901365661
 20
202.57296244703539
 30
0.0
  0
VERTEX
  5
2CC96
  8
0
 10
313.98646506646543
 20
200.72039048277151
 30
0.0
  0
VERTEX
  5
2CC97
  8
0
 10
311.97893220165639
 20
198.85927642785319
 30
0.0
  0
VERTEX
  5
2CC98
  8
0
 10
309.96827754357719
 20
196.99526968501809
 30
0.0
  0
VERTEX
  5
2CC99
  8
0
 10
307.96060311773681
 20
195.13402617626201
 30
0.0
  0
VERTEX
  5
2CC9A
  8
0
 10
305.96199977377319
 20
193.2811934416772
 30
0.0
  0
VERTEX
  5
2CC9B
  8
0
 10
303.97853600958251
 20
191.4423938756467
 30
0.0
  0
VERTEX
  5
2CC9C
  8
0
 10
302.0162281689968
 20
189.6232079630376
 30
0.0
  0
VERTEX
  5
2CC9D
  8
0
 10
300.08103112855821
 20
187.82915658407219
 30
0.0
  0
VERTEX
  5
2CC9E
  8
0
 10
298.17881780842208
 20
186.06568238787659
 30
0.0
  0
VERTEX
  5
2CC9F
  8
0
 10
296.31536054590612
 20
184.33813721962579
 30
0.0
  0
VERTEX
  5
2CCA0
  8
0
 10
294.49631433168321
 20
182.65176395975359
 30
0.0
  0
VERTEX
  5
2CCA1
  8
0
 10
292.72719818333047
 20
181.01167929448491
 30
0.0
  0
VERTEX
  5
2CCA2
  8
0
 10
291.01338024416827
 20
179.4228602116585
 30
0.0
  0
VERTEX
  5
2CCA3
  8
0
 10
289.36006288209819
 20
177.8901280518279
 30
0.0
  0
VERTEX
  5
2CCA4
  8
0
 10
287.77226033786201
 20
176.418133956346
 30
0.0
  0
VERTEX
  5
2CCA5
  8
0
 10
286.25479406842851
 20
175.01134489752661
 30
0.0
  0
VERTEX
  5
2CCA6
  8
0
 10
284.81226760128402
 20
173.6740290103138
 30
0.0
  0
VERTEX
  5
2CCA7
  8
0
 10
283.44905722120671
 20
172.41024569697981
 30
0.0
  0
SEQEND
  5
2CCA8
  8
0
  0
LINE
  5
2C973
  8
0
 10
283.44905722120671
 20
172.41024569697981
 30
0.0
 11
282.21026688048511
 21
171.43172136597639
 31
0.0
  0
LINE
  5
2C974
  8
0
 10
282.21026688048511
 20
231.7436898043037
 30
0.0
 11
282.21026688048511
 21
171.43172136597639
 31
0.0
  0
LINE
  5
2C976
  8
0
 10
274.4504829978373
 20
235.74369045995479
 30
0.0
 11
347.45047959664731
 21
235.74369045995479
 31
0.0
  0
LINE
  5
2C978
  8
0
 10
274.4504829978373
 20
243.4436866929413
 30
0.0
 11
347.45047959664748
 21
243.4436866929413
 31
0.0
  0
LINE
  5
2C979
  8
0
 10
256.2517539707747
 20
231.7436898043037
 30
0.0
 11
211.46714287975689
 21
219.74368783735051
 31
0.0
  0
LINE
  5
2C97A
  8
0
 10
282.21026688048511
 20
231.7436898043037
 30
0.0
 11
256.2517539707747
 21
231.7436898043037
 31
0.0
  0
LINE
  5
2C97B
  8
0
 10
267.25048312151699
 20
169.74368895493751
 30
0.0
 11
276.65048298591643
 21
169.74368895493751
 31
0.0
  0
ARC
  5
2C97C
  8
0
 10
267.25048305371593
 20
179.74368873141989
 30
0.0
 40
9.9999999999997726
 50
168.6180441993431
 51
270.00000000000648
  0
LINE
  5
2C97D
  8
0
 10
211.46714287975689
 20
219.74368783735051
 30
0.0
 11
214.9504830239143
 21
206.7436894317747
 31
0.0
  0
LINE
  5
2C97E
  8
0
 10
214.9504830239143
 20
206.7436894317747
 30
0.0
 11
262.48517791906261
 21
206.7436894317747
 31
0.0
  0
LINE
  5
2C97F
  8
0
 10
262.48517791906261
 20
206.7436894317747
 30
0.0
 11
257.4471493361321
 21
181.7171747712076
 31
0.0
  0
ARC
  5
2C980
  8
0
 10
276.65048305371653
 20
179.74368873142021
 30
0.0
 40
10.000000000000121
 50
270.0
 51
303.7781328995444
  0
LINE
  5
2C9B9
  8
0
 10
271.95048305371671
 20
150.90381930671941
 30
0.0
 11
271.95048305371671
 21
154.04744091533431
 31
0.0
  0
LINE
  5
2C9BE
  8
0
 10
271.95048305371671
 20
154.04744091533431
 30
0.0
 11
271.95048305371671
 21
160.74953618549111
 31
0.0
  0
LINE
  5
2C9CD
  8
0
 10
74.264588022728276
 20
243.4436887314202
 30
0.0
 11
75.622305774183573
 21
235.74368873142009
 31
0.0
  0
LINE
  5
2C9CE
  8
0
 10
145.90687027127291
 20
235.74368873142009
 30
0.0
 11
147.2645880227283
 21
243.4436887314202
 31
0.0
  0
LINE
  5
2C9CF
  8
0
 10
74.264588022728276
 20
235.74368873142009
 30
0.0
 11
74.264588022728276
 21
197.9058382627465
 31
0.0
  0
LINE
  5
2C9D0
  8
0
 10
147.2645880227283
 20
197.90583826274619
 30
0.0
 11
147.2645880227283
 21
235.74368873142009
 31
0.0
  0
LINE
  5
2C9D1
  8
0
 10
77.914588022728367
 20
244.24368873142009
 30
0.0
 11
77.914588022728367
 21
243.4436887314202
 31
0.0
  0
LINE
  5
2C9D2
  8
0
 10
143.61458802272821
 20
243.4436887314202
 30
0.0
 11
143.61458802272821
 21
244.24368873142009
 31
0.0
  0
LINE
  5
2C9D3
  8
0
 10
130.7645880227283
 20
185.74368873142009
 30
0.0
 11
125.7645880227282
 21
185.74368873142009
 31
0.0
  0
LINE
  5
2C9D4
  8
0
 10
95.764588022728276
 20
185.74368873142009
 30
0.0
 11
90.764588022728276
 21
185.74368873142009
 31
0.0
  0
LINE
  5
2C9D5
  8
0
 10
90.764588022728276
 20
173.74368873142009
 30
0.0
 11
95.764588022728276
 21
173.74368873142009
 31
0.0
  0
LINE
  5
2C9D6
  8
0
 10
125.7645880227282
 20
173.74368873142009
 30
0.0
 11
130.7645880227283
 21
173.74368873142009
 31
0.0
  0
LINE
  5
2C9D7
  8
0
 10
82.764588022728276
 20
185.5586887314202
 30
0.0
 11
80.264588022728276
 21
185.5586887314202
 31
0.0
  0
LINE
  5
2C9D8
  8
0
 10
80.264588022728276
 20
173.92868873142021
 30
0.0
 11
82.764588022728276
 21
173.92868873142021
 31
0.0
  0
LINE
  5
2C9D9
  8
0
 10
133.86458802272841
 20
185.5586887314202
 30
0.0
 11
133.26458802272819
 21
185.5586887314202
 31
0.0
  0
LINE
  5
2C9DA
  8
0
 10
133.26458802272819
 20
173.92868873142021
 30
0.0
 11
133.86458802272841
 21
173.92868873142021
 31
0.0
  0
LINE
  5
2C9DB
  8
0
 10
79.031588022728329
 20
183.74368873142009
 30
0.0
 11
78.264588022728276
 21
182.97668873142021
 31
0.0
  0
LINE
  5
2C9DC
  8
0
 10
78.264588022728276
 20
176.51068873142009
 30
0.0
 11
79.031588022728329
 21
175.74368873142009
 31
0.0
  0
LINE
  5
2C9DD
  8
0
 10
80.264588022728276
 20
183.74368873142009
 30
0.0
 11
79.031588022728329
 21
183.74368873142009
 31
0.0
  0
LINE
  5
2C9DE
  8
0
 10
79.031588022728329
 20
175.74368873142009
 30
0.0
 11
80.264588022728276
 21
175.74368873142009
 31
0.0
  0
ARC
  5
2C9E0
  8
0
 10
101.5226514548315
 20
142.2436887314206
 30
0.0
 40
2.5000000000004201
 50
195.00000000000099
 51
270.0
  0
LINE
  5
2C9E1
  8
0
 10
101.52265145483121
 20
139.74368873142009
 30
0.0
 11
120.0065245906253
 21
139.74368873142009
 31
0.0
  0
ARC
  5
2C9E3
  8
0
 10
120.0065245906253
 20
142.2436887314206
 30
0.0
 40
2.5000000000004201
 50
270.0
 51
345.00000000000119
  0
LINE
  5
2C9E5
  8
0
 10
98.264588022728276
 20
144.74368873142009
 30
0.0
 11
99.107836889108285
 21
141.59664111866419
 31
0.0
  0
LINE
  5
2C9E6
  8
0
 10
122.42133915634849
 20
141.59664111866419
 30
0.0
 11
123.2645880227283
 21
144.74368873142009
 31
0.0
  0
LINE
  5
2C9E8
  8
0
 10
98.264588022728503
 20
196.74368873142021
 30
0.0
 11
95.764588022728276
 21
196.6126692832126
 31
0.0
  0
LINE
  5
2C9E9
  8
0
 10
95.764588022728276
 20
162.8747081796275
 30
0.0
 11
98.264588022728503
 21
162.74368873142009
 31
0.0
  0
LINE
  5
2C9EA
  8
0
 10
123.2645880227285
 20
162.74368873142001
 30
0.0
 11
125.7645880227282
 21
162.8747081796275
 31
0.0
  0
LINE
  5
2C9EB
  8
0
 10
125.7645880227282
 20
196.6126692832126
 30
0.0
 11
123.2645880227285
 21
196.74368873142021
 31
0.0
  0
LINE
  5
2C9F6
  8
0
 10
91.764588022728503
 20
217.98087409844209
 30
0.0
 11
90.764588022728503
 21
217.98087409844209
 31
0.0
  0
LINE
  5
2C9F8
  8
0
 10
90.764588022728503
 20
206.74368873142009
 30
0.0
 11
88.264588022728503
 21
206.74368873142009
 31
0.0
  0
LINE
  5
2C9F9
  8
0
 10
91.764588022728503
 20
219.74368873142009
 30
0.0
 11
88.264588022728503
 21
219.74368873142009
 31
0.0
  0
LINE
  5
2C9FC
  8
0
 10
133.2645880227285
 20
219.74368873142009
 30
0.0
 11
129.76458802272839
 21
219.74368873142021
 31
0.0
  0
LINE
  5
2C9FD
  8
0
 10
133.26458802272819
 20
231.74368873142009
 30
0.0
 11
88.264588022728503
 21
231.74368873142009
 31
0.0
  0
LINE
  5
2CA00
  8
0
 10
133.2645880227285
 20
206.74368873142009
 30
0.0
 11
130.7645880227285
 21
206.74368873142009
 31
0.0
  0
LINE
  5
2CA02
  8
0
 10
130.7645880227285
 20
217.98087409844209
 30
0.0
 11
129.76458802272839
 21
217.98087409844209
 31
0.0
  0
LINE
  5
2CA03
  8
0
 10
90.764588022728503
 20
181.71717486247411
 30
0.0
 11
88.264588022728503
 21
181.71717486247411
 31
0.0
  0
LINE
  5
2CA04
  8
0
 10
90.764588022728276
 20
169.74368873142009
 30
0.0
 11
88.264588022728276
 21
169.74368873142009
 31
0.0
  0
LINE
  5
2CA07
  8
0
 10
133.26458802272819
 20
181.71717486247411
 30
0.0
 11
130.7645880227283
 21
181.71717486247411
 31
0.0
  0
LINE
  5
2CA08
  8
0
 10
133.26458802272819
 20
169.74368873142009
 30
0.0
 11
130.7645880227283
 21
169.74368873142009
 31
0.0
  0
LINE
  5
2CA0B
  8
0
 10
90.764588022728276
 20
169.74368873142009
 30
0.0
 11
90.764588022728503
 21
217.98087409844209
 31
0.0
  0
LINE
  5
2CA0C
  8
0
 10
88.264588022728503
 20
231.74368873142009
 30
0.0
 11
88.264588022728503
 21
169.74368873142009
 31
0.0
  0
LINE
  5
2CA0D
  8
0
 10
130.7645880227283
 20
169.74368873142009
 30
0.0
 11
130.7645880227285
 21
217.98087409844209
 31
0.0
  0
LINE
  5
2CA0E
  8
0
 10
133.26458802272819
 20
231.74368873142009
 30
0.0
 11
133.26458802272819
 21
169.74368873142009
 31
0.0
  0
LINE
  5
2CA10
  8
0
 10
68.264588022728276
 20
244.24368873142009
 30
0.0
 11
153.2645880227283
 21
244.24368873142009
 31
0.0
  0
LINE
  5
2CA11
  8
0
 10
68.264588022728276
 20
244.24368873142009
 30
0.0
 11
68.264588022728276
 21
246.74368873142009
 31
0.0
  0
LINE
  5
2CA12
  8
0
 10
68.264588022728276
 20
246.74368873142009
 30
0.0
 11
153.2645880227283
 21
246.74368873142009
 31
0.0
  0
LINE
  5
2CA16
  8
0
 10
153.2645880227283
 20
244.24368873142009
 30
0.0
 11
153.2645880227283
 21
246.74368873142009
 31
0.0
  0
LINE
  5
2CA19
  8
0
 10
74.264588022728276
 20
243.4436887314202
 30
0.0
 11
147.2645880227283
 21
243.4436887314202
 31
0.0
  0
POLYLINE
  5
2CA1A
  8
0
 10
85.498739548953381
 20
173.48535539808651
 30
0.0
 66
     1
 70
     8
  0
VERTEX
  8
0
  5
2CCED
 10
85.4987
 20
173.485
 30
0.000000
  70
    32
  0
VERTEX
  8
0
  5
2CCEE
 10
85.5084
 20
173.477
 30
0.000000
  70
    32
  0
VERTEX
  8
0
  5
2CCEF
 10
85.5181
 20
173.468
 30
0.000000
  70
    32
  0
VERTEX
  8
0
  5
2CCF0
 10
85.5278
 20
173.460
 30
0.000000
  70
    32
  0
VERTEX
  8
0
  5
2CCF1
 10
85.5375
 20
173.451
 30
0.000000
  70
    32
  0
VERTEX
  8
0
  5
2CCF2
 10
85.5472
 20
173.442
 30
0.000000
  70
    32
  0
VERTEX
  8
0
  5
2CCF3
 10
85.5569
 20
173.434
 30
0.000000
  70
    32
  0
VERTEX
  8
0
  5
2CCF4
 10
85.5666
 20
173.425
 30
0.000000
  70
    32
  0
VERTEX
  8
0
  5
2CCF5
 10
85.5763
 20
173.417
 30
0.000000
  70
    32
  0
VERTEX
  8
0
  5
2CCF6
 10
85.5861
 20
173.408
 30
0.000000
  70
    32
  0
VERTEX
  8
0
  5
2CCF7
 10
85.5958
 20
173.399
 30
0.000000
  70
    32
  0
VERTEX
  8
0
  5
2CCF8
 10
85.6055
 20
173.391
 30
0.000000
  70
    32
  0
VERTEX
  8
0
  5
2CCF9
 10
85.6152
 20
173.382
 30
0.000000
  70
    32
  0
VERTEX
  8
0
  5
2CCFA
 10
85.6250
 20
173.374
 30
0.000000
  70
    32
  0
VERTEX
  8
0
  5
2CCFB
 10
85.6347
 20
173.365
 30
0.000000
  70
    32
  0
VERTEX
  8
0
  5
2CCFC
 10
85.6444
 20
173.357
 30
0.000000
  70
    32
  0
VERTEX
  8
0
  5
2CCFD
 10
85.6542
 20
173.348
 30
0.000000
  70
    32
  0
VERTEX
  8
0
  5
2CCFE
 10
85.6639
 20
173.339
 30
0.000000
  70
    32
  0
VERTEX
  8
0
  5
2CCFF
 10
85.6737
 20
173.331
 30
0.000000
  70
    32
  0
VERTEX
  8
0
  5
2CD00
 10
85.6834
 20
173.322
 30
0.000000
  70
    32
  0
VERTEX
  8
0
  5
2CD01
 10
85.6932
 20
173.314
 30
0.000000
  70
    32
  0
VERTEX
  8
0
  5
2CD02
 10
85.7029
 20
173.305
 30
0.000000
  70
    32
  0
VERTEX
  8
0
  5
2CD03
 10
85.7127
 20
173.297
 30
0.000000
  70
    32
  0
VERTEX
  8
0
  5
2CD04
 10
85.7224
 20
173.288
 30
0.000000
  70
    32
  0
VERTEX
  8
0
  5
2CD05
 10
85.7322
 20
173.280
 30
0.000000
  70
    32
  0
VERTEX
  8
0
  5
2CD06
 10
85.7420
 20
173.271
 30
0.000000
  70
    32
  0
VERTEX
  8
0
  5
2CD07
 10
85.7518
 20
173.263
 30
0.000000
  70
    32
  0
VERTEX
  8
0
  5
2CD08
 10
85.7615
 20
173.254
 30
0.000000
  70
    32
  0
VERTEX
  8
0
  5
2CD09
 10
85.7713
 20
173.245
 30
0.000000
  70
    32
  0
VERTEX
  8
0
  5
2CD0A
 10
85.7811
 20
173.237
 30
0.000000
  70
    32
  0
VERTEX
  8
0
  5
2CD0B
 10
85.7909
 20
173.228
 30
0.000000
  70
    32
  0
VERTEX
  8
0
  5
2CD0C
 10
85.8007
 20
173.220
 30
0.000000
  70
    32
  0
VERTEX
  8
0
  5
2CD0D
 10
85.8105
 20
173.211
 30
0.000000
  70
    32
  0
VERTEX
  8
0
  5
2CD0E
 10
85.8203
 20
173.203
 30
0.000000
  70
    32
  0
VERTEX
  8
0
  5
2CD0F
 10
85.8301
 20
173.194
 30
0.000000
  70
    32
  0
VERTEX
  8
0
  5
2CD10
 10
85.8399
 20
173.186
 30
0.000000
  70
    32
  0
VERTEX
  8
0
  5
2CD11
 10
85.8497
 20
173.177
 30
0.000000
  70
    32
  0
VERTEX
  8
0
  5
2CD12
 10
85.8595
 20
173.169
 30
0.000000
  70
    32
  0
VERTEX
  8
0
  5
2CD13
 10
85.8693
 20
173.160
 30
0.000000
  70
    32
  0
VERTEX
  8
0
  5
2CD14
 10
85.8791
 20
173.152
 30
0.000000
  70
    32
  0
VERTEX
  8
0
  5
2CD15
 10
85.8889
 20
173.143
 30
0.000000
  70
    32
  0
VERTEX
  8
0
  5
2CD16
 10
85.8988
 20
173.135
 30
0.000000
  70
    32
  0
VERTEX
  8
0
  5
2CD17
 10
85.9086
 20
173.127
 30
0.000000
  70
    32
  0
VERTEX
  8
0
  5
2CD18
 10
85.9184
 20
173.118
 30
0.000000
  70
    32
  0
VERTEX
  8
0
  5
2CD19
 10
85.9283
 20
173.110
 30
0.000000
  70
    32
  0
VERTEX
  8
0
  5
2CD1A
 10
85.9381
 20
173.101
 30
0.000000
  70
    32
  0
VERTEX
  8
0
  5
2CD1B
 10
85.9479
 20
173.093
 30
0.000000
  70
    32
  0
VERTEX
  8
0
  5
2CD1C
 10
85.9578
 20
173.084
 30
0.000000
  70
    32
  0
VERTEX
  8
0
  5
2CD1D
 10
85.9676
 20
173.076
 30
0.000000
  70
    32
  0
VERTEX
  8
0
  5
2CD1E
 10
85.9775
 20
173.067
 30
0.000000
  70
    32
  0
VERTEX
  8
0
  5
2CD1F
 10
85.9873
 20
173.059
 30
0.000000
  70
    32
  0
VERTEX
  8
0
  5
2CD20
 10
85.9972
 20
173.050
 30
0.000000
  70
    32
  0
VERTEX
  8
0
  5
2CD21
 10
86.0071
 20
173.042
 30
0.000000
  70
    32
  0
VERTEX
  8
0
  5
2CD22
 10
86.0169
 20
173.033
 30
0.000000
  70
    32
  0
VERTEX
  8
0
  5
2CD23
 10
86.0268
 20
173.025
 30
0.000000
  70
    32
  0
VERTEX
  8
0
  5
2CD24
 10
86.0367
 20
173.017
 30
0.000000
  70
    32
  0
VERTEX
  8
0
  5
2CD25
 10
86.0465
 20
173.008
 30
0.000000
  70
    32
  0
VERTEX
  8
0
  5
2CD26
 10
86.0564
 20
173.000
 30
0.000000
  70
    32
  0
VERTEX
  8
0
  5
2CD27
 10
86.0663
 20
172.991
 30
0.000000
  70
    32
  0
VERTEX
  8
0
  5
2CD28
 10
86.0762
 20
172.983
 30
0.000000
  70
    32
  0
VERTEX
  8
0
  5
2CD29
 10
86.0861
 20
172.975
 30
0.000000
  70
    32
  0
VERTEX
  8
0
  5
2CD2A
 10
86.0960
 20
172.966
 30
0.000000
  70
    32
  0
VERTEX
  8
0
  5
2CD2B
 10
86.1059
 20
172.958
 30
0.000000
  70
    32
  0
VERTEX
  8
0
  5
2CD2C
 10
86.1158
 20
172.949
 30
0.000000
  70
    32
  0
VERTEX
  8
0
  5
2CD2D
 10
86.1257
 20
172.941
 30
0.000000
  70
    32
  0
VERTEX
  8
0
  5
2CD2E
 10
86.1356
 20
172.932
 30
0.000000
  70
    32
  0
VERTEX
  8
0
  5
2CD2F
 10
86.1455
 20
172.924
 30
0.000000
  70
    32
  0
VERTEX
  8
0
  5
2CD30
 10
86.1554
 20
172.916
 30
0.000000
  70
    32
  0
VERTEX
  8
0
  5
2CD31
 10
86.1653
 20
172.907
 30
0.000000
  70
    32
  0
VERTEX
  8
0
  5
2CD32
 10
86.1752
 20
172.899
 30
0.000000
  70
    32
  0
VERTEX
  8
0
  5
2CD33
 10
86.1851
 20
172.891
 30
0.000000
  70
    32
  0
VERTEX
  8
0
  5
2CD34
 10
86.1951
 20
172.882
 30
0.000000
  70
    32
  0
VERTEX
  8
0
  5
2CD35
 10
86.2050
 20
172.874
 30
0.000000
  70
    32
  0
VERTEX
  8
0
  5
2CD36
 10
86.2149
 20
172.865
 30
0.000000
  70
    32
  0
VERTEX
  8
0
  5
2CD37
 10
86.2249
 20
172.857
 30
0.000000
  70
    32
  0
VERTEX
  8
0
  5
2CD38
 10
86.2348
 20
172.849
 30
0.000000
  70
    32
  0
VERTEX
  8
0
  5
2CD39
 10
86.2447
 20
172.840
 30
0.000000
  70
    32
  0
VERTEX
  8
0
  5
2CD3A
 10
86.2547
 20
172.832
 30
0.000000
  70
    32
  0
VERTEX
  8
0
  5
2CD3B
 10
86.2646
 20
172.824
 30
0.000000
  70
    32
  0
VERTEX
  8
0
  5
2CD3C
 10
86.2746
 20
172.815
 30
0.000000
  70
    32
  0
VERTEX
  8
0
  5
2CD3D
 10
86.2845
 20
172.807
 30
0.000000
  70
    32
  0
VERTEX
  8
0
  5
2CD3E
 10
86.2945
 20
172.799
 30
0.000000
  70
    32
  0
VERTEX
  8
0
  5
2CD3F
 10
86.3045
 20
172.790
 30
0.000000
  70
    32
  0
VERTEX
  8
0
  5
2CD40
 10
86.3144
 20
172.782
 30
0.000000
  70
    32
  0
VERTEX
  8
0
  5
2CD41
 10
86.3244
 20
172.774
 30
0.000000
  70
    32
  0
VERTEX
  8
0
  5
2CD42
 10
86.3344
 20
172.765
 30
0.000000
  70
    32
  0
VERTEX
  8
0
  5
2CD43
 10
86.3443
 20
172.757
 30
0.000000
  70
    32
  0
VERTEX
  8
0
  5
2CD44
 10
86.3543
 20
172.749
 30
0.000000
  70
    32
  0
VERTEX
  8
0
  5
2CD45
 10
86.3643
 20
172.740
 30
0.000000
  70
    32
  0
VERTEX
  8
0
  5
2CD46
 10
86.3743
 20
172.732
 30
0.000000
  70
    32
  0
VERTEX
  8
0
  5
2CD47
 10
86.3843
 20
172.724
 30
0.000000
  70
    32
  0
VERTEX
  8
0
  5
2CD48
 10
86.3943
 20
172.715
 30
0.000000
  70
    32
  0
VERTEX
  8
0
  5
2CD49
 10
86.4042
 20
172.707
 30
0.000000
  70
    32
  0
VERTEX
  8
0
  5
2CD4A
 10
86.4142
 20
172.699
 30
0.000000
  70
    32
  0
VERTEX
  8
0
  5
2CD4B
 10
86.4242
 20
172.690
 30
0.000000
  70
    32
  0
VERTEX
  8
0
  5
2CD4C
 10
86.4342
 20
172.682
 30
0.000000
  70
    32
  0
VERTEX
  8
0
  5
2CD4D
 10
86.4443
 20
172.674
 30
0.000000
  70
    32
  0
VERTEX
  8
0
  5
2CD4E
 10
86.4543
 20
172.666
 30
0.000000
  70
    32
  0
VERTEX
  8
0
  5
2CD4F
 10
86.4643
 20
172.657
 30
0.000000
  70
    32
  0
VERTEX
  8
0
  5
2CD50
 10
86.4743
 20
172.649
 30
0.000000
  70
    32
  0
VERTEX
  8
0
  5
2CD51
 10
86.4843
 20
172.641
 30
0.000000
  70
    32
  0
VERTEX
  8
0
  5
2CD52
 10
86.4943
 20
172.632
 30
0.000000
  70
    32
  0
VERTEX
  8
0
  5
2CD53
 10
86.5044
 20
172.624
 30
0.000000
  70
    32
  0
VERTEX
  8
0
  5
2CD54
 10
86.5144
 20
172.616
 30
0.000000
  70
    32
  0
VERTEX
  8
0
  5
2CD55
 10
86.5244
 20
172.608
 30
0.000000
  70
    32
  0
VERTEX
  8
0
  5
2CD56
 10
86.5345
 20
172.599
 30
0.000000
  70
    32
  0
VERTEX
  8
0
  5
2CD57
 10
86.5445
 20
172.591
 30
0.000000
  70
    32
  0
VERTEX
  8
0
  5
2CD58
 10
86.5546
 20
172.583
 30
0.000000
  70
    32
  0
VERTEX
  8
0
  5
2CD59
 10
86.5646
 20
172.575
 30
0.000000
  70
    32
  0
VERTEX
  8
0
  5
2CD5A
 10
86.5747
 20
172.566
 30
0.000000
  70
    32
  0
VERTEX
  8
0
  5
2CD5B
 10
86.5847
 20
172.558
 30
0.000000
  70
    32
  0
VERTEX
  8
0
  5
2CD5C
 10
86.5948
 20
172.550
 30
0.000000
  70
    32
  0
VERTEX
  8
0
  5
2CD5D
 10
86.6048
 20
172.542
 30
0.000000
  70
    32
  0
VERTEX
  8
0
  5
2CD5E
 10
86.6149
 20
172.533
 30
0.000000
  70
    32
  0
VERTEX
  8
0
  5
2CD5F
 10
86.6249
 20
172.525
 30
0.000000
  70
    32
  0
VERTEX
  8
0
  5
2CD60
 10
86.6350
 20
172.517
 30
0.000000
  70
    32
  0
VERTEX
  8
0
  5
2CD61
 10
86.6451
 20
172.509
 30
0.000000
  70
    32
  0
VERTEX
  8
0
  5
2CD62
 10
86.6552
 20
172.500
 30
0.000000
  70
    32
  0
VERTEX
  8
0
  5
2CD63
 10
86.6652
 20
172.492
 30
0.000000
  70
    32
  0
VERTEX
  8
0
  5
2CD64
 10
86.6753
 20
172.484
 30
0.000000
  70
    32
  0
VERTEX
  8
0
  5
2CD65
 10
86.6854
 20
172.476
 30
0.000000
  70
    32
  0
VERTEX
  8
0
  5
2CD66
 10
86.6955
 20
172.468
 30
0.000000
  70
    32
  0
VERTEX
  8
0
  5
2CD67
 10
86.7056
 20
172.459
 30
0.000000
  70
    32
  0
VERTEX
  8
0
  5
2CD68
 10
86.7157
 20
172.451
 30
0.000000
  70
    32
  0
VERTEX
  8
0
  5
2CD69
 10
86.7258
 20
172.443
 30
0.000000
  70
    32
  0
VERTEX
  8
0
  5
2CD6A
 10
86.7359
 20
172.435
 30
0.000000
  70
    32
  0
VERTEX
  8
0
  5
2CD6B
 10
86.7460
 20
172.427
 30
0.000000
  70
    32
  0
VERTEX
  8
0
  5
2CD6C
 10
86.7561
 20
172.418
 30
0.000000
  70
    32
  0
VERTEX
  8
0
  5
2CD6D
 10
86.7662
 20
172.410
 30
0.000000
  70
    32
  0
SEQEND
  8
0
  5
2CD6E
  0
POLYLINE
  5
2CA1B
  8
0
 10
74.264588022728304
 20
197.90583826274593
 30
0.0
 66
     1
 70
     8
  0
VERTEX
  8
0
  5
2CD6F
 10
74.2646
 20
197.906
 30
0.000000
  70
    32
  0
VERTEX
  8
0
  5
2CD70
 10
74.2648
 20
197.781
 30
0.000000
  70
    32
  0
VERTEX
  8
0
  5
2CD71
 10
74.2656
 20
197.656
 30
0.000000
  70
    32
  0
VERTEX
  8
0
  5
2CD72
 10
74.2668
 20
197.531
 30
0.000000
  70
    32
  0
VERTEX
  8
0
  5
2CD73
 10
74.2686
 20
197.406
 30
0.000000
  70
    32
  0
VERTEX
  8
0
  5
2CD74
 10
74.2708
 20
197.281
 30
0.000000
  70
    32
  0
VERTEX
  8
0
  5
2CD75
 10
74.2735
 20
197.156
 30
0.000000
  70
    32
  0
VERTEX
  8
0
  5
2CD76
 10
74.2768
 20
197.031
 30
0.000000
  70
    32
  0
VERTEX
  8
0
  5
2CD77
 10
74.2805
 20
196.907
 30
0.000000
  70
    32
  0
VERTEX
  8
0
  5
2CD78
 10
74.2847
 20
196.782
 30
0.000000
  70
    32
  0
VERTEX
  8
0
  5
2CD79
 10
74.2895
 20
196.657
 30
0.000000
  70
    32
  0
VERTEX
  8
0
  5
2CD7A
 10
74.2947
 20
196.532
 30
0.000000
  70
    32
  0
VERTEX
  8
0
  5
2CD7B
 10
74.3004
 20
196.407
 30
0.000000
  70
    32
  0
VERTEX
  8
0
  5
2CD7C
 10
74.3066
 20
196.282
 30
0.000000
  70
    32
  0
VERTEX
  8
0
  5
2CD7D
 10
74.3133
 20
196.158
 30
0.000000
  70
    32
  0
VERTEX
  8
0
  5
2CD7E
 10
74.3205
 20
196.033
 30
0.000000
  70
    32
  0
VERTEX
  8
0
  5
2CD7F
 10
74.3282
 20
195.908
 30
0.000000
  70
    32
  0
VERTEX
  8
0
  5
2CD80
 10
74.3364
 20
195.784
 30
0.000000
  70
    32
  0
VERTEX
  8
0
  5
2CD81
 10
74.3451
 20
195.659
 30
0.000000
  70
    32
  0
VERTEX
  8
0
  5
2CD82
 10
74.3543
 20
195.534
 30
0.000000
  70
    32
  0
VERTEX
  8
0
  5
2CD83
 10
74.3640
 20
195.410
 30
0.000000
  70
    32
  0
VERTEX
  8
0
  5
2CD84
 10
74.3742
 20
195.285
 30
0.000000
  70
    32
  0
VERTEX
  8
0
  5
2CD85
 10
74.3849
 20
195.161
 30
0.000000
  70
    32
  0
VERTEX
  8
0
  5
2CD86
 10
74.3961
 20
195.036
 30
0.000000
  70
    32
  0
VERTEX
  8
0
  5
2CD87
 10
74.4078
 20
194.912
 30
0.000000
  70
    32
  0
VERTEX
  8
0
  5
2CD88
 10
74.4199
 20
194.787
 30
0.000000
  70
    32
  0
VERTEX
  8
0
  5
2CD89
 10
74.4326
 20
194.663
 30
0.000000
  70
    32
  0
VERTEX
  8
0
  5
2CD8A
 10
74.4458
 20
194.539
 30
0.000000
  70
    32
  0
VERTEX
  8
0
  5
2CD8B
 10
74.4594
 20
194.414
 30
0.000000
  70
    32
  0
VERTEX
  8
0
  5
2CD8C
 10
74.4736
 20
194.290
 30
0.000000
  70
    32
  0
VERTEX
  8
0
  5
2CD8D
 10
74.4882
 20
194.166
 30
0.000000
  70
    32
  0
VERTEX
  8
0
  5
2CD8E
 10
74.5034
 20
194.042
 30
0.000000
  70
    32
  0
VERTEX
  8
0
  5
2CD8F
 10
74.5190
 20
193.918
 30
0.000000
  70
    32
  0
VERTEX
  8
0
  5
2CD90
 10
74.5351
 20
193.794
 30
0.000000
  70
    32
  0
VERTEX
  8
0
  5
2CD91
 10
74.5517
 20
193.670
 30
0.000000
  70
    32
  0
VERTEX
  8
0
  5
2CD92
 10
74.5689
 20
193.546
 30
0.000000
  70
    32
  0
VERTEX
  8
0
  5
2CD93
 10
74.5865
 20
193.422
 30
0.000000
  70
    32
  0
VERTEX
  8
0
  5
2CD94
 10
74.6046
 20
193.298
 30
0.000000
  70
    32
  0
VERTEX
  8
0
  5
2CD95
 10
74.6232
 20
193.174
 30
0.000000
  70
    32
  0
VERTEX
  8
0
  5
2CD96
 10
74.6423
 20
193.051
 30
0.000000
  70
    32
  0
VERTEX
  8
0
  5
2CD97
 10
74.6618
 20
192.927
 30
0.000000
  70
    32
  0
VERTEX
  8
0
  5
2CD98
 10
74.6819
 20
192.804
 30
0.000000
  70
    32
  0
VERTEX
  8
0
  5
2CD99
 10
74.7025
 20
192.680
 30
0.000000
  70
    32
  0
VERTEX
  8
0
  5
2CD9A
 10
74.7235
 20
192.557
 30
0.000000
  70
    32
  0
VERTEX
  8
0
  5
2CD9B
 10
74.7451
 20
192.433
 30
0.000000
  70
    32
  0
VERTEX
  8
0
  5
2CD9C
 10
74.7671
 20
192.310
 30
0.000000
  70
    32
  0
VERTEX
  8
0
  5
2CD9D
 10
74.7896
 20
192.187
 30
0.000000
  70
    32
  0
VERTEX
  8
0
  5
2CD9E
 10
74.8127
 20
192.064
 30
0.000000
  70
    32
  0
VERTEX
  8
0
  5
2CD9F
 10
74.8362
 20
191.941
 30
0.000000
  70
    32
  0
VERTEX
  8
0
  5
2CDA0
 10
74.8602
 20
191.818
 30
0.000000
  70
    32
  0
VERTEX
  8
0
  5
2CDA1
 10
74.8847
 20
191.695
 30
0.000000
  70
    32
  0
VERTEX
  8
0
  5
2CDA2
 10
74.9096
 20
191.572
 30
0.000000
  70
    32
  0
VERTEX
  8
0
  5
2CDA3
 10
74.9351
 20
191.450
 30
0.000000
  70
    32
  0
VERTEX
  8
0
  5
2CDA4
 10
74.9611
 20
191.327
 30
0.000000
  70
    32
  0
VERTEX
  8
0
  5
2CDA5
 10
74.9875
 20
191.205
 30
0.000000
  70
    32
  0
VERTEX
  8
0
  5
2CDA6
 10
75.0144
 20
191.082
 30
0.000000
  70
    32
  0
VERTEX
  8
0
  5
2CDA7
 10
75.0418
 20
190.960
 30
0.000000
  70
    32
  0
VERTEX
  8
0
  5
2CDA8
 10
75.0697
 20
190.838
 30
0.000000
  70
    32
  0
VERTEX
  8
0
  5
2CDA9
 10
75.0981
 20
190.716
 30
0.000000
  70
    32
  0
VERTEX
  8
0
  5
2CDAA
 10
75.1270
 20
190.594
 30
0.000000
  70
    32
  0
VERTEX
  8
0
  5
2CDAB
 10
75.1564
 20
190.472
 30
0.000000
  70
    32
  0
VERTEX
  8
0
  5
2CDAC
 10
75.1862
 20
190.350
 30
0.000000
  70
    32
  0
VERTEX
  8
0
  5
2CDAD
 10
75.2166
 20
190.228
 30
0.000000
  70
    32
  0
VERTEX
  8
0
  5
2CDAE
 10
75.2474
 20
190.107
 30
0.000000
  70
    32
  0
VERTEX
  8
0
  5
2CDAF
 10
75.2787
 20
189.985
 30
0.000000
  70
    32
  0
VERTEX
  8
0
  5
2CDB0
 10
75.3105
 20
189.864
 30
0.000000
  70
    32
  0
VERTEX
  8
0
  5
2CDB1
 10
75.3427
 20
189.742
 30
0.000000
  70
    32
  0
VERTEX
  8
0
  5
2CDB2
 10
75.3755
 20
189.621
 30
0.000000
  70
    32
  0
VERTEX
  8
0
  5
2CDB3
 10
75.4087
 20
189.500
 30
0.000000
  70
    32
  0
VERTEX
  8
0
  5
2CDB4
 10
75.4424
 20
189.379
 30
0.000000
  70
    32
  0
VERTEX
  8
0
  5
2CDB5
 10
75.4766
 20
189.258
 30
0.000000
  70
    32
  0
VERTEX
  8
0
  5
2CDB6
 10
75.5113
 20
189.138
 30
0.000000
  70
    32
  0
VERTEX
  8
0
  5
2CDB7
 10
75.5465
 20
189.017
 30
0.000000
  70
    32
  0
VERTEX
  8
0
  5
2CDB8
 10
75.5821
 20
188.897
 30
0.000000
  70
    32
  0
VERTEX
  8
0
  5
2CDB9
 10
75.6182
 20
188.776
 30
0.000000
  70
    32
  0
VERTEX
  8
0
  5
2CDBA
 10
75.6548
 20
188.656
 30
0.000000
  70
    32
  0
VERTEX
  8
0
  5
2CDBB
 10
75.6919
 20
188.536
 30
0.000000
  70
    32
  0
VERTEX
  8
0
  5
2CDBC
 10
75.7294
 20
188.416
 30
0.000000
  70
    32
  0
VERTEX
  8
0
  5
2CDBD
 10
75.7675
 20
188.296
 30
0.000000
  70
    32
  0
VERTEX
  8
0
  5
2CDBE
 10
75.8060
 20
188.176
 30
0.000000
  70
    32
  0
VERTEX
  8
0
  5
2CDBF
 10
75.8450
 20
188.057
 30
0.000000
  70
    32
  0
VERTEX
  8
0
  5
2CDC0
 10
75.8844
 20
187.937
 30
0.000000
  70
    32
  0
VERTEX
  8
0
  5
2CDC1
 10
75.9243
 20
187.818
 30
0.000000
  70
    32
  0
VERTEX
  8
0
  5
2CDC2
 10
75.9648
 20
187.699
 30
0.000000
  70
    32
  0
VERTEX
  8
0
  5
2CDC3
 10
76.0056
 20
187.580
 30
0.000000
  70
    32
  0
VERTEX
  8
0
  5
2CDC4
 10
76.0470
 20
187.461
 30
0.000000
  70
    32
  0
VERTEX
  8
0
  5
2CDC5
 10
76.0888
 20
187.342
 30
0.000000
  70
    32
  0
VERTEX
  8
0
  5
2CDC6
 10
76.1311
 20
187.224
 30
0.000000
  70
    32
  0
VERTEX
  8
0
  5
2CDC7
 10
76.1739
 20
187.105
 30
0.000000
  70
    32
  0
VERTEX
  8
0
  5
2CDC8
 10
76.2172
 20
186.987
 30
0.000000
  70
    32
  0
VERTEX
  8
0
  5
2CDC9
 10
76.2609
 20
186.869
 30
0.000000
  70
    32
  0
VERTEX
  8
0
  5
2CDCA
 10
76.3051
 20
186.751
 30
0.000000
  70
    32
  0
VERTEX
  8
0
  5
2CDCB
 10
76.3497
 20
186.633
 30
0.000000
  70
    32
  0
VERTEX
  8
0
  5
2CDCC
 10
76.3948
 20
186.515
 30
0.000000
  70
    32
  0
VERTEX
  8
0
  5
2CDCD
 10
76.4404
 20
186.397
 30
0.000000
  70
    32
  0
VERTEX
  8
0
  5
2CDCE
 10
76.4865
 20
186.280
 30
0.000000
  70
    32
  0
VERTEX
  8
0
  5
2CDCF
 10
76.5330
 20
186.163
 30
0.000000
  70
    32
  0
VERTEX
  8
0
  5
2CDD0
 10
76.5800
 20
186.046
 30
0.000000
  70
    32
  0
VERTEX
  8
0
  5
2CDD1
 10
76.6275
 20
185.929
 30
0.000000
  70
    32
  0
VERTEX
  8
0
  5
2CDD2
 10
76.6754
 20
185.812
 30
0.000000
  70
    32
  0
VERTEX
  8
0
  5
2CDD3
 10
76.7238
 20
185.695
 30
0.000000
  70
    32
  0
VERTEX
  8
0
  5
2CDD4
 10
76.7727
 20
185.579
 30
0.000000
  70
    32
  0
VERTEX
  8
0
  5
2CDD5
 10
76.8220
 20
185.463
 30
0.000000
  70
    32
  0
VERTEX
  8
0
  5
2CDD6
 10
76.8718
 20
185.347
 30
0.000000
  70
    32
  0
VERTEX
  8
0
  5
2CDD7
 10
76.9220
 20
185.231
 30
0.000000
  70
    32
  0
VERTEX
  8
0
  5
2CDD8
 10
76.9727
 20
185.115
 30
0.000000
  70
    32
  0
VERTEX
  8
0
  5
2CDD9
 10
77.0239
 20
184.999
 30
0.000000
  70
    32
  0
VERTEX
  8
0
  5
2CDDA
 10
77.0755
 20
184.884
 30
0.000000
  70
    32
  0
VERTEX
  8
0
  5
2CDDB
 10
77.1276
 20
184.769
 30
0.000000
  70
    32
  0
VERTEX
  8
0
  5
2CDDC
 10
77.1801
 20
184.654
 30
0.000000
  70
    32
  0
VERTEX
  8
0
  5
2CDDD
 10
77.2331
 20
184.539
 30
0.000000
  70
    32
  0
VERTEX
  8
0
  5
2CDDE
 10
77.2866
 20
184.424
 30
0.000000
  70
    32
  0
VERTEX
  8
0
  5
2CDDF
 10
77.3405
 20
184.310
 30
0.000000
  70
    32
  0
VERTEX
  8
0
  5
2CDE0
 10
77.3949
 20
184.196
 30
0.000000
  70
    32
  0
VERTEX
  8
0
  5
2CDE1
 10
77.4497
 20
184.081
 30
0.000000
  70
    32
  0
VERTEX
  8
0
  5
2CDE2
 10
77.5050
 20
183.967
 30
0.000000
  70
    32
  0
VERTEX
  8
0
  5
2CDE3
 10
77.5607
 20
183.854
 30
0.000000
  70
    32
  0
VERTEX
  8
0
  5
2CDE4
 10
77.6169
 20
183.740
 30
0.000000
  70
    32
  0
VERTEX
  8
0
  5
2CDE5
 10
77.6735
 20
183.627
 30
0.000000
  70
    32
  0
VERTEX
  8
0
  5
2CDE6
 10
77.7306
 20
183.514
 30
0.000000
  70
    32
  0
VERTEX
  8
0
  5
2CDE7
 10
77.7882
 20
183.401
 30
0.000000
  70
    32
  0
VERTEX
  8
0
  5
2CDE8
 10
77.8462
 20
183.288
 30
0.000000
  70
    32
  0
VERTEX
  8
0
  5
2CDE9
 10
77.9046
 20
183.175
 30
0.000000
  70
    32
  0
VERTEX
  8
0
  5
2CDEA
 10
77.9635
 20
183.063
 30
0.000000
  70
    32
  0
VERTEX
  8
0
  5
2CDEB
 10
78.0228
 20
182.951
 30
0.000000
  70
    32
  0
VERTEX
  8
0
  5
2CDEC
 10
78.0826
 20
182.839
 30
0.000000
  70
    32
  0
VERTEX
  8
0
  5
2CDED
 10
78.1428
 20
182.727
 30
0.000000
  70
    32
  0
VERTEX
  8
0
  5
2CDEE
 10
78.2035
 20
182.616
 30
0.000000
  70
    32
  0
VERTEX
  8
0
  5
2CDEF
 10
78.2646
 20
182.504
 30
0.000000
  70
    32
  0
SEQEND
  8
0
  5
2CDF0
  0
POLYLINE
  5
2CA1C
  8
0
 10
138.56458802272871
 20
175.97905038377078
 30
0.0
 66
     1
 70
     8
  0
VERTEX
  8
0
  5
2CDF1
 10
138.565
 20
175.979
 30
0.000000
  70
    32
  0
VERTEX
  8
0
  5
2CDF2
 10
138.694
 20
176.121
 30
0.000000
  70
    32
  0
VERTEX
  8
0
  5
2CDF3
 10
138.823
 20
176.264
 30
0.000000
  70
    32
  0
VERTEX
  8
0
  5
2CDF4
 10
138.952
 20
176.408
 30
0.000000
  70
    32
  0
VERTEX
  8
0
  5
2CDF5
 10
139.079
 20
176.552
 30
0.000000
  70
    32
  0
VERTEX
  8
0
  5
2CDF6
 10
139.205
 20
176.697
 30
0.000000
  70
    32
  0
VERTEX
  8
0
  5
2CDF7
 10
139.331
 20
176.843
 30
0.000000
  70
    32
  0
VERTEX
  8
0
  5
2CDF8
 10
139.456
 20
176.989
 30
0.000000
  70
    32
  0
VERTEX
  8
0
  5
2CDF9
 10
139.579
 20
177.135
 30
0.000000
  70
    32
  0
VERTEX
  8
0
  5
2CDFA
 10
139.702
 20
177.283
 30
0.000000
  70
    32
  0
VERTEX
  8
0
  5
2CDFB
 10
139.824
 20
177.431
 30
0.000000
  70
    32
  0
VERTEX
  8
0
  5
2CDFC
 10
139.946
 20
177.580
 30
0.000000
  70
    32
  0
VERTEX
  8
0
  5
2CDFD
 10
140.066
 20
177.729
 30
0.000000
  70
    32
  0
VERTEX
  8
0
  5
2CDFE
 10
140.185
 20
177.879
 30
0.000000
  70
    32
  0
VERTEX
  8
0
  5
2CDFF
 10
140.304
 20
178.029
 30
0.000000
  70
    32
  0
VERTEX
  8
0
  5
2CE00
 10
140.421
 20
178.181
 30
0.000000
  70
    32
  0
VERTEX
  8
0
  5
2CE01
 10
140.538
 20
178.332
 30
0.000000
  70
    32
  0
VERTEX
  8
0
  5
2CE02
 10
140.654
 20
178.485
 30
0.000000
  70
    32
  0
VERTEX
  8
0
  5
2CE03
 10
140.769
 20
178.637
 30
0.000000
  70
    32
  0
VERTEX
  8
0
  5
2CE04
 10
140.883
 20
178.791
 30
0.000000
  70
    32
  0
VERTEX
  8
0
  5
2CE05
 10
140.996
 20
178.945
 30
0.000000
  70
    32
  0
VERTEX
  8
0
  5
2CE06
 10
141.108
 20
179.100
 30
0.000000
  70
    32
  0
VERTEX
  8
0
  5
2CE07
 10
141.220
 20
179.255
 30
0.000000
  70
    32
  0
VERTEX
  8
0
  5
2CE08
 10
141.330
 20
179.411
 30
0.000000
  70
    32
  0
VERTEX
  8
0
  5
2CE09
 10
141.439
 20
179.567
 30
0.000000
  70
    32
  0
VERTEX
  8
0
  5
2CE0A
 10
141.548
 20
179.724
 30
0.000000
  70
    32
  0
VERTEX
  8
0
  5
2CE0B
 10
141.655
 20
179.881
 30
0.000000
  70
    32
  0
VERTEX
  8
0
  5
2CE0C
 10
141.762
 20
180.039
 30
0.000000
  70
    32
  0
VERTEX
  8
0
  5
2CE0D
 10
141.868
 20
180.198
 30
0.000000
  70
    32
  0
VERTEX
  8
0
  5
2CE0E
 10
141.972
 20
180.357
 30
0.000000
  70
    32
  0
VERTEX
  8
0
  5
2CE0F
 10
142.076
 20
180.516
 30
0.000000
  70
    32
  0
VERTEX
  8
0
  5
2CE10
 10
142.179
 20
180.677
 30
0.000000
  70
    32
  0
VERTEX
  8
0
  5
2CE11
 10
142.281
 20
180.837
 30
0.000000
  70
    32
  0
VERTEX
  8
0
  5
2CE12
 10
142.382
 20
180.998
 30
0.000000
  70
    32
  0
VERTEX
  8
0
  5
2CE13
 10
142.482
 20
181.160
 30
0.000000
  70
    32
  0
VERTEX
  8
0
  5
2CE14
 10
142.581
 20
181.322
 30
0.000000
  70
    32
  0
VERTEX
  8
0
  5
2CE15
 10
142.679
 20
181.485
 30
0.000000
  70
    32
  0
VERTEX
  8
0
  5
2CE16
 10
142.776
 20
181.648
 30
0.000000
  70
    32
  0
VERTEX
  8
0
  5
2CE17
 10
142.872
 20
181.812
 30
0.000000
  70
    32
  0
VERTEX
  8
0
  5
2CE18
 10
142.967
 20
181.976
 30
0.000000
  70
    32
  0
VERTEX
  8
0
  5
2CE19
 10
143.061
 20
182.141
 30
0.000000
  70
    32
  0
VERTEX
  8
0
  5
2CE1A
 10
143.154
 20
182.306
 30
0.000000
  70
    32
  0
VERTEX
  8
0
  5
2CE1B
 10
143.246
 20
182.471
 30
0.000000
  70
    32
  0
VERTEX
  8
0
  5
2CE1C
 10
143.338
 20
182.638
 30
0.000000
  70
    32
  0
VERTEX
  8
0
  5
2CE1D
 10
143.428
 20
182.804
 30
0.000000
  70
    32
  0
VERTEX
  8
0
  5
2CE1E
 10
143.517
 20
182.971
 30
0.000000
  70
    32
  0
VERTEX
  8
0
  5
2CE1F
 10
143.605
 20
183.139
 30
0.000000
  70
    32
  0
VERTEX
  8
0
  5
2CE20
 10
143.693
 20
183.306
 30
0.000000
  70
    32
  0
VERTEX
  8
0
  5
2CE21
 10
143.779
 20
183.475
 30
0.000000
  70
    32
  0
VERTEX
  8
0
  5
2CE22
 10
143.864
 20
183.644
 30
0.000000
  70
    32
  0
VERTEX
  8
0
  5
2CE23
 10
143.948
 20
183.813
 30
0.000000
  70
    32
  0
VERTEX
  8
0
  5
2CE24
 10
144.031
 20
183.982
 30
0.000000
  70
    32
  0
VERTEX
  8
0
  5
2CE25
 10
144.114
 20
184.152
 30
0.000000
  70
    32
  0
VERTEX
  8
0
  5
2CE26
 10
144.195
 20
184.323
 30
0.000000
  70
    32
  0
VERTEX
  8
0
  5
2CE27
 10
144.275
 20
184.494
 30
0.000000
  70
    32
  0
VERTEX
  8
0
  5
2CE28
 10
144.354
 20
184.665
 30
0.000000
  70
    32
  0
VERTEX
  8
0
  5
2CE29
 10
144.432
 20
184.837
 30
0.000000
  70
    32
  0
VERTEX
  8
0
  5
2CE2A
 10
144.509
 20
185.009
 30
0.000000
  70
    32
  0
VERTEX
  8
0
  5
2CE2B
 10
144.586
 20
185.181
 30
0.000000
  70
    32
  0
VERTEX
  8
0
  5
2CE2C
 10
144.661
 20
185.354
 30
0.000000
  70
    32
  0
VERTEX
  8
0
  5
2CE2D
 10
144.735
 20
185.528
 30
0.000000
  70
    32
  0
VERTEX
  8
0
  5
2CE2E
 10
144.808
 20
185.701
 30
0.000000
  70
    32
  0
VERTEX
  8
0
  5
2CE2F
 10
144.880
 20
185.875
 30
0.000000
  70
    32
  0
VERTEX
  8
0
  5
2CE30
 10
144.951
 20
186.050
 30
0.000000
  70
    32
  0
VERTEX
  8
0
  5
2CE31
 10
145.021
 20
186.224
 30
0.000000
  70
    32
  0
VERTEX
  8
0
  5
2CE32
 10
145.089
 20
186.399
 30
0.000000
  70
    32
  0
VERTEX
  8
0
  5
2CE33
 10
145.157
 20
186.575
 30
0.000000
  70
    32
  0
VERTEX
  8
0
  5
2CE34
 10
145.224
 20
186.751
 30
0.000000
  70
    32
  0
VERTEX
  8
0
  5
2CE35
 10
145.290
 20
186.927
 30
0.000000
  70
    32
  0
VERTEX
  8
0
  5
2CE36
 10
145.355
 20
187.103
 30
0.000000
  70
    32
  0
VERTEX
  8
0
  5
2CE37
 10
145.418
 20
187.280
 30
0.000000
  70
    32
  0
VERTEX
  8
0
  5
2CE38
 10
145.481
 20
187.457
 30
0.000000
  70
    32
  0
VERTEX
  8
0
  5
2CE39
 10
145.542
 20
187.634
 30
0.000000
  70
    32
  0
VERTEX
  8
0
  5
2CE3A
 10
145.603
 20
187.812
 30
0.000000
  70
    32
  0
VERTEX
  8
0
  5
2CE3B
 10
145.662
 20
187.990
 30
0.000000
  70
    32
  0
VERTEX
  8
0
  5
2CE3C
 10
145.721
 20
188.168
 30
0.000000
  70
    32
  0
VERTEX
  8
0
  5
2CE3D
 10
145.778
 20
188.347
 30
0.000000
  70
    32
  0
VERTEX
  8
0
  5
2CE3E
 10
145.834
 20
188.526
 30
0.000000
  70
    32
  0
VERTEX
  8
0
  5
2CE3F
 10
145.889
 20
188.705
 30
0.000000
  70
    32
  0
VERTEX
  8
0
  5
2CE40
 10
145.944
 20
188.885
 30
0.000000
  70
    32
  0
VERTEX
  8
0
  5
2CE41
 10
145.997
 20
189.064
 30
0.000000
  70
    32
  0
VERTEX
  8
0
  5
2CE42
 10
146.049
 20
189.244
 30
0.000000
  70
    32
  0
VERTEX
  8
0
  5
2CE43
 10
146.100
 20
189.425
 30
0.000000
  70
    32
  0
VERTEX
  8
0
  5
2CE44
 10
146.149
 20
189.605
 30
0.000000
  70
    32
  0
VERTEX
  8
0
  5
2CE45
 10
146.198
 20
189.786
 30
0.000000
  70
    32
  0
VERTEX
  8
0
  5
2CE46
 10
146.246
 20
189.967
 30
0.000000
  70
    32
  0
VERTEX
  8
0
  5
2CE47
 10
146.292
 20
190.148
 30
0.000000
  70
    32
  0
VERTEX
  8
0
  5
2CE48
 10
146.338
 20
190.330
 30
0.000000
  70
    32
  0
VERTEX
  8
0
  5
2CE49
 10
146.382
 20
190.512
 30
0.000000
  70
    32
  0
VERTEX
  8
0
  5
2CE4A
 10
146.426
 20
190.694
 30
0.000000
  70
    32
  0
VERTEX
  8
0
  5
2CE4B
 10
146.468
 20
190.876
 30
0.000000
  70
    32
  0
VERTEX
  8
0
  5
2CE4C
 10
146.509
 20
191.058
 30
0.000000
  70
    32
  0
VERTEX
  8
0
  5
2CE4D
 10
146.550
 20
191.241
 30
0.000000
  70
    32
  0
VERTEX
  8
0
  5
2CE4E
 10
146.589
 20
191.424
 30
0.000000
  70
    32
  0
VERTEX
  8
0
  5
2CE4F
 10
146.627
 20
191.607
 30
0.000000
  70
    32
  0
VERTEX
  8
0
  5
2CE50
 10
146.663
 20
191.790
 30
0.000000
  70
    32
  0
VERTEX
  8
0
  5
2CE51
 10
146.699
 20
191.973
 30
0.000000
  70
    32
  0
VERTEX
  8
0
  5
2CE52
 10
146.734
 20
192.157
 30
0.000000
  70
    32
  0
VERTEX
  8
0
  5
2CE53
 10
146.768
 20
192.340
 30
0.000000
  70
    32
  0
VERTEX
  8
0
  5
2CE54
 10
146.800
 20
192.524
 30
0.000000
  70
    32
  0
VERTEX
  8
0
  5
2CE55
 10
146.831
 20
192.708
 30
0.000000
  70
    32
  0
VERTEX
  8
0
  5
2CE56
 10
146.862
 20
192.893
 30
0.000000
  70
    32
  0
VERTEX
  8
0
  5
2CE57
 10
146.891
 20
193.077
 30
0.000000
  70
    32
  0
VERTEX
  8
0
  5
2CE58
 10
146.919
 20
193.262
 30
0.000000
  70
    32
  0
VERTEX
  8
0
  5
2CE59
 10
146.946
 20
193.446
 30
0.000000
  70
    32
  0
VERTEX
  8
0
  5
2CE5A
 10
146.972
 20
193.631
 30
0.000000
  70
    32
  0
VERTEX
  8
0
  5
2CE5B
 10
146.997
 20
193.816
 30
0.000000
  70
    32
  0
VERTEX
  8
0
  5
2CE5C
 10
147.021
 20
194.001
 30
0.000000
  70
    32
  0
VERTEX
  8
0
  5
2CE5D
 10
147.043
 20
194.186
 30
0.000000
  70
    32
  0
VERTEX
  8
0
  5
2CE5E
 10
147.065
 20
194.371
 30
0.000000
  70
    32
  0
VERTEX
  8
0
  5
2CE5F
 10
147.085
 20
194.557
 30
0.000000
  70
    32
  0
VERTEX
  8
0
  5
2CE60
 10
147.105
 20
194.742
 30
0.000000
  70
    32
  0
VERTEX
  8
0
  5
2CE61
 10
147.123
 20
194.928
 30
0.000000
  70
    32
  0
VERTEX
  8
0
  5
2CE62
 10
147.140
 20
195.114
 30
0.000000
  70
    32
  0
VERTEX
  8
0
  5
2CE63
 10
147.156
 20
195.299
 30
0.000000
  70
    32
  0
VERTEX
  8
0
  5
2CE64
 10
147.171
 20
195.485
 30
0.000000
  70
    32
  0
VERTEX
  8
0
  5
2CE65
 10
147.185
 20
195.671
 30
0.000000
  70
    32
  0
VERTEX
  8
0
  5
2CE66
 10
147.198
 20
195.857
 30
0.000000
  70
    32
  0
VERTEX
  8
0
  5
2CE67
 10
147.209
 20
196.043
 30
0.000000
  70
    32
  0
VERTEX
  8
0
  5
2CE68
 10
147.220
 20
196.229
 30
0.000000
  70
    32
  0
VERTEX
  8
0
  5
2CE69
 10
147.229
 20
196.415
 30
0.000000
  70
    32
  0
VERTEX
  8
0
  5
2CE6A
 10
147.237
 20
196.602
 30
0.000000
  70
    32
  0
VERTEX
  8
0
  5
2CE6B
 10
147.245
 20
196.788
 30
0.000000
  70
    32
  0
VERTEX
  8
0
  5
2CE6C
 10
147.251
 20
196.974
 30
0.000000
  70
    32
  0
VERTEX
  8
0
  5
2CE6D
 10
147.256
 20
197.160
 30
0.000000
  70
    32
  0
VERTEX
  8
0
  5
2CE6E
 10
147.260
 20
197.347
 30
0.000000
  70
    32
  0
VERTEX
  8
0
  5
2CE6F
 10
147.262
 20
197.533
 30
0.000000
  70
    32
  0
VERTEX
  8
0
  5
2CE70
 10
147.264
 20
197.719
 30
0.000000
  70
    32
  0
VERTEX
  8
0
  5
2CE71
 10
147.265
 20
197.906
 30
0.000000
  70
    32
  0
SEQEND
  8
0
  5
2CE72
  0
POLYLINE
  5
2CA1D
  8
0
 10
134.76295411763371
 20
172.41024549020358
 30
0.0
 66
     1
 70
     8
  0
VERTEX
  8
0
  5
2CE73
 10
134.763
 20
172.410
 30
0.000000
  70
    32
  0
VERTEX
  8
0
  5
2CE74
 10
134.773
 20
172.418
 30
0.000000
  70
    32
  0
VERTEX
  8
0
  5
2CE75
 10
134.783
 20
172.427
 30
0.000000
  70
    32
  0
VERTEX
  8
0
  5
2CE76
 10
134.793
 20
172.435
 30
0.000000
  70
    32
  0
VERTEX
  8
0
  5
2CE77
 10
134.803
 20
172.443
 30
0.000000
  70
    32
  0
VERTEX
  8
0
  5
2CE78
 10
134.813
 20
172.451
 30
0.000000
  70
    32
  0
VERTEX
  8
0
  5
2CE79
 10
134.824
 20
172.459
 30
0.000000
  70
    32
  0
VERTEX
  8
0
  5
2CE7A
 10
134.834
 20
172.468
 30
0.000000
  70
    32
  0
VERTEX
  8
0
  5
2CE7B
 10
134.844
 20
172.476
 30
0.000000
  70
    32
  0
VERTEX
  8
0
  5
2CE7C
 10
134.854
 20
172.484
 30
0.000000
  70
    32
  0
VERTEX
  8
0
  5
2CE7D
 10
134.864
 20
172.492
 30
0.000000
  70
    32
  0
VERTEX
  8
0
  5
2CE7E
 10
134.874
 20
172.500
 30
0.000000
  70
    32
  0
VERTEX
  8
0
  5
2CE7F
 10
134.884
 20
172.509
 30
0.000000
  70
    32
  0
VERTEX
  8
0
  5
2CE80
 10
134.894
 20
172.517
 30
0.000000
  70
    32
  0
VERTEX
  8
0
  5
2CE81
 10
134.904
 20
172.525
 30
0.000000
  70
    32
  0
VERTEX
  8
0
  5
2CE82
 10
134.914
 20
172.533
 30
0.000000
  70
    32
  0
VERTEX
  8
0
  5
2CE83
 10
134.924
 20
172.542
 30
0.000000
  70
    32
  0
VERTEX
  8
0
  5
2CE84
 10
134.934
 20
172.550
 30
0.000000
  70
    32
  0
VERTEX
  8
0
  5
2CE85
 10
134.944
 20
172.558
 30
0.000000
  70
    32
  0
VERTEX
  8
0
  5
2CE86
 10
134.955
 20
172.566
 30
0.000000
  70
    32
  0
VERTEX
  8
0
  5
2CE87
 10
134.965
 20
172.575
 30
0.000000
  70
    32
  0
VERTEX
  8
0
  5
2CE88
 10
134.975
 20
172.583
 30
0.000000
  70
    32
  0
VERTEX
  8
0
  5
2CE89
 10
134.985
 20
172.591
 30
0.000000
  70
    32
  0
VERTEX
  8
0
  5
2CE8A
 10
134.995
 20
172.599
 30
0.000000
  70
    32
  0
VERTEX
  8
0
  5
2CE8B
 10
135.005
 20
172.608
 30
0.000000
  70
    32
  0
VERTEX
  8
0
  5
2CE8C
 10
135.015
 20
172.616
 30
0.000000
  70
    32
  0
VERTEX
  8
0
  5
2CE8D
 10
135.025
 20
172.624
 30
0.000000
  70
    32
  0
VERTEX
  8
0
  5
2CE8E
 10
135.035
 20
172.632
 30
0.000000
  70
    32
  0
VERTEX
  8
0
  5
2CE8F
 10
135.045
 20
172.641
 30
0.000000
  70
    32
  0
VERTEX
  8
0
  5
2CE90
 10
135.055
 20
172.649
 30
0.000000
  70
    32
  0
VERTEX
  8
0
  5
2CE91
 10
135.065
 20
172.657
 30
0.000000
  70
    32
  0
VERTEX
  8
0
  5
2CE92
 10
135.075
 20
172.666
 30
0.000000
  70
    32
  0
VERTEX
  8
0
  5
2CE93
 10
135.085
 20
172.674
 30
0.000000
  70
    32
  0
VERTEX
  8
0
  5
2CE94
 10
135.095
 20
172.682
 30
0.000000
  70
    32
  0
VERTEX
  8
0
  5
2CE95
 10
135.105
 20
172.690
 30
0.000000
  70
    32
  0
VERTEX
  8
0
  5
2CE96
 10
135.115
 20
172.699
 30
0.000000
  70
    32
  0
VERTEX
  8
0
  5
2CE97
 10
135.125
 20
172.707
 30
0.000000
  70
    32
  0
VERTEX
  8
0
  5
2CE98
 10
135.135
 20
172.715
 30
0.000000
  70
    32
  0
VERTEX
  8
0
  5
2CE99
 10
135.145
 20
172.724
 30
0.000000
  70
    32
  0
VERTEX
  8
0
  5
2CE9A
 10
135.155
 20
172.732
 30
0.000000
  70
    32
  0
VERTEX
  8
0
  5
2CE9B
 10
135.165
 20
172.740
 30
0.000000
  70
    32
  0
VERTEX
  8
0
  5
2CE9C
 10
135.175
 20
172.749
 30
0.000000
  70
    32
  0
VERTEX
  8
0
  5
2CE9D
 10
135.185
 20
172.757
 30
0.000000
  70
    32
  0
VERTEX
  8
0
  5
2CE9E
 10
135.195
 20
172.765
 30
0.000000
  70
    32
  0
VERTEX
  8
0
  5
2CE9F
 10
135.205
 20
172.774
 30
0.000000
  70
    32
  0
VERTEX
  8
0
  5
2CEA0
 10
135.215
 20
172.782
 30
0.000000
  70
    32
  0
VERTEX
  8
0
  5
2CEA1
 10
135.225
 20
172.790
 30
0.000000
  70
    32
  0
VERTEX
  8
0
  5
2CEA2
 10
135.235
 20
172.799
 30
0.000000
  70
    32
  0
VERTEX
  8
0
  5
2CEA3
 10
135.245
 20
172.807
 30
0.000000
  70
    32
  0
VERTEX
  8
0
  5
2CEA4
 10
135.255
 20
172.815
 30
0.000000
  70
    32
  0
VERTEX
  8
0
  5
2CEA5
 10
135.265
 20
172.824
 30
0.000000
  70
    32
  0
VERTEX
  8
0
  5
2CEA6
 10
135.274
 20
172.832
 30
0.000000
  70
    32
  0
VERTEX
  8
0
  5
2CEA7
 10
135.284
 20
172.840
 30
0.000000
  70
    32
  0
VERTEX
  8
0
  5
2CEA8
 10
135.294
 20
172.849
 30
0.000000
  70
    32
  0
VERTEX
  8
0
  5
2CEA9
 10
135.304
 20
172.857
 30
0.000000
  70
    32
  0
VERTEX
  8
0
  5
2CEAA
 10
135.314
 20
172.865
 30
0.000000
  70
    32
  0
VERTEX
  8
0
  5
2CEAB
 10
135.324
 20
172.874
 30
0.000000
  70
    32
  0
VERTEX
  8
0
  5
2CEAC
 10
135.334
 20
172.882
 30
0.000000
  70
    32
  0
VERTEX
  8
0
  5
2CEAD
 10
135.344
 20
172.891
 30
0.000000
  70
    32
  0
VERTEX
  8
0
  5
2CEAE
 10
135.354
 20
172.899
 30
0.000000
  70
    32
  0
VERTEX
  8
0
  5
2CEAF
 10
135.364
 20
172.907
 30
0.000000
  70
    32
  0
VERTEX
  8
0
  5
2CEB0
 10
135.374
 20
172.916
 30
0.000000
  70
    32
  0
VERTEX
  8
0
  5
2CEB1
 10
135.384
 20
172.924
 30
0.000000
  70
    32
  0
VERTEX
  8
0
  5
2CEB2
 10
135.394
 20
172.932
 30
0.000000
  70
    32
  0
VERTEX
  8
0
  5
2CEB3
 10
135.404
 20
172.941
 30
0.000000
  70
    32
  0
VERTEX
  8
0
  5
2CEB4
 10
135.413
 20
172.949
 30
0.000000
  70
    32
  0
VERTEX
  8
0
  5
2CEB5
 10
135.423
 20
172.958
 30
0.000000
  70
    32
  0
VERTEX
  8
0
  5
2CEB6
 10
135.433
 20
172.966
 30
0.000000
  70
    32
  0
VERTEX
  8
0
  5
2CEB7
 10
135.443
 20
172.975
 30
0.000000
  70
    32
  0
VERTEX
  8
0
  5
2CEB8
 10
135.453
 20
172.983
 30
0.000000
  70
    32
  0
VERTEX
  8
0
  5
2CEB9
 10
135.463
 20
172.991
 30
0.000000
  70
    32
  0
VERTEX
  8
0
  5
2CEBA
 10
135.473
 20
173.000
 30
0.000000
  70
    32
  0
VERTEX
  8
0
  5
2CEBB
 10
135.483
 20
173.008
 30
0.000000
  70
    32
  0
VERTEX
  8
0
  5
2CEBC
 10
135.493
 20
173.017
 30
0.000000
  70
    32
  0
VERTEX
  8
0
  5
2CEBD
 10
135.502
 20
173.025
 30
0.000000
  70
    32
  0
VERTEX
  8
0
  5
2CEBE
 10
135.512
 20
173.033
 30
0.000000
  70
    32
  0
VERTEX
  8
0
  5
2CEBF
 10
135.522
 20
173.042
 30
0.000000
  70
    32
  0
VERTEX
  8
0
  5
2CEC0
 10
135.532
 20
173.050
 30
0.000000
  70
    32
  0
VERTEX
  8
0
  5
2CEC1
 10
135.542
 20
173.059
 30
0.000000
  70
    32
  0
VERTEX
  8
0
  5
2CEC2
 10
135.552
 20
173.067
 30
0.000000
  70
    32
  0
VERTEX
  8
0
  5
2CEC3
 10
135.562
 20
173.076
 30
0.000000
  70
    32
  0
VERTEX
  8
0
  5
2CEC4
 10
135.571
 20
173.084
 30
0.000000
  70
    32
  0
VERTEX
  8
0
  5
2CEC5
 10
135.581
 20
173.093
 30
0.000000
  70
    32
  0
VERTEX
  8
0
  5
2CEC6
 10
135.591
 20
173.101
 30
0.000000
  70
    32
  0
VERTEX
  8
0
  5
2CEC7
 10
135.601
 20
173.110
 30
0.000000
  70
    32
  0
VERTEX
  8
0
  5
2CEC8
 10
135.611
 20
173.118
 30
0.000000
  70
    32
  0
VERTEX
  8
0
  5
2CEC9
 10
135.621
 20
173.127
 30
0.000000
  70
    32
  0
VERTEX
  8
0
  5
2CECA
 10
135.630
 20
173.135
 30
0.000000
  70
    32
  0
VERTEX
  8
0
  5
2CECB
 10
135.640
 20
173.143
 30
0.000000
  70
    32
  0
VERTEX
  8
0
  5
2CECC
 10
135.650
 20
173.152
 30
0.000000
  70
    32
  0
VERTEX
  8
0
  5
2CECD
 10
135.660
 20
173.160
 30
0.000000
  70
    32
  0
VERTEX
  8
0
  5
2CECE
 10
135.670
 20
173.169
 30
0.000000
  70
    32
  0
VERTEX
  8
0
  5
2CECF
 10
135.679
 20
173.177
 30
0.000000
  70
    32
  0
VERTEX
  8
0
  5
2CED0
 10
135.689
 20
173.186
 30
0.000000
  70
    32
  0
VERTEX
  8
0
  5
2CED1
 10
135.699
 20
173.194
 30
0.000000
  70
    32
  0
VERTEX
  8
0
  5
2CED2
 10
135.709
 20
173.203
 30
0.000000
  70
    32
  0
VERTEX
  8
0
  5
2CED3
 10
135.719
 20
173.211
 30
0.000000
  70
    32
  0
VERTEX
  8
0
  5
2CED4
 10
135.728
 20
173.220
 30
0.000000
  70
    32
  0
VERTEX
  8
0
  5
2CED5
 10
135.738
 20
173.228
 30
0.000000
  70
    32
  0
VERTEX
  8
0
  5
2CED6
 10
135.748
 20
173.237
 30
0.000000
  70
    32
  0
VERTEX
  8
0
  5
2CED7
 10
135.758
 20
173.245
 30
0.000000
  70
    32
  0
VERTEX
  8
0
  5
2CED8
 10
135.768
 20
173.254
 30
0.000000
  70
    32
  0
VERTEX
  8
0
  5
2CED9
 10
135.777
 20
173.263
 30
0.000000
  70
    32
  0
VERTEX
  8
0
  5
2CEDA
 10
135.787
 20
173.271
 30
0.000000
  70
    32
  0
VERTEX
  8
0
  5
2CEDB
 10
135.797
 20
173.280
 30
0.000000
  70
    32
  0
VERTEX
  8
0
  5
2CEDC
 10
135.807
 20
173.288
 30
0.000000
  70
    32
  0
VERTEX
  8
0
  5
2CEDD
 10
135.816
 20
173.297
 30
0.000000
  70
    32
  0
VERTEX
  8
0
  5
2CEDE
 10
135.826
 20
173.305
 30
0.000000
  70
    32
  0
VERTEX
  8
0
  5
2CEDF
 10
135.836
 20
173.314
 30
0.000000
  70
    32
  0
VERTEX
  8
0
  5
2CEE0
 10
135.846
 20
173.322
 30
0.000000
  70
    32
  0
VERTEX
  8
0
  5
2CEE1
 10
135.856
 20
173.331
 30
0.000000
  70
    32
  0
VERTEX
  8
0
  5
2CEE2
 10
135.865
 20
173.339
 30
0.000000
  70
    32
  0
VERTEX
  8
0
  5
2CEE3
 10
135.875
 20
173.348
 30
0.000000
  70
    32
  0
VERTEX
  8
0
  5
2CEE4
 10
135.885
 20
173.357
 30
0.000000
  70
    32
  0
VERTEX
  8
0
  5
2CEE5
 10
135.894
 20
173.365
 30
0.000000
  70
    32
  0
VERTEX
  8
0
  5
2CEE6
 10
135.904
 20
173.374
 30
0.000000
  70
    32
  0
VERTEX
  8
0
  5
2CEE7
 10
135.914
 20
173.382
 30
0.000000
  70
    32
  0
VERTEX
  8
0
  5
2CEE8
 10
135.924
 20
173.391
 30
0.000000
  70
    32
  0
VERTEX
  8
0
  5
2CEE9
 10
135.933
 20
173.399
 30
0.000000
  70
    32
  0
VERTEX
  8
0
  5
2CEEA
 10
135.943
 20
173.408
 30
0.000000
  70
    32
  0
VERTEX
  8
0
  5
2CEEB
 10
135.953
 20
173.417
 30
0.000000
  70
    32
  0
VERTEX
  8
0
  5
2CEEC
 10
135.963
 20
173.425
 30
0.000000
  70
    32
  0
VERTEX
  8
0
  5
2CEED
 10
135.972
 20
173.434
 30
0.000000
  70
    32
  0
VERTEX
  8
0
  5
2CEEE
 10
135.982
 20
173.442
 30
0.000000
  70
    32
  0
VERTEX
  8
0
  5
2CEEF
 10
135.992
 20
173.451
 30
0.000000
  70
    32
  0
VERTEX
  8
0
  5
2CEF0
 10
136.001
 20
173.460
 30
0.000000
  70
    32
  0
VERTEX
  8
0
  5
2CEF1
 10
136.011
 20
173.468
 30
0.000000
  70
    32
  0
VERTEX
  8
0
  5
2CEF2
 10
136.021
 20
173.477
 30
0.000000
  70
    32
  0
VERTEX
  8
0
  5
2CEF3
 10
136.030
 20
173.485
 30
0.000000
  70
    32
  0
SEQEND
  8
0
  5
2CEF4
  0
LINE
  5
2CA1E
  8
0
 10
134.7629541176334
 20
172.41024549020341
 30
0.0
 11
133.26458802272819
 21
171.43172152557599
 31
0.0
  0
LINE
  5
2CA1F
  8
0
 10
88.264588022728276
 20
171.43172152557599
 30
0.0
 11
86.766221927823366
 21
172.41024549020341
 31
0.0
  0
LINE
  5
2CA20
  8
0
 10
74.264588022728276
 20
235.74368873142009
 30
0.0
 11
147.2645880227283
 21
235.74368873142009
 31
0.0
  0
LINE
  5
2CA21
  8
0
 10
83.024007732143673
 20
179.74368873142009
 30
0.0
 11
82.764588022728276
 21
182.87285539808681
 31
0.0
  0
POLYLINE
  5
2CA22
  8
0
 66
     1
 10
0.0
 20
0.0
 30
0.0
 70
   128
  0
VERTEX
  5
2CCA9
  8
0
 10
82.764588022728276
 20
176.61452206475349
 30
0.0
  0
VERTEX
  5
2CCAA
  8
0
 10
82.892272743118383
 20
178.76944531652919
 30
0.0
  0
VERTEX
  5
2CCAB
  8
0
 10
83.024007732143673
 20
179.74368873142009
 30
0.0
  0
SEQEND
  5
2CCAC
  8
0
  0
POLYLINE
  5
2CA24
  8
0
 66
     1
 10
0.0
 20
0.0
 30
0.0
 70
   128
  0
VERTEX
  5
2CCAD
  8
0
 10
88.005168313313106
 20
186.00202206475339
 30
0.0
  0
VERTEX
  5
2CCAE
  8
0
 10
88.263483497257525
 20
183.06960239778689
 30
0.0
  0
VERTEX
  5
2CCAF
  8
0
 10
88.264588022728276
 20
182.87285539808681
 30
0.0
  0
SEQEND
  5
2CCB0
  8
0
  0
LINE
  5
2CA25
  8
0
 10
88.264588022728276
 20
182.87285539808681
 30
0.0
 11
88.005168313313106
 21
179.74368873142009
 31
0.0
  0
LINE
  5
2CA26
  8
0
 10
83.024007732143673
 20
179.74368873142009
 30
0.0
 11
88.005168313313106
 21
179.74368873142009
 31
0.0
  0
POLYLINE
  5
2CA27
  8
0
 66
     1
 10
0.0
 20
0.0
 30
0.0
 70
   128
  0
VERTEX
  5
2CCB1
  8
0
 10
82.764588022728276
 20
182.87285539808681
 30
0.0
  0
VERTEX
  5
2CCB2
  8
0
 10
82.765692548199226
 20
183.06960239778689
 30
0.0
  0
VERTEX
  5
2CCB3
  8
0
 10
83.024007732143673
 20
186.00202206475339
 30
0.0
  0
SEQEND
  5
2CCB4
  8
0
  0
LINE
  5
2CA28
  8
0
 10
82.764588022728276
 20
186.00202206475339
 30
0.0
 11
88.264588022728503
 21
186.00202206475339
 31
0.0
  0
POLYLINE
  5
2CA29
  8
0
 66
     1
 10
0.0
 20
0.0
 30
0.0
 70
   128
  0
VERTEX
  5
2CCB5
  8
0
 10
88.005168313313106
 20
179.74368873142009
 30
0.0
  0
VERTEX
  5
2CCB6
  8
0
 10
88.136903302338396
 20
178.76944531652919
 30
0.0
  0
VERTEX
  5
2CCB7
  8
0
 10
88.264588022728276
 20
176.61452206475349
 30
0.0
  0
SEQEND
  5
2CCB8
  8
0
  0
LINE
  5
2CA2A
  8
0
 10
88.264588022728276
 20
176.61452206475349
 30
0.0
 11
88.005168313313106
 21
173.4853553980868
 31
0.0
  0
LINE
  5
2CA2B
  8
0
 10
82.764588022728276
 20
173.4853553980868
 30
0.0
 11
88.264588022728503
 21
173.4853553980868
 31
0.0
  0
LINE
  5
2CA2C
  8
0
 10
83.024007732143673
 20
173.4853553980868
 30
0.0
 11
82.764588022728276
 21
176.61452206475349
 31
0.0
  0
POLYLINE
  5
2CA2D
  8
0
 66
     1
 10
0.0
 20
0.0
 30
0.0
 70
   128
  0
VERTEX
  5
2CCB9
  8
0
 10
138.30516831331281
 20
179.74368873142009
 30
0.0
  0
VERTEX
  5
2CCBA
  8
0
 10
138.4369033023381
 20
178.7694453165293
 30
0.0
  0
VERTEX
  5
2CCBB
  8
0
 10
138.5645880227284
 20
176.61452206475349
 30
0.0
  0
SEQEND
  5
2CCBC
  8
0
  0
LINE
  5
2CA2E
  8
0
 10
138.5645880227284
 20
176.61452206475349
 30
0.0
 11
138.30516831331281
 21
173.4853553980868
 31
0.0
  0
LINE
  5
2CA2F
  8
0
 10
133.86458802272841
 20
173.4853553980868
 30
0.0
 11
138.5645880227284
 21
173.4853553980868
 31
0.0
  0
LINE
  5
2CA30
  8
0
 10
134.12400773214401
 20
173.4853553980868
 30
0.0
 11
133.86458802272841
 21
176.61452206475349
 31
0.0
  0
POLYLINE
  5
2CA31
  8
0
 66
     1
 10
0.0
 20
0.0
 30
0.0
 70
   128
  0
VERTEX
  5
2CCBD
  8
0
 10
133.86458802272841
 20
176.61452206475349
 30
0.0
  0
VERTEX
  5
2CCBE
  8
0
 10
133.99227274311849
 20
178.7694453165293
 30
0.0
  0
VERTEX
  5
2CCBF
  8
0
 10
134.12400773214401
 20
179.74368873142009
 30
0.0
  0
SEQEND
  5
2CCC0
  8
0
  0
LINE
  5
2CA32
  8
0
 10
134.12400773214401
 20
179.74368873142009
 30
0.0
 11
138.30516831331281
 21
179.74368873142009
 31
0.0
  0
LINE
  5
2CA33
  8
0
 10
134.12400773214401
 20
179.74368873142009
 30
0.0
 11
133.86458802272841
 21
182.87285539808681
 31
0.0
  0
POLYLINE
  5
2CA35
  8
0
 66
     1
 10
0.0
 20
0.0
 30
0.0
 70
   128
  0
VERTEX
  5
2CCC1
  8
0
 10
138.30516831331281
 20
186.00202206475339
 30
0.0
  0
VERTEX
  5
2CCC2
  8
0
 10
138.56348349725749
 20
183.06960239778689
 30
0.0
  0
VERTEX
  5
2CCC3
  8
0
 10
138.5645880227284
 20
182.87285539808681
 30
0.0
  0
SEQEND
  5
2CCC4
  8
0
  0
LINE
  5
2CA36
  8
0
 10
138.5645880227284
 20
182.87285539808681
 30
0.0
 11
138.30516831331281
 21
179.74368873142009
 31
0.0
  0
POLYLINE
  5
2CA37
  8
0
 66
     1
 10
0.0
 20
0.0
 30
0.0
 70
   128
  0
VERTEX
  5
2CCC5
  8
0
 10
133.86458802272841
 20
182.87285539808681
 30
0.0
  0
VERTEX
  5
2CCC6
  8
0
 10
133.86569254819909
 20
183.06960239778689
 30
0.0
  0
VERTEX
  5
2CCC7
  8
0
 10
134.12400773214401
 20
186.00202206475339
 30
0.0
  0
SEQEND
  5
2CCC8
  8
0
  0
LINE
  5
2CA38
  8
0
 10
133.86458802272841
 20
186.00202206475339
 30
0.0
 11
138.5645880227284
 21
186.00202206475339
 31
0.0
  0
LINE
  5
2CA3A
  8
0
 10
80.264588022728276
 20
185.5586887314202
 30
0.0
 11
80.264588022728276
 21
173.92868873142021
 31
0.0
  0
LINE
  5
2CA3E
  8
0
 10
82.764588022728276
 20
186.00202206475339
 30
0.0
 11
82.764588022728276
 21
173.4853553980868
 31
0.0
  0
LINE
  5
2CA42
  8
0
 10
133.86458802272841
 20
186.00202206475339
 30
0.0
 11
133.86458802272841
 21
173.4853553980868
 31
0.0
  0
LINE
  5
2CA48
  8
0
 10
138.5645880227284
 20
186.00202206475339
 30
0.0
 11
138.5645880227284
 21
173.4853553980868
 31
0.0
  0
LINE
  5
2CA49
  8
0
 10
78.264588022728276
 20
182.97668873142021
 30
0.0
 11
78.264588022728276
 21
176.51068873142009
 31
0.0
  0
LINE
  5
2CA4A
  8
0
 10
79.031588022728329
 20
183.74368873142009
 30
0.0
 11
79.031588022728329
 21
175.74368873142009
 31
0.0
  0
LINE
  5
2CA4B
  8
0
 10
98.264588022728276
 20
214.4310966868301
 30
0.0
 11
98.264588022728276
 21
144.74368873142009
 31
0.0
  0
LINE
  5
2CA4C
  8
0
 10
123.2645880227283
 20
214.4310966868301
 30
0.0
 11
123.2645880227283
 21
144.74368873142021
 31
0.0
  0
LINE
  5
2CA4D
  8
0
 10
95.764588022728276
 20
196.6126692832126
 30
0.0
 11
95.764588022728276
 21
162.8747081796275
 31
0.0
  0
LINE
  5
2CA4E
  8
0
 10
125.7645880227282
 20
162.8747081796275
 30
0.0
 11
125.7645880227282
 21
196.6126692832126
 31
0.0
  0
LINE
  5
2CA51
  8
0
 10
101.5226514548315
 20
214.43109668683019
 30
0.0
 11
101.52265145483121
 21
139.74368873142009
 31
0.0
  0
LINE
  5
2CA52
  8
0
 10
120.0065245906253
 20
214.43109668683019
 30
0.0
 11
120.0065245906253
 21
139.74368873142009
 31
0.0
  0
LINE
  5
2CA54
  8
0
 10
396.63637808470497
 20
243.4436887314202
 30
0.0
 11
397.99409583616028
 21
235.74368873142009
 31
0.0
  0
LINE
  5
2CA55
  8
0
 10
468.2786603332496
 20
235.74368873142009
 30
0.0
 11
469.63637808470492
 21
243.4436887314202
 31
0.0
  0
LINE
  5
2CA56
  8
0
 10
396.63637808470497
 20
235.74368873142009
 30
0.0
 11
396.63637808470497
 21
197.9058382627465
 31
0.0
  0
LINE
  5
2CA57
  8
0
 10
469.63637808470492
 20
197.90583826274619
 30
0.0
 11
469.63637808470492
 21
235.74368873142009
 31
0.0
  0
LINE
  5
2CA58
  8
0
 10
400.28637808470512
 20
244.24368873142009
 30
0.0
 11
400.28637808470512
 21
243.4436887314202
 31
0.0
  0
LINE
  5
2CA59
  8
0
 10
465.98637808470488
 20
243.4436887314202
 30
0.0
 11
465.98637808470488
 21
244.24368873142009
 31
0.0
  0
LINE
  5
2CA5A
  8
0
 10
413.13637808470497
 20
173.74368873142009
 30
0.0
 11
418.13637808470497
 21
173.74368873142009
 31
0.0
  0
LINE
  5
2CA5B
  8
0
 10
448.13637808470497
 20
173.74368873142009
 30
0.0
 11
453.13637808470497
 21
173.74368873142009
 31
0.0
  0
LINE
  5
2CA5C
  8
0
 10
453.13637808470497
 20
185.74368873142009
 30
0.0
 11
448.13637808470497
 21
185.74368873142009
 31
0.0
  0
LINE
  5
2CA5D
  8
0
 10
418.13637808470497
 20
185.74368873142009
 30
0.0
 11
413.13637808470497
 21
185.74368873142009
 31
0.0
  0
LINE
  5
2CA5E
  8
0
 10
461.13637808470497
 20
173.92868873142021
 30
0.0
 11
463.63637808470497
 21
173.92868873142021
 31
0.0
  0
LINE
  5
2CA5F
  8
0
 10
464.8693780847052
 20
175.74368873142009
 30
0.0
 11
465.63637808470497
 21
176.51068873142009
 31
0.0
  0
LINE
  5
2CA60
  8
0
 10
463.63637808470497
 20
175.74368873142009
 30
0.0
 11
464.8693780847052
 21
175.74368873142009
 31
0.0
  0
ARC
  5
2CA61
  8
0
 10
442.378314652602
 20
142.2436887314206
 30
0.0
 40
2.500000000000397
 50
270.0
 51
345.00000000000108
  0
ARC
  5
2CA62
  8
0
 10
442.378314652602
 20
217.24368873141981
 30
0.0
 40
2.500000000000397
 50
15.000000000000959
 51
90.0
  0
LINE
  5
2CA63
  8
0
 10
423.894441516808
 20
139.74368873142009
 30
0.0
 11
442.378314652602
 21
139.74368873142009
 31
0.0
  0
LINE
  5
2CA64
  8
0
 10
442.378314652602
 20
219.74368873142009
 30
0.0
 11
423.894441516808
 21
219.74368873142009
 31
0.0
  0
ARC
  5
2CA65
  8
0
 10
423.894441516808
 20
142.2436887314206
 30
0.0
 40
2.500000000000397
 50
195.00000000000091
 51
270.0
  0
ARC
  5
2CA66
  8
0
 10
423.894441516808
 20
217.24368873141981
 30
0.0
 40
2.5000000000003642
 50
90.0
 51
165.00000000000111
  0
LINE
  5
2CA67
  8
0
 10
444.79312921832519
 20
141.59664111866419
 30
0.0
 11
445.63637808470497
 21
144.74368873142009
 31
0.0
  0
LINE
  5
2CA68
  8
0
 10
445.63637808470497
 20
214.74368873142009
 30
0.0
 11
444.79312921832519
 21
217.89073634417619
 31
0.0
  0
LINE
  5
2CA69
  8
0
 10
421.47962695108521
 20
217.89073634417619
 30
0.0
 11
420.63637808470497
 21
214.74368873142009
 31
0.0
  0
LINE
  5
2CA6A
  8
0
 10
420.63637808470497
 20
144.74368873142009
 30
0.0
 11
421.47962695108521
 21
141.59664111866419
 31
0.0
  0
LINE
  5
2CA6B
  8
0
 10
420.63637808470497
 20
196.74368873142021
 30
0.0
 11
418.13637808470497
 21
196.6126692832126
 31
0.0
  0
LINE
  5
2CA6C
  8
0
 10
418.13637808470497
 20
162.8747081796275
 30
0.0
 11
420.63637808470497
 21
162.74368873142001
 31
0.0
  0
LINE
  5
2CA6D
  8
0
 10
445.63637808470497
 20
162.74368873142009
 30
0.0
 11
448.13637808470497
 21
162.8747081796275
 31
0.0
  0
LINE
  5
2CA6E
  8
0
 10
448.13637808470497
 20
196.6126692832126
 30
0.0
 11
445.63637808470497
 21
196.74368873142021
 31
0.0
  0
LINE
  5
2CA6F
  8
0
 10
475.63637808470497
 20
244.24368873142009
 30
0.0
 11
475.63637808470497
 21
246.74368873142009
 31
0.0
  0
LINE
  5
2CA76
  8
0
 10
390.63637808470497
 20
244.24368873142009
 30
0.0
 11
390.63637808470497
 21
246.74368873142009
 31
0.0
  0
LINE
  5
2CA77
  8
0
 10
390.63637808470497
 20
244.24368873142009
 30
0.0
 11
475.63637808470497
 21
244.24368873142009
 31
0.0
  0
LINE
  5
2CA78
  8
0
 10
390.63637808470497
 20
246.74368873142009
 30
0.0
 11
475.63637808470497
 21
246.74368873142009
 31
0.0
  0
LINE
  5
2CA79
  8
0
 10
396.63637808470497
 20
243.4436887314202
 30
0.0
 11
469.63637808470492
 21
243.4436887314202
 31
0.0
  0
POLYLINE
  5
2CA7A
  8
0
 10
457.13474417961044
 20
172.41024549020361
 30
0.0
 66
     1
 70
     8
  0
VERTEX
  8
0
  5
2CEF5
 10
457.135
 20
172.410
 30
0.000000
  70
    32
  0
VERTEX
  8
0
  5
2CEF6
 10
458.159
 20
173.271
 30
0.000000
  70
    32
  0
VERTEX
  8
0
  5
2CEF7
 10
459.147
 20
174.167
 30
0.000000
  70
    32
  0
VERTEX
  8
0
  5
2CEF8
 10
460.098
 20
175.097
 30
0.000000
  70
    32
  0
VERTEX
  8
0
  5
2CEF9
 10
461.011
 20
176.060
 30
0.000000
  70
    32
  0
VERTEX
  8
0
  5
2CEFA
 10
461.883
 20
177.054
 30
0.000000
  70
    32
  0
VERTEX
  8
0
  5
2CEFB
 10
462.714
 20
178.078
 30
0.000000
  70
    32
  0
VERTEX
  8
0
  5
2CEFC
 10
463.503
 20
179.131
 30
0.000000
  70
    32
  0
VERTEX
  8
0
  5
2CEFD
 10
464.248
 20
180.211
 30
0.000000
  70
    32
  0
VERTEX
  8
0
  5
2CEFE
 10
464.948
 20
181.315
 30
0.000000
  70
    32
  0
VERTEX
  8
0
  5
2CEFF
 10
465.603
 20
182.444
 30
0.000000
  70
    32
  0
VERTEX
  8
0
  5
2CF00
 10
466.211
 20
183.595
 30
0.000000
  70
    32
  0
VERTEX
  8
0
  5
2CF01
 10
466.772
 20
184.766
 30
0.000000
  70
    32
  0
VERTEX
  8
0
  5
2CF02
 10
467.285
 20
185.957
 30
0.000000
  70
    32
  0
VERTEX
  8
0
  5
2CF03
 10
467.748
 20
187.164
 30
0.000000
  70
    32
  0
VERTEX
  8
0
  5
2CF04
 10
468.162
 20
188.387
 30
0.000000
  70
    32
  0
VERTEX
  8
0
  5
2CF05
 10
468.526
 20
189.623
 30
0.000000
  70
    32
  0
VERTEX
  8
0
  5
2CF06
 10
468.839
 20
190.872
 30
0.000000
  70
    32
  0
VERTEX
  8
0
  5
2CF07
 10
469.101
 20
192.130
 30
0.000000
  70
    32
  0
VERTEX
  8
0
  5
2CF08
 10
469.311
 20
193.397
 30
0.000000
  70
    32
  0
VERTEX
  8
0
  5
2CF09
 10
469.469
 20
194.670
 30
0.000000
  70
    32
  0
VERTEX
  8
0
  5
2CF0A
 10
469.575
 20
195.948
 30
0.000000
  70
    32
  0
VERTEX
  8
0
  5
2CF0B
 10
469.629
 20
197.228
 30
0.000000
  70
    32
  0
VERTEX
  8
0
  5
2CF0C
 10
469.631
 20
198.510
 30
0.000000
  70
    32
  0
VERTEX
  8
0
  5
2CF0D
 10
469.580
 20
199.791
 30
0.000000
  70
    32
  0
VERTEX
  8
0
  5
2CF0E
 10
469.477
 20
201.069
 30
0.000000
  70
    32
  0
VERTEX
  8
0
  5
2CF0F
 10
469.321
 20
202.342
 30
0.000000
  70
    32
  0
VERTEX
  8
0
  5
2CF10
 10
469.114
 20
203.609
 30
0.000000
  70
    32
  0
VERTEX
  8
0
  5
2CF11
 10
468.855
 20
204.868
 30
0.000000
  70
    32
  0
VERTEX
  8
0
  5
2CF12
 10
468.545
 20
206.117
 30
0.000000
  70
    32
  0
VERTEX
  8
0
  5
2CF13
 10
468.185
 20
207.354
 30
0.000000
  70
    32
  0
VERTEX
  8
0
  5
2CF14
 10
467.774
 20
208.578
 30
0.000000
  70
    32
  0
VERTEX
  8
0
  5
2CF15
 10
467.313
 20
209.786
 30
0.000000
  70
    32
  0
VERTEX
  8
0
  5
2CF16
 10
466.803
 20
210.977
 30
0.000000
  70
    32
  0
VERTEX
  8
0
  5
2CF17
 10
466.245
 20
212.150
 30
0.000000
  70
    32
  0
VERTEX
  8
0
  5
2CF18
 10
465.639
 20
213.302
 30
0.000000
  70
    32
  0
VERTEX
  8
0
  5
2CF19
 10
464.987
 20
214.432
 30
0.000000
  70
    32
  0
VERTEX
  8
0
  5
2CF1A
 10
464.289
 20
215.538
 30
0.000000
  70
    32
  0
VERTEX
  8
0
  5
2CF1B
 10
463.547
 20
216.619
 30
0.000000
  70
    32
  0
VERTEX
  8
0
  5
2CF1C
 10
462.760
 20
217.673
 30
0.000000
  70
    32
  0
VERTEX
  8
0
  5
2CF1D
 10
461.932
 20
218.699
 30
0.000000
  70
    32
  0
VERTEX
  8
0
  5
2CF1E
 10
461.062
 20
219.695
 30
0.000000
  70
    32
  0
VERTEX
  8
0
  5
2CF1F
 10
460.152
 20
220.660
 30
0.000000
  70
    32
  0
VERTEX
  8
0
  5
2CF20
 10
459.203
 20
221.592
 30
0.000000
  70
    32
  0
VERTEX
  8
0
  5
2CF21
 10
458.217
 20
222.490
 30
0.000000
  70
    32
  0
VERTEX
  8
0
  5
2CF22
 10
457.195
 20
223.353
 30
0.000000
  70
    32
  0
VERTEX
  8
0
  5
2CF23
 10
456.138
 20
224.179
 30
0.000000
  70
    32
  0
VERTEX
  8
0
  5
2CF24
 10
455.048
 20
224.968
 30
0.000000
  70
    32
  0
VERTEX
  8
0
  5
2CF25
 10
453.927
 20
225.718
 30
0.000000
  70
    32
  0
VERTEX
  8
0
  5
2CF26
 10
452.776
 20
226.428
 30
0.000000
  70
    32
  0
VERTEX
  8
0
  5
2CF27
 10
451.597
 20
227.097
 30
0.000000
  70
    32
  0
VERTEX
  8
0
  5
2CF28
 10
450.391
 20
227.724
 30
0.000000
  70
    32
  0
VERTEX
  8
0
  5
2CF29
 10
449.161
 20
228.308
 30
0.000000
  70
    32
  0
VERTEX
  8
0
  5
2CF2A
 10
447.908
 20
228.849
 30
0.000000
  70
    32
  0
VERTEX
  8
0
  5
2CF2B
 10
446.633
 20
229.345
 30
0.000000
  70
    32
  0
VERTEX
  8
0
  5
2CF2C
 10
445.339
 20
229.797
 30
0.000000
  70
    32
  0
VERTEX
  8
0
  5
2CF2D
 10
444.028
 20
230.202
 30
0.000000
  70
    32
  0
VERTEX
  8
0
  5
2CF2E
 10
442.701
 20
230.561
 30
0.000000
  70
    32
  0
VERTEX
  8
0
  5
2CF2F
 10
441.360
 20
230.874
 30
0.000000
  70
    32
  0
VERTEX
  8
0
  5
2CF30
 10
440.008
 20
231.139
 30
0.000000
  70
    32
  0
VERTEX
  8
0
  5
2CF31
 10
438.645
 20
231.356
 30
0.000000
  70
    32
  0
VERTEX
  8
0
  5
2CF32
 10
437.275
 20
231.525
 30
0.000000
  70
    32
  0
VERTEX
  8
0
  5
2CF33
 10
435.899
 20
231.647
 30
0.000000
  70
    32
  0
VERTEX
  8
0
  5
2CF34
 10
434.519
 20
231.719
 30
0.000000
  70
    32
  0
VERTEX
  8
0
  5
2CF35
 10
433.136
 20
231.744
 30
0.000000
  70
    32
  0
VERTEX
  8
0
  5
2CF36
 10
431.754
 20
231.719
 30
0.000000
  70
    32
  0
VERTEX
  8
0
  5
2CF37
 10
430.374
 20
231.647
 30
0.000000
  70
    32
  0
VERTEX
  8
0
  5
2CF38
 10
428.998
 20
231.525
 30
0.000000
  70
    32
  0
VERTEX
  8
0
  5
2CF39
 10
427.628
 20
231.356
 30
0.000000
  70
    32
  0
VERTEX
  8
0
  5
2CF3A
 10
426.265
 20
231.139
 30
0.000000
  70
    32
  0
VERTEX
  8
0
  5
2CF3B
 10
424.913
 20
230.874
 30
0.000000
  70
    32
  0
VERTEX
  8
0
  5
2CF3C
 10
423.572
 20
230.561
 30
0.000000
  70
    32
  0
VERTEX
  8
0
  5
2CF3D
 10
422.245
 20
230.202
 30
0.000000
  70
    32
  0
VERTEX
  8
0
  5
2CF3E
 10
420.933
 20
229.797
 30
0.000000
  70
    32
  0
VERTEX
  8
0
  5
2CF3F
 10
419.640
 20
229.345
 30
0.000000
  70
    32
  0
VERTEX
  8
0
  5
2CF40
 10
418.365
 20
228.849
 30
0.000000
  70
    32
  0
VERTEX
  8
0
  5
2CF41
 10
417.112
 20
228.308
 30
0.000000
  70
    32
  0
VERTEX
  8
0
  5
2CF42
 10
415.881
 20
227.724
 30
0.000000
  70
    32
  0
VERTEX
  8
0
  5
2CF43
 10
414.676
 20
227.097
 30
0.000000
  70
    32
  0
VERTEX
  8
0
  5
2CF44
 10
413.497
 20
226.428
 30
0.000000
  70
    32
  0
VERTEX
  8
0
  5
2CF45
 10
412.346
 20
225.718
 30
0.000000
  70
    32
  0
VERTEX
  8
0
  5
2CF46
 10
411.225
 20
224.968
 30
0.000000
  70
    32
  0
VERTEX
  8
0
  5
2CF47
 10
410.135
 20
224.179
 30
0.000000
  70
    32
  0
VERTEX
  8
0
  5
2CF48
 10
409.078
 20
223.353
 30
0.000000
  70
    32
  0
VERTEX
  8
0
  5
2CF49
 10
408.056
 20
222.490
 30
0.000000
  70
    32
  0
VERTEX
  8
0
  5
2CF4A
 10
407.070
 20
221.592
 30
0.000000
  70
    32
  0
VERTEX
  8
0
  5
2CF4B
 10
406.121
 20
220.660
 30
0.000000
  70
    32
  0
VERTEX
  8
0
  5
2CF4C
 10
405.211
 20
219.695
 30
0.000000
  70
    32
  0
VERTEX
  8
0
  5
2CF4D
 10
404.341
 20
218.699
 30
0.000000
  70
    32
  0
VERTEX
  8
0
  5
2CF4E
 10
403.512
 20
217.673
 30
0.000000
  70
    32
  0
VERTEX
  8
0
  5
2CF4F
 10
402.726
 20
216.619
 30
0.000000
  70
    32
  0
VERTEX
  8
0
  5
2CF50
 10
401.984
 20
215.538
 30
0.000000
  70
    32
  0
VERTEX
  8
0
  5
2CF51
 10
401.286
 20
214.432
 30
0.000000
  70
    32
  0
VERTEX
  8
0
  5
2CF52
 10
400.633
 20
213.302
 30
0.000000
  70
    32
  0
VERTEX
  8
0
  5
2CF53
 10
400.028
 20
212.150
 30
0.000000
  70
    32
  0
VERTEX
  8
0
  5
2CF54
 10
399.470
 20
210.977
 30
0.000000
  70
    32
  0
VERTEX
  8
0
  5
2CF55
 10
398.960
 20
209.786
 30
0.000000
  70
    32
  0
VERTEX
  8
0
  5
2CF56
 10
398.499
 20
208.578
 30
0.000000
  70
    32
  0
VERTEX
  8
0
  5
2CF57
 10
398.088
 20
207.354
 30
0.000000
  70
    32
  0
VERTEX
  8
0
  5
2CF58
 10
397.727
 20
206.117
 30
0.000000
  70
    32
  0
VERTEX
  8
0
  5
2CF59
 10
397.417
 20
204.868
 30
0.000000
  70
    32
  0
VERTEX
  8
0
  5
2CF5A
 10
397.159
 20
203.609
 30
0.000000
  70
    32
  0
VERTEX
  8
0
  5
2CF5B
 10
396.951
 20
202.342
 30
0.000000
  70
    32
  0
VERTEX
  8
0
  5
2CF5C
 10
396.796
 20
201.069
 30
0.000000
  70
    32
  0
VERTEX
  8
0
  5
2CF5D
 10
396.693
 20
199.791
 30
0.000000
  70
    32
  0
VERTEX
  8
0
  5
2CF5E
 10
396.642
 20
198.510
 30
0.000000
  70
    32
  0
VERTEX
  8
0
  5
2CF5F
 10
396.644
 20
197.228
 30
0.000000
  70
    32
  0
VERTEX
  8
0
  5
2CF60
 10
396.698
 20
195.948
 30
0.000000
  70
    32
  0
VERTEX
  8
0
  5
2CF61
 10
396.804
 20
194.670
 30
0.000000
  70
    32
  0
VERTEX
  8
0
  5
2CF62
 10
396.962
 20
193.397
 30
0.000000
  70
    32
  0
VERTEX
  8
0
  5
2CF63
 10
397.172
 20
192.130
 30
0.000000
  70
    32
  0
VERTEX
  8
0
  5
2CF64
 10
397.434
 20
190.872
 30
0.000000
  70
    32
  0
VERTEX
  8
0
  5
2CF65
 10
397.747
 20
189.623
 30
0.000000
  70
    32
  0
VERTEX
  8
0
  5
2CF66
 10
398.110
 20
188.387
 30
0.000000
  70
    32
  0
VERTEX
  8
0
  5
2CF67
 10
398.524
 20
187.164
 30
0.000000
  70
    32
  0
VERTEX
  8
0
  5
2CF68
 10
398.988
 20
185.957
 30
0.000000
  70
    32
  0
VERTEX
  8
0
  5
2CF69
 10
399.501
 20
184.766
 30
0.000000
  70
    32
  0
VERTEX
  8
0
  5
2CF6A
 10
400.061
 20
183.595
 30
0.000000
  70
    32
  0
VERTEX
  8
0
  5
2CF6B
 10
400.670
 20
182.444
 30
0.000000
  70
    32
  0
VERTEX
  8
0
  5
2CF6C
 10
401.324
 20
181.315
 30
0.000000
  70
    32
  0
VERTEX
  8
0
  5
2CF6D
 10
402.025
 20
180.211
 30
0.000000
  70
    32
  0
VERTEX
  8
0
  5
2CF6E
 10
402.770
 20
179.131
 30
0.000000
  70
    32
  0
VERTEX
  8
0
  5
2CF6F
 10
403.559
 20
178.078
 30
0.000000
  70
    32
  0
VERTEX
  8
0
  5
2CF70
 10
404.390
 20
177.054
 30
0.000000
  70
    32
  0
VERTEX
  8
0
  5
2CF71
 10
405.262
 20
176.060
 30
0.000000
  70
    32
  0
VERTEX
  8
0
  5
2CF72
 10
406.175
 20
175.097
 30
0.000000
  70
    32
  0
VERTEX
  8
0
  5
2CF73
 10
407.126
 20
174.167
 30
0.000000
  70
    32
  0
VERTEX
  8
0
  5
2CF74
 10
408.114
 20
173.271
 30
0.000000
  70
    32
  0
VERTEX
  8
0
  5
2CF75
 10
409.138
 20
172.410
 30
0.000000
  70
    32
  0
SEQEND
  8
0
  5
2CF76
  0
LINE
  5
2CA7B
  8
0
 10
454.25573414082282
 20
172.41024549020341
 30
0.0
 11
457.1347441796101
 21
172.41024549020341
 31
0.0
  0
POLYLINE
  5
2CA7C
  8
0
 10
454.25573414082334
 20
172.41024549020358
 30
0.0
 66
     1
 70
     8
  0
VERTEX
  8
0
  5
2CF77
 10
454.256
 20
172.410
 30
0.000000
  70
    32
  0
VERTEX
  8
0
  5
2CF78
 10
455.308
 20
173.190
 30
0.000000
  70
    32
  0
VERTEX
  8
0
  5
2CF79
 10
456.327
 20
174.007
 30
0.000000
  70
    32
  0
VERTEX
  8
0
  5
2CF7A
 10
457.311
 20
174.860
 30
0.000000
  70
    32
  0
VERTEX
  8
0
  5
2CF7B
 10
458.258
 20
175.748
 30
0.000000
  70
    32
  0
VERTEX
  8
0
  5
2CF7C
 10
459.168
 20
176.670
 30
0.000000
  70
    32
  0
VERTEX
  8
0
  5
2CF7D
 10
460.038
 20
177.623
 30
0.000000
  70
    32
  0
VERTEX
  8
0
  5
2CF7E
 10
460.867
 20
178.607
 30
0.000000
  70
    32
  0
VERTEX
  8
0
  5
2CF7F
 10
461.655
 20
179.620
 30
0.000000
  70
    32
  0
VERTEX
  8
0
  5
2CF80
 10
462.400
 20
180.661
 30
0.000000
  70
    32
  0
VERTEX
  8
0
  5
2CF81
 10
463.100
 20
181.728
 30
0.000000
  70
    32
  0
VERTEX
  8
0
  5
2CF82
 10
463.756
 20
182.819
 30
0.000000
  70
    32
  0
VERTEX
  8
0
  5
2CF83
 10
464.365
 20
183.933
 30
0.000000
  70
    32
  0
VERTEX
  8
0
  5
2CF84
 10
464.926
 20
185.069
 30
0.000000
  70
    32
  0
VERTEX
  8
0
  5
2CF85
 10
465.440
 20
186.223
 30
0.000000
  70
    32
  0
VERTEX
  8
0
  5
2CF86
 10
465.906
 20
187.395
 30
0.000000
  70
    32
  0
VERTEX
  8
0
  5
2CF87
 10
466.321
 20
188.583
 30
0.000000
  70
    32
  0
VERTEX
  8
0
  5
2CF88
 10
466.687
 20
189.785
 30
0.000000
  70
    32
  0
VERTEX
  8
0
  5
2CF89
 10
467.002
 20
191.000
 30
0.000000
  70
    32
  0
VERTEX
  8
0
  5
2CF8A
 10
467.266
 20
192.224
 30
0.000000
  70
    32
  0
VERTEX
  8
0
  5
2CF8B
 10
467.478
 20
193.458
 30
0.000000
  70
    32
  0
VERTEX
  8
0
  5
2CF8C
 10
467.638
 20
194.698
 30
0.000000
  70
    32
  0
VERTEX
  8
0
  5
2CF8D
 10
467.747
 20
195.943
 30
0.000000
  70
    32
  0
VERTEX
  8
0
  5
2CF8E
 10
467.803
 20
197.191
 30
0.000000
  70
    32
  0
VERTEX
  8
0
  5
2CF8F
 10
467.807
 20
198.440
 30
0.000000
  70
    32
  0
VERTEX
  8
0
  5
2CF90
 10
467.758
 20
199.688
 30
0.000000
  70
    32
  0
VERTEX
  8
0
  5
2CF91
 10
467.657
 20
200.933
 30
0.000000
  70
    32
  0
VERTEX
  8
0
  5
2CF92
 10
467.504
 20
202.174
 30
0.000000
  70
    32
  0
VERTEX
  8
0
  5
2CF93
 10
467.300
 20
203.408
 30
0.000000
  70
    32
  0
VERTEX
  8
0
  5
2CF94
 10
467.043
 20
204.635
 30
0.000000
  70
    32
  0
VERTEX
  8
0
  5
2CF95
 10
466.736
 20
205.851
 30
0.000000
  70
    32
  0
VERTEX
  8
0
  5
2CF96
 10
466.377
 20
207.054
 30
0.000000
  70
    32
  0
VERTEX
  8
0
  5
2CF97
 10
465.969
 20
208.245
 30
0.000000
  70
    32
  0
VERTEX
  8
0
  5
2CF98
 10
465.511
 20
209.419
 30
0.000000
  70
    32
  0
VERTEX
  8
0
  5
2CF99
 10
465.004
 20
210.576
 30
0.000000
  70
    32
  0
VERTEX
  8
0
  5
2CF9A
 10
464.449
 20
211.714
 30
0.000000
  70
    32
  0
VERTEX
  8
0
  5
2CF9B
 10
463.847
 20
212.832
 30
0.000000
  70
    32
  0
VERTEX
  8
0
  5
2CF9C
 10
463.198
 20
213.926
 30
0.000000
  70
    32
  0
VERTEX
  8
0
  5
2CF9D
 10
462.504
 20
214.997
 30
0.000000
  70
    32
  0
VERTEX
  8
0
  5
2CF9E
 10
461.766
 20
216.042
 30
0.000000
  70
    32
  0
VERTEX
  8
0
  5
2CF9F
 10
460.985
 20
217.059
 30
0.000000
  70
    32
  0
VERTEX
  8
0
  5
2CFA0
 10
460.161
 20
218.047
 30
0.000000
  70
    32
  0
VERTEX
  8
0
  5
2CFA1
 10
459.297
 20
219.005
 30
0.000000
  70
    32
  0
VERTEX
  8
0
  5
2CFA2
 10
458.393
 20
219.931
 30
0.000000
  70
    32
  0
VERTEX
  8
0
  5
2CFA3
 10
457.451
 20
220.824
 30
0.000000
  70
    32
  0
VERTEX
  8
0
  5
2CFA4
 10
456.472
 20
221.683
 30
0.000000
  70
    32
  0
VERTEX
  8
0
  5
2CFA5
 10
455.458
 20
222.505
 30
0.000000
  70
    32
  0
VERTEX
  8
0
  5
2CFA6
 10
454.411
 20
223.290
 30
0.000000
  70
    32
  0
VERTEX
  8
0
  5
2CFA7
 10
453.331
 20
224.037
 30
0.000000
  70
    32
  0
VERTEX
  8
0
  5
2CFA8
 10
452.221
 20
224.745
 30
0.000000
  70
    32
  0
VERTEX
  8
0
  5
2CFA9
 10
451.082
 20
225.412
 30
0.000000
  70
    32
  0
VERTEX
  8
0
  5
2CFAA
 10
449.916
 20
226.037
 30
0.000000
  70
    32
  0
VERTEX
  8
0
  5
2CFAB
 10
448.724
 20
226.620
 30
0.000000
  70
    32
  0
VERTEX
  8
0
  5
2CFAC
 10
447.509
 20
227.160
 30
0.000000
  70
    32
  0
VERTEX
  8
0
  5
2CFAD
 10
446.273
 20
227.656
 30
0.000000
  70
    32
  0
VERTEX
  8
0
  5
2CFAE
 10
445.016
 20
228.106
 30
0.000000
  70
    32
  0
VERTEX
  8
0
  5
2CFAF
 10
443.742
 20
228.511
 30
0.000000
  70
    32
  0
VERTEX
  8
0
  5
2CFB0
 10
442.452
 20
228.870
 30
0.000000
  70
    32
  0
VERTEX
  8
0
  5
2CFB1
 10
441.147
 20
229.182
 30
0.000000
  70
    32
  0
VERTEX
  8
0
  5
2CFB2
 10
439.831
 20
229.447
 30
0.000000
  70
    32
  0
VERTEX
  8
0
  5
2CFB3
 10
438.504
 20
229.664
 30
0.000000
  70
    32
  0
VERTEX
  8
0
  5
2CFB4
 10
437.169
 20
229.834
 30
0.000000
  70
    32
  0
VERTEX
  8
0
  5
2CFB5
 10
435.828
 20
229.955
 30
0.000000
  70
    32
  0
VERTEX
  8
0
  5
2CFB6
 10
434.483
 20
230.028
 30
0.000000
  70
    32
  0
VERTEX
  8
0
  5
2CFB7
 10
433.136
 20
230.052
 30
0.000000
  70
    32
  0
VERTEX
  8
0
  5
2CFB8
 10
431.789
 20
230.028
 30
0.000000
  70
    32
  0
VERTEX
  8
0
  5
2CFB9
 10
430.445
 20
229.955
 30
0.000000
  70
    32
  0
VERTEX
  8
0
  5
2CFBA
 10
429.104
 20
229.834
 30
0.000000
  70
    32
  0
VERTEX
  8
0
  5
2CFBB
 10
427.769
 20
229.664
 30
0.000000
  70
    32
  0
VERTEX
  8
0
  5
2CFBC
 10
426.442
 20
229.447
 30
0.000000
  70
    32
  0
VERTEX
  8
0
  5
2CFBD
 10
425.126
 20
229.182
 30
0.000000
  70
    32
  0
VERTEX
  8
0
  5
2CFBE
 10
423.821
 20
228.870
 30
0.000000
  70
    32
  0
VERTEX
  8
0
  5
2CFBF
 10
422.531
 20
228.511
 30
0.000000
  70
    32
  0
VERTEX
  8
0
  5
2CFC0
 10
421.256
 20
228.106
 30
0.000000
  70
    32
  0
VERTEX
  8
0
  5
2CFC1
 10
420.000
 20
227.656
 30
0.000000
  70
    32
  0
VERTEX
  8
0
  5
2CFC2
 10
418.763
 20
227.160
 30
0.000000
  70
    32
  0
VERTEX
  8
0
  5
2CFC3
 10
417.548
 20
226.620
 30
0.000000
  70
    32
  0
VERTEX
  8
0
  5
2CFC4
 10
416.357
 20
226.037
 30
0.000000
  70
    32
  0
VERTEX
  8
0
  5
2CFC5
 10
415.191
 20
225.412
 30
0.000000
  70
    32
  0
VERTEX
  8
0
  5
2CFC6
 10
414.052
 20
224.745
 30
0.000000
  70
    32
  0
VERTEX
  8
0
  5
2CFC7
 10
412.942
 20
224.037
 30
0.000000
  70
    32
  0
VERTEX
  8
0
  5
2CFC8
 10
411.862
 20
223.290
 30
0.000000
  70
    32
  0
VERTEX
  8
0
  5
2CFC9
 10
410.814
 20
222.505
 30
0.000000
  70
    32
  0
VERTEX
  8
0
  5
2CFCA
 10
409.800
 20
221.683
 30
0.000000
  70
    32
  0
VERTEX
  8
0
  5
2CFCB
 10
408.822
 20
220.824
 30
0.000000
  70
    32
  0
VERTEX
  8
0
  5
2CFCC
 10
407.880
 20
219.931
 30
0.000000
  70
    32
  0
VERTEX
  8
0
  5
2CFCD
 10
406.976
 20
219.005
 30
0.000000
  70
    32
  0
VERTEX
  8
0
  5
2CFCE
 10
406.112
 20
218.047
 30
0.000000
  70
    32
  0
VERTEX
  8
0
  5
2CFCF
 10
405.288
 20
217.059
 30
0.000000
  70
    32
  0
VERTEX
  8
0
  5
2CFD0
 10
404.507
 20
216.042
 30
0.000000
  70
    32
  0
VERTEX
  8
0
  5
2CFD1
 10
403.768
 20
214.997
 30
0.000000
  70
    32
  0
VERTEX
  8
0
  5
2CFD2
 10
403.074
 20
213.926
 30
0.000000
  70
    32
  0
VERTEX
  8
0
  5
2CFD3
 10
402.426
 20
212.832
 30
0.000000
  70
    32
  0
VERTEX
  8
0
  5
2CFD4
 10
401.824
 20
211.714
 30
0.000000
  70
    32
  0
VERTEX
  8
0
  5
2CFD5
 10
401.269
 20
210.576
 30
0.000000
  70
    32
  0
VERTEX
  8
0
  5
2CFD6
 10
400.762
 20
209.419
 30
0.000000
  70
    32
  0
VERTEX
  8
0
  5
2CFD7
 10
400.304
 20
208.245
 30
0.000000
  70
    32
  0
VERTEX
  8
0
  5
2CFD8
 10
399.895
 20
207.054
 30
0.000000
  70
    32
  0
VERTEX
  8
0
  5
2CFD9
 10
399.537
 20
205.851
 30
0.000000
  70
    32
  0
VERTEX
  8
0
  5
2CFDA
 10
399.230
 20
204.635
 30
0.000000
  70
    32
  0
VERTEX
  8
0
  5
2CFDB
 10
398.973
 20
203.408
 30
0.000000
  70
    32
  0
VERTEX
  8
0
  5
2CFDC
 10
398.768
 20
202.174
 30
0.000000
  70
    32
  0
VERTEX
  8
0
  5
2CFDD
 10
398.615
 20
200.933
 30
0.000000
  70
    32
  0
VERTEX
  8
0
  5
2CFDE
 10
398.515
 20
199.688
 30
0.000000
  70
    32
  0
VERTEX
  8
0
  5
2CFDF
 10
398.466
 20
198.440
 30
0.000000
  70
    32
  0
VERTEX
  8
0
  5
2CFE0
 10
398.470
 20
197.191
 30
0.000000
  70
    32
  0
VERTEX
  8
0
  5
2CFE1
 10
398.526
 20
195.943
 30
0.000000
  70
    32
  0
VERTEX
  8
0
  5
2CFE2
 10
398.634
 20
194.698
 30
0.000000
  70
    32
  0
VERTEX
  8
0
  5
2CFE3
 10
398.795
 20
193.458
 30
0.000000
  70
    32
  0
VERTEX
  8
0
  5
2CFE4
 10
399.007
 20
192.224
 30
0.000000
  70
    32
  0
VERTEX
  8
0
  5
2CFE5
 10
399.271
 20
191.000
 30
0.000000
  70
    32
  0
VERTEX
  8
0
  5
2CFE6
 10
399.586
 20
189.785
 30
0.000000
  70
    32
  0
VERTEX
  8
0
  5
2CFE7
 10
399.952
 20
188.583
 30
0.000000
  70
    32
  0
VERTEX
  8
0
  5
2CFE8
 10
400.367
 20
187.395
 30
0.000000
  70
    32
  0
VERTEX
  8
0
  5
2CFE9
 10
400.832
 20
186.223
 30
0.000000
  70
    32
  0
VERTEX
  8
0
  5
2CFEA
 10
401.346
 20
185.069
 30
0.000000
  70
    32
  0
VERTEX
  8
0
  5
2CFEB
 10
401.908
 20
183.933
 30
0.000000
  70
    32
  0
VERTEX
  8
0
  5
2CFEC
 10
402.517
 20
182.819
 30
0.000000
  70
    32
  0
VERTEX
  8
0
  5
2CFED
 10
403.172
 20
181.728
 30
0.000000
  70
    32
  0
VERTEX
  8
0
  5
2CFEE
 10
403.873
 20
180.661
 30
0.000000
  70
    32
  0
VERTEX
  8
0
  5
2CFEF
 10
404.618
 20
179.620
 30
0.000000
  70
    32
  0
VERTEX
  8
0
  5
2CFF0
 10
405.405
 20
178.607
 30
0.000000
  70
    32
  0
VERTEX
  8
0
  5
2CFF1
 10
406.235
 20
177.623
 30
0.000000
  70
    32
  0
VERTEX
  8
0
  5
2CFF2
 10
407.105
 20
176.670
 30
0.000000
  70
    32
  0
VERTEX
  8
0
  5
2CFF3
 10
408.015
 20
175.748
 30
0.000000
  70
    32
  0
VERTEX
  8
0
  5
2CFF4
 10
408.962
 20
174.860
 30
0.000000
  70
    32
  0
VERTEX
  8
0
  5
2CFF5
 10
409.946
 20
174.007
 30
0.000000
  70
    32
  0
VERTEX
  8
0
  5
2CFF6
 10
410.965
 20
173.190
 30
0.000000
  70
    32
  0
VERTEX
  8
0
  5
2CFF7
 10
412.017
 20
172.410
 30
0.000000
  70
    32
  0
SEQEND
  8
0
  5
2CFF8
  0
LINE
  5
2CA7D
  8
0
 10
409.13801198979991
 20
172.41024549020341
 30
0.0
 11
412.01702202858718
 21
172.41024549020341
 31
0.0
  0
LINE
  5
2CA7E
  8
0
 10
409.13801198979991
 20
172.41024549020341
 30
0.0
 11
410.63637808470497
 21
171.43172152557599
 31
0.0
  0
LINE
  5
2CA7F
  8
0
 10
455.63637808470497
 20
171.43172152557599
 30
0.0
 11
457.1347441796101
 21
172.41024549020341
 31
0.0
  0
LINE
  5
2CA80
  8
0
 10
396.63637808470497
 20
235.74368873142009
 30
0.0
 11
469.63637808470492
 21
235.74368873142009
 31
0.0
  0
LINE
  5
2CA81
  8
0
 10
413.13637808470497
 20
171.72434204503301
 30
0.0
 11
412.01702202858718
 21
172.41024549020341
 31
0.0
  0
LINE
  5
2CA82
  8
0
 10
454.25573414082282
 20
172.41024549020341
 30
0.0
 11
453.13637808470497
 21
171.72434204503301
 31
0.0
  0
LINE
  5
2CA83
  8
0
 10
453.13637808470497
 20
224.16575551674089
 30
0.0
 11
453.13637808470509
 21
169.74368873142009
 31
0.0
  0
LINE
  5
2CA85
  8
0
 10
413.13637808470497
 20
224.1657555167412
 30
0.0
 11
413.13637808470497
 21
169.74368873142009
 31
0.0
  0
LINE
  5
2CA86
  8
0
 10
455.63637808470497
 20
169.74368873142009
 30
0.0
 11
455.63637808470497
 21
171.43172152557599
 31
0.0
  0
LINE
  5
2CA87
  8
0
 10
453.13637808470497
 20
169.74368873142009
 30
0.0
 11
455.63637808470497
 21
169.74368873142009
 31
0.0
  0
LINE
  5
2CA89
  8
0
 10
410.63637808470497
 20
169.74368873142009
 30
0.0
 11
413.13637808470497
 21
169.74368873142009
 31
0.0
  0
LINE
  5
2CA8A
  8
0
 10
410.63637808470497
 20
169.74368873142009
 30
0.0
 11
410.63637808470497
 21
171.43172152557599
 31
0.0
  0
LINE
  5
2CA8C
  8
0
 10
452.1363780847052
 20
217.98087409844209
 30
0.0
 11
453.13637808470548
 21
217.98087409844209
 31
0.0
  0
LINE
  5
2CA8D
  8
0
 10
413.13637808470543
 20
217.98087409844209
 30
0.0
 11
414.1363780847052
 21
217.98087409844209
 31
0.0
  0
LINE
  5
2CA8F
  8
0
 10
414.1363780847052
 20
220.38850396969119
 30
0.0
 11
452.1363780847052
 21
220.38850396969119
 31
0.0
  0
LINE
  5
2CA92
  8
0
 10
414.1363780847052
 20
223.28628144855909
 30
0.0
 11
452.1363780847052
 21
223.28628144855909
 31
0.0
  0
LINE
  5
2CA94
  8
0
 10
461.10551603694063
 20
176.24225855652969
 30
0.0
 11
460.87695837528958
 21
173.4853553980868
 31
0.0
  0
LINE
  5
2CA95
  8
0
 10
461.13637808470497
 20
173.4853553980868
 30
0.0
 11
458.40222655848032
 21
173.4853553980868
 31
0.0
  0
LINE
  5
2CA96
  8
0
 10
405.5957977941207
 20
173.4853553980868
 30
0.0
 11
405.3938554056981
 21
175.9212203979462
 31
0.0
  0
LINE
  5
2CA97
  8
0
 10
407.87052961092962
 20
173.4853553980868
 30
0.0
 11
405.33637808470542
 21
173.4853553980868
 31
0.0
  0
LINE
  5
2CA98
  8
0
 10
463.63637808470497
 20
173.92868873142021
 30
0.0
 11
463.63637808470497
 21
179.3182549120078
 31
0.0
  0
LINE
  5
2CA9A
  8
0
 10
461.13637808470497
 20
173.4853553980868
 30
0.0
 11
461.13637808470497
 21
176.19886743306691
 31
0.0
  0
LINE
  5
2CA9C
  8
0
 10
405.33637808470519
 20
173.4853553980868
 30
0.0
 11
405.33637808470519
 21
175.97905038377041
 31
0.0
  0
LINE
  5
2CA9D
  8
0
 10
465.63637808470497
 20
176.51068873142009
 30
0.0
 11
465.63637808470497
 21
182.5042877875168
 31
0.0
  0
LINE
  5
2CA9E
  8
0
 10
464.8693780847052
 20
175.74368873142009
 30
0.0
 11
464.8693780847052
 21
181.18609087408399
 31
0.0
  0
LINE
  5
2CA9F
  8
0
 10
445.63637808470497
 20
179.74368873142009
 30
0.0
 11
445.63637808470497
 21
214.74368873142009
 31
0.0
  0
LINE
  5
2CAA0
  8
0
 10
445.63637808470497
 20
144.74368873142021
 30
0.0
 11
445.63637808470497
 21
179.74368873142009
 31
0.0
  0
LINE
  5
2CAA1
  8
0
 10
420.63637808470497
 20
179.74368873142009
 30
0.0
 11
420.63637808470497
 21
214.74368873142009
 31
0.0
  0
LINE
  5
2CAA2
  8
0
 10
420.63637808470497
 20
144.74368873142009
 30
0.0
 11
420.63637808470497
 21
179.74368873142009
 31
0.0
  0
LINE
  5
2CAA3
  8
0
 10
418.13637808470497
 20
196.6126692832126
 30
0.0
 11
418.13637808470497
 21
162.8747081796275
 31
0.0
  0
LINE
  5
2CAA4
  8
0
 10
448.13637808470497
 20
179.74368873142009
 30
0.0
 11
448.13637808470497
 21
196.6126692832126
 31
0.0
  0
LINE
  5
2CAA5
  8
0
 10
448.13637808470497
 20
162.8747081796275
 30
0.0
 11
448.13637808470497
 21
179.74368873142009
 31
0.0
  0
LINE
  5
2CAA8
  8
0
 10
442.378314652602
 20
179.74368873142009
 30
0.0
 11
442.378314652602
 21
219.74368873142009
 31
0.0
  0
LINE
  5
2CAA9
  8
0
 10
442.378314652602
 20
139.74368873142009
 30
0.0
 11
442.378314652602
 21
179.74368873142009
 31
0.0
  0
LINE
  5
2CAAA
  8
0
 10
423.894441516808
 20
179.74368873142009
 30
0.0
 11
423.894441516808
 21
219.74368873142009
 31
0.0
  0
LINE
  5
2CAAB
  8
0
 10
423.894441516808
 20
139.74368873142009
 30
0.0
 11
423.894441516808
 21
179.74368873142009
 31
0.0
  0
LINE
  5
2CAAF
  8
0
 10
277.76548305371671
 20
405.38388015352479
 30
0.0
 11
277.76548305371671
 21
405.98388015352481
 31
0.0
  0
LINE
  5
2CAB0
  8
0
 10
268.71748305371671
 20
460.98388015352481
 30
0.0
 11
267.95048305371671
 21
460.21688015352481
 31
0.0
  0
LINE
  5
2CAB1
  8
0
 10
267.95048305371671
 20
460.21688015352481
 30
0.0
 11
267.95048305371671
 21
458.98388015352492
 31
0.0
  0
LINE
  5
2CAB3
  8
0
 10
351.95048305371671
 20
470.98388015352458
 30
0.0
 11
269.95048305371671
 21
470.98388015352458
 31
0.0
  0
ARC
  5
2CAB4
  8
0
 10
351.95048305371688
 20
461.98388015352481
 30
0.0
 40
8.9999999999997726
 50
359.99999999999682
 51
90.0
  0
LINE
  5
2CAB5
  8
0
 10
360.9504830537166
 20
394.98388015352458
 30
0.0
 11
360.9504830537166
 21
461.98388015352458
 31
0.0
  0
ARC
  5
2CAB6
  8
0
 10
351.95048305371688
 20
394.9838801535243
 30
0.0
 40
8.9999999999997726
 50
270.0
 51
0.0
  0
LINE
  5
2CAB7
  8
0
 10
269.95048305371671
 20
385.98388015352452
 30
0.0
 11
351.95048305371671
 21
385.98388015352452
 31
0.0
  0
ARC
  5
2CAB8
  8
0
 10
269.95048305371671
 20
394.98388015352452
 30
0.0
 40
8.9999999999999716
 50
180.0
 51
270.0
  0
LINE
  5
2CAB9
  8
0
 10
260.9504830537166
 20
461.98388015352458
 30
0.0
 11
260.9504830537166
 21
394.98388015352458
 31
0.0
  0
ARC
  5
2CABA
  8
0
 10
269.95048305371671
 20
461.98388015352458
 30
0.0
 40
8.9999999999999432
 50
90.0
 51
180.0
  0
LINE
  5
2CABB
  8
0
 10
344.18140821248971
 20
404.56085520644859
 30
0.0
 11
346.68140821248971
 21
397.06085520644859
 31
0.0
  0
ARC
  5
2CABC
  8
0
 10
350.95048305371671
 20
398.48388015352458
 30
0.0
 40
4.4999999999997851
 50
198.43494882292811
 51
18.434948822928192
  0
LINE
  5
2CABD
  8
0
 10
355.21955789494359
 20
399.90690510060062
 30
0.0
 11
352.71955789494359
 21
407.40690510060062
 31
0.0
  0
ARC
  5
2CABE
  8
0
 10
348.4504830537166
 20
405.98388015352458
 30
0.0
 40
4.4999999999998224
 50
18.434948822925101
 51
198.43494882292811
  0
LINE
  5
2CABF
  8
0
 10
352.71955789494359
 20
449.56085520644859
 30
0.0
 11
355.21955789494359
 21
457.06085520644848
 31
0.0
  0
ARC
  5
2CAC0
  8
0
 10
350.95048305371671
 20
458.48388015352458
 30
0.0
 40
4.4999999999997771
 50
341.56505117707491
 51
161.56505117707181
  0
LINE
  5
2CAC1
  8
0
 10
346.68140821248971
 20
459.90690510060062
 30
0.0
 11
344.18140821248971
 21
452.40690510060062
 31
0.0
  0
ARC
  5
2CAC2
  8
0
 10
348.4504830537166
 20
450.98388015352458
 30
0.0
 40
4.4999999999998224
 50
161.56505117707181
 51
341.56505117707491
  0
LINE
  5
2CAC3
  8
0
 10
275.21955789494399
 20
397.06085520644859
 30
0.0
 11
277.7195578949441
 21
404.56085520644859
 31
0.0
  0
ARC
  5
2CAC4
  8
0
 10
273.4504830537166
 20
405.98388015352418
 30
0.0
 40
4.5000000000000382
 50
341.56505117708309
 51
161.56505117706871
  0
LINE
  5
2CAC5
  8
0
 10
269.18140821248932
 20
407.40690510060062
 30
0.0
 11
266.68140821248932
 21
399.90690510060062
 31
0.0
  0
ARC
  5
2CAC6
  8
0
 10
270.9504830537166
 20
398.48388015352492
 30
0.0
 40
4.5000000000000551
 50
161.565051177078
 51
341.56505117706871
  0
LINE
  5
2CAC7
  8
0
 10
266.68140821248932
 20
457.06085520644848
 30
0.0
 11
269.18140821248932
 21
449.56085520644859
 31
0.0
  0
ARC
  5
2CAC8
  8
0
 10
273.4504830537166
 20
450.98388015352492
 30
0.0
 40
4.5000000000000551
 50
198.4349488229312
 51
18.43494882292201
  0
LINE
  5
2CAC9
  8
0
 10
277.7195578949441
 20
452.40690510060062
 30
0.0
 11
275.21955789494399
 21
459.90690510060062
 31
0.0
  0
ARC
  5
2CACA
  8
0
 10
270.9504830537166
 20
458.4838801535243
 30
0.0
 40
4.5000000000000551
 50
18.434948822931279
 51
198.43494882292191
  0
LINE
  5
2CAD9
  8
0
 10
277.95048305371671
 20
405.98388015352458
 30
0.0
 11
268.70706656346402
 21
405.98388015352458
 31
0.0
  0
LINE
  5
2CADA
  8
0
 10
260.9504830537166
 20
405.98388015352458
 30
0.0
 11
256.25175324293861
 21
405.98388015352458
 31
0.0
  0
LINE
  5
2CADC
  8
0
 10
277.95048305371671
 20
450.98388015352458
 30
0.0
 11
268.70706656346402
 21
450.98388015352458
 31
0.0
  0
LINE
  5
2CADD
  8
0
 10
260.9504830537166
 20
450.98388015352458
 30
0.0
 11
256.25175324293861
 21
450.98388015352458
 31
0.0
  0
LINE
  5
2CADE
  8
0
 10
256.25175324293861
 20
405.98388015352458
 30
0.0
 11
211.46714355211159
 21
405.98388015352481
 31
0.0
  0
LINE
  5
2CADF
  8
0
 10
211.46714355211159
 20
405.98388015352481
 30
0.0
 11
211.46714355211159
 21
450.98388015352458
 31
0.0
  0
LINE
  5
2CAE2
  8
0
 10
256.25175324293861
 20
450.98388015352458
 30
0.0
 11
211.46714355211159
 21
450.98388015352458
 31
0.0
  0
LINE
  5
2CAF2
  8
0
 10
277.900916956532
 20
451.0600648906406
 30
0.0
 11
277.37035870573442
 21
450.98388015352492
 31
0.0
  0
POLYLINE
  5
2CAF3
  8
0
 66
     1
 10
0.0
 20
0.0
 30
0.0
 70
   128
  0
VERTEX
  5
2CCC9
  8
0
 10
277.37035870573442
 20
450.98388015352492
 30
0.0
  0
VERTEX
  5
2CCCA
  8
0
 10
276.12642687382458
 20
451.11152256789302
 30
0.0
  0
VERTEX
  5
2CCCB
  8
0
 10
275.56373348839497
 20
451.24329986293998
 30
0.0
  0
SEQEND
  5
2CCCC
  8
0
  0
LINE
  5
2CAF4
  8
0
 10
275.56373348839497
 20
456.22446044410952
 30
0.0
 11
275.56373348839497
 21
451.24329986293998
 31
0.0
  0
POLYLINE
  5
2CAF5
  8
0
 66
     1
 10
0.0
 20
0.0
 30
0.0
 70
   128
  0
VERTEX
  5
2CCCD
  8
0
 10
275.56373348839497
 20
456.22446044410952
 30
0.0
  0
VERTEX
  5
2CCCE
  8
0
 10
276.12642687382458
 20
456.35623773915648
 30
0.0
  0
VERTEX
  5
2CCCF
  8
0
 10
276.39396287488808
 20
456.38369016076848
 30
0.0
  0
SEQEND
  5
2CCD0
  8
0
  0
LINE
  5
2CAF6
  8
0
 10
275.56373348839497
 20
451.24329986293998
 30
0.0
 11
271.95048305371671
 21
450.98388015352469
 31
0.0
  0
POLYLINE
  5
2CAF7
  8
0
 66
     1
 10
0.0
 20
0.0
 30
0.0
 70
   128
  0
VERTEX
  5
2CCD1
  8
0
 10
271.95048305371671
 20
450.98388015352469
 30
0.0
  0
VERTEX
  5
2CCD2
  8
0
 10
269.23873120199119
 20
451.13453413930227
 30
0.0
  0
VERTEX
  5
2CCD3
  8
0
 10
268.63246664669492
 20
451.20767990383229
 30
0.0
  0
SEQEND
  5
2CCD4
  8
0
  0
LINE
  5
2CAF8
  8
0
 10
268.33723261903828
 20
456.22446044410952
 30
0.0
 11
268.33723261903828
 21
452.09338198680189
 31
0.0
  0
POLYLINE
  5
2CAF9
  8
0
 66
     1
 10
0.0
 20
0.0
 30
0.0
 70
   128
  0
VERTEX
  5
2CCD5
  8
0
 10
268.33723261903828
 20
456.22446044410952
 30
0.0
  0
VERTEX
  5
2CCD6
  8
0
 10
269.23873120199119
 20
456.33322616774723
 30
0.0
  0
VERTEX
  5
2CCD7
  8
0
 10
271.95048305371671
 20
456.48388015352469
 30
0.0
  0
SEQEND
  5
2CCD8
  8
0
  0
LINE
  5
2CAFA
  8
0
 10
271.95048305371671
 20
456.48388015352469
 30
0.0
 11
275.56373348839497
 21
456.22446044410952
 31
0.0
  0
LINE
  5
2CAFB
  8
0
 10
276.36056621063591
 20
456.48388015352469
 30
0.0
 11
271.95048305371671
 21
456.48388015352469
 31
0.0
  0
LINE
  5
2CAFC
  8
0
 10
266.88642039476281
 20
456.44581865962863
 30
0.0
 11
268.33723261903828
 21
456.22446044410952
 31
0.0
  0
LINE
  5
2CAFD
  8
0
 10
271.95048305371671
 20
456.48388015352469
 30
0.0
 11
266.87373323013071
 21
456.48388015352469
 31
0.0
  0
POLYLINE
  5
2CAFE
  8
0
 66
     1
 10
0.0
 20
0.0
 30
0.0
 70
   128
  0
VERTEX
  5
2CCD9
  8
0
 10
276.45842468828619
 20
400.77745558647513
 30
0.0
  0
VERTEX
  5
2CCDA
  8
0
 10
276.12642687382458
 20
400.81152256789312
 30
0.0
  0
VERTEX
  5
2CCDB
  8
0
 10
275.56373348839497
 20
400.94329986294031
 30
0.0
  0
SEQEND
  5
2CCDC
  8
0
  0
LINE
  5
2CAFF
  8
0
 10
275.56373348839497
 20
405.12446044410927
 30
0.0
 11
275.56373348839497
 21
400.94329986294031
 31
0.0
  0
POLYLINE
  5
2CB00
  8
0
 66
     1
 10
0.0
 20
0.0
 30
0.0
 70
   128
  0
VERTEX
  5
2CCDD
  8
0
 10
275.56373348839497
 20
405.12446044410927
 30
0.0
  0
VERTEX
  5
2CCDE
  8
0
 10
276.12642687382458
 20
405.2562377391564
 30
0.0
  0
VERTEX
  5
2CCDF
  8
0
 10
277.37035870573442
 20
405.38388015352479
 30
0.0
  0
SEQEND
  5
2CCE0
  8
0
  0
LINE
  5
2CB01
  8
0
 10
277.37035870573442
 20
405.38388015352479
 30
0.0
 11
277.82612219414523
 21
405.31843546107223
 31
0.0
  0
LINE
  5
2CB02
  8
0
 10
275.56373348839497
 20
400.94329986294031
 30
0.0
 11
271.95048305371671
 21
400.6838801535248
 31
0.0
  0
POLYLINE
  5
2CB03
  8
0
 66
     1
 10
0.0
 20
0.0
 30
0.0
 70
   128
  0
VERTEX
  5
2CCE1
  8
0
 10
271.95048305371671
 20
400.6838801535248
 30
0.0
  0
VERTEX
  5
2CCE2
  8
0
 10
269.23873120199119
 20
400.83453413930249
 30
0.0
  0
VERTEX
  5
2CCE3
  8
0
 10
268.33723261903828
 20
400.94329986294031
 30
0.0
  0
SEQEND
  5
2CCE4
  8
0
  0
LINE
  5
2CB04
  8
0
 10
268.33723261903828
 20
404.87437832024722
 30
0.0
 11
268.33723261903828
 21
400.94329986294031
 31
0.0
  0
POLYLINE
  5
2CB05
  8
0
 66
     1
 10
0.0
 20
0.0
 30
0.0
 70
   128
  0
VERTEX
  5
2CCE5
  8
0
 10
268.42408628952512
 20
405.13493933170798
 30
0.0
  0
VERTEX
  5
2CCE6
  8
0
 10
269.23873120199119
 20
405.23322616774709
 30
0.0
  0
VERTEX
  5
2CCE7
  8
0
 10
271.95048305371671
 20
405.38388015352479
 30
0.0
  0
SEQEND
  5
2CCE8
  8
0
  0
LINE
  5
2CB06
  8
0
 10
271.95048305371671
 20
405.38388015352479
 30
0.0
 11
275.56373348839497
 21
405.12446044410927
 31
0.0
  0
LINE
  5
2CB07
  8
0
 10
271.95048305371671
 20
405.38388015352479
 30
0.0
 11
268.50706656346421
 21
405.38388015352479
 31
0.0
  0
LINE
  5
2CB08
  8
0
 10
268.33723261903828
 20
400.94329986294031
 30
0.0
 11
266.95665930400992
 21
400.73265837516209
 31
0.0
  0
LINE
  5
2CB09
  8
0
 10
277.37035870573442
 20
405.38388015352479
 30
0.0
 11
271.95048305371671
 21
405.38388015352479
 31
0.0
  0
LINE
  5
2CB0A
  8
0
 10
276.42723287730269
 20
400.6838801535248
 30
0.0
 11
271.95048305371671
 21
400.6838801535248
 31
0.0
  0
LINE
  5
2CB0B
  8
0
 10
271.95048305371671
 20
400.6838801535248
 30
0.0
 11
266.94039989679732
 21
400.6838801535248
 31
0.0
  0
LINE
  5
2CB0C
  8
0
 10
275.52723287730259
 20
458.98388015352469
 30
0.0
 11
266.47834709871722
 21
458.98388015352469
 31
0.0
  0
LINE
  5
2CB0D
  8
0
 10
274.69214044049068
 20
460.98388015352469
 30
0.0
 11
268.71748305371671
 21
460.98388015352481
 31
0.0
  0
LINE
  5
2CB0E
  8
0
 10
275.10339901722949
 20
460.21688015352481
 30
0.0
 11
267.95048305371671
 21
460.21688015352481
 31
0.0
  0
LINE
  5
2CB0F
  8
0
 10
277.91030367791222
 20
405.38388015352479
 30
0.0
 11
277.37035870573442
 21
405.38388015352479
 31
0.0
  0
LINE
  5
2CB18
  8
1
 10
183.75371189327529
 20
428.48388015352509
 30
0.0
 11
370.10136511700063
 21
428.48388015352458
 31
0.0
  0
LINE
  5
2CB19
  8
1
 10
310.9504830537166
 20
374.83299809024032
 30
0.0
 11
310.9504830537166
 21
482.13476221680889
 31
0.0
  0
CIRCLE
  5
2CB1A
  8
0
 10
310.9504830537162
 20
428.48388015352418
 30
0.0
 40
8.9249999999999972
  0
CIRCLE
  5
2CB1B
  8
0
 10
310.9504830537162
 20
428.48388015352418
 30
0.0
 40
13.579006893609151
  0
CIRCLE
  5
2CB1C
  8
0
 10
310.9504830537162
 20
428.48388015352418
 30
0.0
 40
20.175000000000001
  0
CIRCLE
  5
2CB1D
  8
0
 10
310.9504830537162
 20
428.48388015352418
 30
0.0
 40
25.668546822706869
  0
CIRCLE
  5
2CB1E
  8
0
 10
310.9504830537162
 20
428.48388015352418
 30
0.0
 40
27.174999999999962
  0
CIRCLE
  5
2CB1F
  8
0
 10
310.9504830537162
 20
428.48388015352418
 30
0.0
 40
31.175000000000001
  0
LINE
  5
2CB21
  8
1
 10
220.79960099043231
 20
179.74368873142009
 30
0.0
 11
323.10136511700102
 21
179.74368873142009
 31
0.0
  0
LINE
  5
2CB22
  8
1
 10
271.95048305371671
 20
128.59280666813569
 30
0.0
 11
271.95048305371671
 21
221.89838462016351
 31
0.0
  0
LINE
  5
2CB23
  8
1
 10
310.95048305371711
 20
254.73710445285991
 30
0.0
 11
310.95048305371711
 21
211.3607725247106
 31
0.0
  0
LINE
  5
2CB2C
  8
0
 10
275.56373338380718
 20
186.00202183328869
 30
0.0
 11
279.1769837138977
 21
179.74368873142009
 31
0.0
  0
LINE
  5
2CB2D
  8
0
 10
279.1769837138977
 20
179.74368873142009
 30
0.0
 11
275.56373338380718
 21
173.48535562955149
 31
0.0
  0
LINE
  5
2CB2E
  8
0
 10
268.33723272362607
 20
173.48535562955149
 30
0.0
 11
275.56373338380718
 21
173.48535562955149
 31
0.0
  0
LINE
  5
2CB2F
  8
0
 10
268.33723272362607
 20
186.00202183328869
 30
0.0
 11
275.56373338380718
 21
186.00202183328869
 31
0.0
  0
LINE
  5
2CB30
  8
0
 10
268.33382904559733
 20
186.00005548436849
 30
0.0
 11
264.7239834626252
 21
179.73975788529691
 31
0.0
  0
LINE
  5
2CB31
  8
0
 10
264.7239834626252
 20
179.73975788529691
 30
0.0
 11
268.34063747074458
 21
173.4833911323486
 31
0.0
  0
CIRCLE
  5
2CB32
  8
0
 10
271.95048305371671
 20
179.74368873142009
 30
0.0
 40
6.258333101868657
  0
ARC
  5
2CB33
  8
0
 10
271.95048305371671
 20
179.74368873142009
 30
0.0
 40
13.999999999999989
 50
206.18934930864859
 51
332.3527324244892
  0
ARC
  5
2CB34
  8
0
 10
271.95048305371671
 20
179.74368873142009
 30
0.0
 40
32.0
 50
122.4617449672384
 51
18.479701811847981
  0
ARC
  5
2CB35
  8
0
 10
271.95048305371671
 20
179.74368873142009
 30
0.0
 40
39.999999999999972
 50
137.5458497955905
 51
23.570811721398371
  0
ARC
  5
2CB36
  8
0
 10
271.95048305371671
 20
179.74368873142009
 30
0.0
 40
17.0
 50
137.8526095118502
 51
351.91892126239031
  0
ARC
  5
2CB37
  8
0
 10
271.95048305371671
 20
179.74368873142009
 30
0.0
 40
29.0
 50
111.4033496394096
 51
15.7668361169987
  0
LINE
  5
2CB38
  8
0
 10
257.85684432028069
 20
170.2374093724178
 30
0.0
 11
247.90839344962069
 21
163.5270945307683
 31
0.0
  0
LINE
  5
2CB39
  8
0
 10
287.22998184080228
 20
172.29137923600581
 30
0.0
 11
298.01551039639247
 21
167.0309254745369
 31
0.0
  0
ARC
  5
2CB3A
  8
0
 10
271.95048305371671
 20
179.74368873142009
 30
0.0
 40
25.696248171614329
 50
150.00000000000179
 51
214.00000000000409
  0
LINE
  5
2CB3B
  8
0
 10
271.95048305371671
 20
150.74368873142009
 30
0.0
 11
271.95048305371671
 21
162.5990616697535
 31
0.0
  0
ARC
  5
2CB3C
  8
0
 10
271.95048305371671
 20
179.74368873142009
 30
0.0
 40
25.696248171614311
 50
270.0
 51
334.0000000000025
  0
LINE
  5
2CB3D
  8
0
 10
246.9744233198771
 20
194.16362354204821
 30
0.0
 11
257.22805118938101
 21
188.2436887314197
 31
0.0
  0
LINE
  5
2CB3E
  8
0
 10
191.4671443567749
 20
220.86604323635891
 30
0.0
 11
194.68108240520769
 21
217.0358210207645
 31
0.0
  0
LINE
  5
2CB3F
  8
0
 10
193.3822554645721
 20
222.4730122605755
 30
0.0
 11
191.4671443567749
 21
220.86604323635891
 31
0.0
  0
LINE
  5
2CB40
  8
0
 10
196.01130462080249
 20
219.33983348353141
 30
0.0
 11
193.3822554645721
 21
222.4730122605755
 31
0.0
  0
LINE
  5
2CB41
  8
0
 10
212.17671105640599
 20
217.0955514259675
 30
0.0
 11
196.01130462080249
 21
219.33983348353141
 31
0.0
  0
LINE
  5
2CB42
  8
0
 10
211.493278669831
 20
219.6461558162049
 30
0.0
 11
211.187737027205
 21
219.8255245683398
 31
0.0
  0
LINE
  5
2CB43
  8
0
 10
194.68108240520769
 20
217.0358210207645
 30
0.0
 11
212.8906491048387
 21
214.4310983557601
 31
0.0
  0
LINE
  5
2CB44
  8
0
 10
208.92152463722601
 20
223.6021513415921
 30
0.0
 11
211.46555833074169
 21
223.25182799615089
 31
0.0
  0
LINE
  5
2CB45
  8
0
 10
208.4706063451263
 20
220.49171064747989
 30
0.0
 11
208.92152463722601
 21
223.6021513415921
 31
0.0
  0
LINE
  5
2CB46
  8
0
 10
211.12198594490559
 20
220.2045798381063
 30
0.0
 11
211.46555833074169
 21
223.25182799615089
 31
0.0
  0
LINE
  5
2CB47
  8
0
 10
208.4706063451263
 20
220.49171064747989
 30
0.0
 11
209.2085533376794
 21
217.50762786454601
 31
0.0
  0
LINE
  5
2CB48
  8
0
 10
211.12198594490559
 20
220.2045798381063
 30
0.0
 11
211.187737027205
 21
219.8255245683398
 31
0.0
  0
LINE
  5
2CB4C
  8
0
 10
191.46714355211111
 20
444.50540083684137
 30
0.0
 11
191.46714355211111
 21
412.46235947020779
 31
0.0
  0
LINE
  5
2CB4D
  8
0
 10
196.0113038161391
 20
447.483880153526
 30
0.0
 11
196.0113038161391
 21
409.48388015352589
 31
0.0
  0
LINE
  5
2CB4E
  8
0
 10
208.46714355211159
 20
444.483880153526
 30
0.0
 11
208.46714355211199
 21
412.48388015352549
 31
0.0
  0
LINE
  5
2CB4F
  8
0
 10
211.46714355211159
 20
447.483880153526
 30
0.0
 11
193.0612532507273
 21
447.483880153526
 31
0.0
  0
LINE
  5
2CB50
  8
0
 10
208.46714355211159
 20
444.483880153526
 30
0.0
 11
211.46714355211159
 21
444.483880153526
 31
0.0
  0
LINE
  5
2CB51
  8
0
 10
211.46714355211159
 20
409.48388015352589
 30
0.0
 11
193.0612532507273
 21
409.48388015352589
 31
0.0
  0
LINE
  5
2CB52
  8
0
 10
208.4671435521129
 20
412.48388015352549
 30
0.0
 11
211.4671435521125
 21
412.48388015352589
 31
0.0
  0
ARC
  5
2CB53
  8
0
 10
195.80358294575279
 20
444.10032912708073
 30
0.0
 40
4.3553174057440378
 50
129.0243741561741
 51
174.66342214698369
  0
ARC
  5
2CB54
  8
0
 10
195.80358294575279
 20
412.86743117997082
 30
0.0
 40
4.3553174057440378
 50
185.33657785301619
 51
230.97562584382581
  0
LINE
  5
2CB59
  8
1
 10
110.7645880227283
 20
257.89457079470452
 30
0.0
 11
110.7645880227283
 21
128.59280666813569
 31
0.0
  0
LINE
  5
2CB5A
  8
1
 10
150.88519440678101
 20
179.74368873142009
 30
0.0
 11
70.643981638675541
 21
179.74368873142009
 31
0.0
  0
LINE
  5
2CB5B
  8
1
 10
433.13637808470497
 20
257.89457079470452
 30
0.0
 11
433.13637808470497
 21
128.59280666813569
 31
0.0
  0
LINE
  5
2CB5C
  8
1
 10
393.01577170065229
 20
179.74368873142009
 30
0.0
 11
473.25698446875771
 21
179.74368873142009
 31
0.0
  0
LINE
  5
2CB9C
  8
3
 10
78.264588022728276
 20
182.97668873142021
 30
0.0
 11
80.264588022728276
 21
182.97668873142021
 31
0.0
  0
LINE
  5
2CB9D
  8
3
 10
78.264588022728276
 20
176.51068873142009
 30
0.0
 11
80.264588022728276
 21
176.51068873142009
 31
0.0
  0
LINE
  5
2CB9E
  8
3
 10
465.63637808470497
 20
176.51068873142009
 30
0.0
 11
463.63637808470497
 21
176.51068873142009
 31
0.0
  0
LINE
  5
2CB9F
  8
3
 10
268.71748305371671
 20
460.98388015352481
 30
0.0
 11
268.71748305371671
 21
458.98388015352469
 31
0.0
  0
LINE
  5
2CBA0
  8
1
 10
271.95048305371569
 20
381.83109117751093
 30
0.0
 11
271.95048305371569
 21
475.13666912953857
 31
0.0
  0
LINE
  5
2CBA1
  8
1
 10
264.21441507621557
 20
458.4838801535235
 30
0.0
 11
277.68655103121552
 21
458.4838801535235
 31
0.0
  0
LINE
  5
2CBA2
  8
1
 10
270.95048305371529
 20
451.74781217602379
 30
0.0
 11
270.95048305371529
 21
465.21994813102378
 31
0.0
  0
LINE
  5
2CBA3
  8
1
 10
266.71441507621557
 20
450.98388015352361
 30
0.0
 11
280.1865510312154
 21
450.98388015352361
 31
0.0
  0
LINE
  5
2CBA4
  8
1
 10
273.45048305371529
 20
444.24781217602379
 30
0.0
 11
273.45048305371529
 21
457.71994813102378
 31
0.0
  0
LINE
  5
2CBA5
  8
1
 10
341.71441507621557
 20
450.98388015352361
 30
0.0
 11
355.18655103121552
 21
450.98388015352361
 31
0.0
  0
LINE
  5
2CBA6
  8
1
 10
348.45048305371529
 20
444.24781217602379
 30
0.0
 11
348.45048305371529
 21
457.71994813102378
 31
0.0
  0
LINE
  5
2CBA7
  8
1
 10
344.21441507621557
 20
458.4838801535235
 30
0.0
 11
357.6865510312154
 21
458.4838801535235
 31
0.0
  0
LINE
  5
2CBA8
  8
1
 10
350.95048305371529
 20
451.74781217602379
 30
0.0
 11
350.95048305371529
 21
465.21994813102378
 31
0.0
  0
LINE
  5
2CBA9
  8
1
 10
341.7144150762137
 20
405.98388015352629
 30
0.0
 11
355.18655103121358
 21
405.98388015352538
 31
0.0
  0
LINE
  5
2CBAA
  8
1
 10
348.45048305371392
 20
412.71994813102549
 30
0.0
 11
348.45048305371301
 21
399.24781217602572
 31
0.0
  0
LINE
  5
2CBAB
  8
1
 10
344.21441507621279
 20
398.48388015352629
 30
0.0
 11
357.68655103121267
 21
398.48388015352498
 31
0.0
  0
LINE
  5
2CBAC
  8
1
 10
350.95048305371353
 20
405.21994813102509
 30
0.0
 11
350.95048305371211
 21
391.74781217602521
 31
0.0
  0
LINE
  5
2CBAD
  8
1
 10
280.18655103121858
 20
405.98388015352629
 30
0.0
 11
266.71441507621881
 21
405.98388015352538
 31
0.0
  0
LINE
  5
2CBAE
  8
1
 10
273.45048305371847
 20
412.71994813102549
 30
0.0
 11
273.45048305371938
 21
399.24781217602572
 31
0.0
  0
LINE
  5
2CBAF
  8
1
 10
277.68655103121949
 20
398.48388015352629
 30
0.0
 11
264.21441507621961
 21
398.48388015352498
 31
0.0
  0
LINE
  5
2CBB0
  8
1
 10
270.95048305371893
 20
405.21994813102509
 30
0.0
 11
270.95048305372029
 21
391.74781217602521
 31
0.0
  0
LINE
  5
2CBB1
  8
0
 10
129.7645880227285
 20
214.4310966868301
 30
0.0
 11
91.764588022728503
 21
214.4310966868301
 31
0.0
  0
LINE
  5
2CBB2
  8
0
 10
129.7645880227285
 20
214.4310966868301
 30
0.0
 11
129.7645880227285
 21
222.47301059164539
 31
0.0
  0
LINE
  5
2CBB3
  8
0
 10
129.7645880227285
 20
222.47301059164539
 30
0.0
 11
91.764588022728503
 21
222.47301059164539
 31
0.0
  0
LINE
  5
2CBB4
  8
0
 10
91.764588022728503
 20
214.4310966868301
 30
0.0
 11
91.764588022728503
 21
222.47301059164539
 31
0.0
  0
LINE
  5
2CBB5
  8
0
 10
91.764588022728503
 20
217.03581935183399
 30
0.0
 11
129.7645880227285
 21
217.03581935183399
 31
0.0
  0
LINE
  5
2CBB6
  8
0
 10
126.7645880227287
 20
222.47301059164539
 30
0.0
 11
126.7645880227287
 21
223.60214967266199
 31
0.0
  0
LINE
  5
2CBB7
  8
0
 10
126.7645880227287
 20
223.60214967266199
 30
0.0
 11
94.764588022728276
 21
223.60214967266199
 31
0.0
  0
LINE
  5
2CBB8
  8
0
 10
94.764588022728276
 20
222.47301059164539
 30
0.0
 11
94.764588022728276
 21
223.60214967266199
 31
0.0
  0
LINE
  5
2CBB9
  8
0
 10
452.1363780847052
 20
214.4310966868301
 30
0.0
 11
452.1363780847052
 21
223.28628144855909
 31
0.0
  0
LINE
  5
2CBBA
  8
0
 10
414.1363780847052
 20
214.4310966868301
 30
0.0
 11
414.1363780847052
 21
223.28628144855909
 31
0.0
  0
LINE
  5
2CBBB
  8
0
 10
414.1363780847052
 20
214.4310986125781
 30
0.0
 11
420.6363780847048
 21
214.4310986125781
 31
0.0
  0
LINE
  5
2CBBC
  8
0
 10
445.63637808470497
 20
214.4310986125781
 30
0.0
 11
452.1363780847052
 21
214.4310986125781
 31
0.0
  0
TEXT
  5
2CC1A
  8
0
 62
     3
 10
0.0
 20
0.0
 30
0.0
 40
10.0
  1
CAF5-080SSF
  7
STANDARD1
  0
ENDSEC
  0
EOF
