  0
SECTION
  2
HEADER
  9
$ACADVER
  1
AC1009
  9
$INSBASE
 10
0.0
 20
0.0
 30
0.0
  9
$EXTMIN
 10
0.0
 20
-2.960436562073669
 30
0.0
  9
$EXTMAX
 10
557.07768812085123
 20
423.60222181984682
 30
0.0
  9
$LIMMIN
 10
0.0
 20
0.0
  9
$LIMMAX
 10
375.0
 20
270.0
  9
$ORTHOMODE
 70
     1
  9
$REGENMODE
 70
     1
  9
$FILLMODE
 70
     1
  9
$QTEXTMODE
 70
     0
  9
$MIRRTEXT
 70
     1
  9
$DRAGMODE
 70
     2
  9
$LTSCALE
 40
10.0
  9
$OSMODE
 70
    37
  9
$ATTMODE
 70
     1
  9
$TEXTSIZE
 40
5.0
  9
$TRACEWID
 40
0.05
  9
$TEXTSTYLE
  7
STANDARD
  9
$CLAYER
  8
0
  9
$CELTYPE
  6
BYLAYER
  9
$CECOLOR
 62
     6
  9
$DIMSCALE
 40
2.0
  9
$DIMASZ
 40
3.0
  9
$DIMEXO
 40
2.0
  9
$DIMDLI
 40
0.38
  9
$DIMRND
 40
0.0
  9
$DIMDLE
 40
0.0
  9
$DIMEXE
 40
2.0
  9
$DIMTP
 40
0.0
  9
$DIMTM
 40
0.0
  9
$DIMTXT
 40
3.2000000000000002
  9
$DIMCEN
 40
0.0
  9
$DIMTSZ
 40
0.0
  9
$DIMTOL
 70
     0
  9
$DIMLIM
 70
     0
  9
$DIMTIH
 70
     0
  9
$DIMTOH
 70
     0
  9
$DIMSE1
 70
     0
  9
$DIMSE2
 70
     0
  9
$DIMTAD
 70
     1
  9
$DIMZIN
 70
     8
  9
$DIMBLK
  1

  9
$DIMASO
 70
     0
  9
$DIMSHO
 70
     0
  9
$DIMPOST
  1

  9
$DIMAPOST
  1

  9
$DIMALT
 70
     0
  9
$DIMALTD
 70
     2
  9
$DIMALTF
 40
25.399999999999999
  9
$DIMLFAC
 40
1.0
  9
$DIMTOFL
 70
     0
  9
$DIMTVP
 40
1.6000000000000001
  9
$DIMTIX
 70
     1
  9
$DIMSOXD
 70
     0
  9
$DIMSAH
 70
     0
  9
$DIMBLK1
  1

  9
$DIMBLK2
  1

  9
$DIMSTYLE
  2
STANDARD
  9
$DIMCLRD
 70
     0
  9
$DIMCLRE
 70
     0
  9
$DIMCLRT
 70
     0
  9
$DIMTFAC
 40
1.0
  9
$DIMGAP
 40
1.1999999999999991
  9
$LUNITS
 70
     2
  9
$LUPREC
 70
     4
  9
$SKETCHINC
 40
0.1
  9
$FILLETRAD
 40
0.0
  9
$AUNITS
 70
     0
  9
$AUPREC
 70
     4
  9
$MENU
  1
ACAD
  9
$ELEVATION
 40
0.0
  9
$PELEVATION
 40
0.0
  9
$THICKNESS
 40
0.0
  9
$LIMCHECK
 70
     0
  9
$BLIPMODE
 70
     0
  9
$CHAMFERA
 40
0.0
  9
$CHAMFERB
 40
0.0
  9
$SKPOLY
 70
     0
  9
$TDCREATE
 40
2448055.7149187499
  9
$TDUPDATE
 40
2459565.4849006021
  9
$TDINDWG
 40
2.9904402546000002
  9
$TDUSRTIMER
 40
2.9904402546000002
  9
$USRTIMER
 70
     1
  9
$ANGBASE
 50
0.0
  9
$ANGDIR
 70
     0
  9
$PDMODE
 70
     0
  9
$PDSIZE
 40
0.0
  9
$PLINEWID
 40
0.0
  9
$COORDS
 70
     1
  9
$SPLFRAME
 70
     0
  9
$SPLINETYPE
 70
     6
  9
$SPLINESEGS
 70
     8
  9
$ATTDIA
 70
     0
  9
$ATTREQ
 70
     1
  9
$HANDLING
 70
     1
  9
$HANDSEED
  5
2D59F
  9
$SURFTAB1
 70
     6
  9
$SURFTAB2
 70
     6
  9
$SURFTYPE
 70
     6
  9
$SURFU
 70
     6
  9
$SURFV
 70
     6
  9
$UCSNAME
  2

  9
$UCSORG
 10
0.0
 20
0.0
 30
0.0
  9
$UCSXDIR
 10
1.0
 20
0.0
 30
0.0
  9
$UCSYDIR
 10
0.0
 20
1.0
 30
0.0
  9
$PUCSNAME
  2

  9
$PUCSORG
 10
0.0
 20
0.0
 30
0.0
  9
$PUCSXDIR
 10
1.0
 20
0.0
 30
0.0
  9
$PUCSYDIR
 10
0.0
 20
1.0
 30
0.0
  9
$USERI1
 70
     0
  9
$USERI2
 70
     0
  9
$USERI3
 70
     0
  9
$USERI4
 70
     0
  9
$USERI5
 70
     0
  9
$USERR1
 40
0.0
  9
$USERR2
 40
0.0
  9
$USERR3
 40
0.0
  9
$USERR4
 40
0.0
  9
$USERR5
 40
0.0
  9
$WORLDVIEW
 70
     1
  9
$SHADEDGE
 70
     3
  9
$SHADEDIF
 70
    70
  9
$TILEMODE
 70
     1
  9
$MAXACTVP
 70
    16
  9
$PLIMCHECK
 70
     0
  9
$PEXTMIN
 10
1.0000000000000000E+020
 20
1.0000000000000000E+020
 30
1.0000000000000000E+020
  9
$PEXTMAX
 10
-1.0000000000000000E+020
 20
-1.0000000000000000E+020
 30
-1.0000000000000000E+020
  9
$PLIMMIN
 10
0.0
 20
0.0
  9
$PLIMMAX
 10
12.0
 20
9.0
  9
$UNITMODE
 70
     0
  9
$VISRETAIN
 70
     0
  9
$PLINEGEN
 70
     1
  9
$PSLTSCALE
 70
     0
  0
ENDSEC
  0
SECTION
  2
TABLES
  0
TABLE
  2
VPORT
 70
     1
  0
VPORT
  2
*ACTIVE
 70
     0
 10
0.0
 20
0.0
 11
1.0
 21
1.0
 12
477.22104420926411
 22
210.3144762590932
 13
0.0
 23
0.0
 14
5.0
 24
5.0
 15
10.0
 25
10.0
 16
0.0
 26
0.0
 36
1.0
 17
0.0
 27
0.0
 37
0.0
 40
430.42166832008098
 41
2.3805970149253728
 42
50.0
 43
0.0
 44
0.0
 50
0.0
 51
0.0
 71
     0
 72
   500
 73
     1
 74
     1
 75
     0
 76
     0
 77
     0
 78
     2
  0
ENDTAB
  0
TABLE
  2
LTYPE
 70
     4
  0
LTYPE
  2
CONTINUOUS
 70
     0
  3
実線
 72
    65
 73
     0
 40
0.0
  0
LTYPE
  2
CENTER
 70
     0
  3
____ _ ____ _ ____ _ ____ _ ____ _ ____ _ ____
 72
    65
 73
     4
 40
2.0
 49
1.25
 49
-0.25
 49
0.25
 49
-0.25
  0
LTYPE
  2
HIDDEN
 70
     0
  3
_ _ _ _ _ _ _ _ _ _ _ _ _ _ _ _ _ _ _ _ _ _ _
 72
    65
 73
     2
 40
0.375
 49
0.25
 49
-0.125
  0
LTYPE
  2
PHANTOM2
 70
     0
  3
___ _ _ ___ _ _ ___ _ _ ___ _ _
 72
    65
 73
     6
 40
1.25
 49
0.625
 49
-0.125
 49
0.125
 49
-0.125
 49
0.125
 49
-0.125
  0
ENDTAB
  0
TABLE
  2
LAYER
 70
     5
  0
LAYER
  2
0
 70
     0
 62
     7
  6
CONTINUOUS
  0
LAYER
  2
1
 70
     0
 62
     1
  6
CENTER
  0
LAYER
  2
2
 70
     0
 62
     2
  6
HIDDEN
  0
LAYER
  2
DEFPOINTS
 70
     0
 62
     7
  6
CONTINUOUS
  0
LAYER
  2
3
 70
     0
 62
     3
  6
CONTINUOUS
  0
ENDTAB
  0
TABLE
  2
STYLE
 70
     3
  0
STYLE
  2
STANDARD
 70
     0
 40
0.0
 41
1.0
 50
0.0
 71
     0
 42
5.0
  3
simplex.shx
  4
bigfont.shx
  0
STYLE
  2
07500
 70
     0
 40
0.0
 41
0.75
 50
0.0
 71
     0
 42
0.2
  3
simplex.shx
  4
bigfont.shx
  0
STYLE
  2
STANDARD1
 70
     0
 40
0.0
 41
1.0
 50
0.0
 71
     0
 42
3.0
  3
txt
  4

  0
ENDTAB
  0
TABLE
  2
VIEW
 70
     2
  0
VIEW
  2
ALL
 70
     0
 40
270.0
 10
220.99159663865549
 20
135.0
 41
0.0
 11
0.0
 21
0.0
 31
1.0
 12
0.0
 22
0.0
 32
0.0
 42
0.0
 43
0.0
 44
0.0
 50
0.0
 71
     0
  0
VIEW
  2
OLE1
 70
     0
 40
168.2487151179721
 10
2892.3009567448912
 20
702.51600084347126
 41
162.5749581879237
 11
0.0
 21
0.0
 31
1.0
 12
0.0
 22
0.0
 32
0.0
 42
50.0
 43
0.0
 44
0.0
 50
0.0
 71
     0
  0
ENDTAB
  0
TABLE
  2
UCS
 70
     0
  0
ENDTAB
  0
TABLE
  2
APPID
 70
    48
  0
APPID
  2
ACAD
 70
     0
  0
APPID
  2
DCO15
 70
     0
  0
APPID
  2
GENIUS_GENOREF_13
 70
     0
  0
APPID
  2
GENIUS_GENOENT_13
 70
     0
  0
APPID
  2
GENIUS_GENBH_13
 70
     0
  0
APPID
  2
GENIUS_GENOBJ_13
 70
     0
  0
APPID
  2
GENIUS_GENODEF_13
 70
     0
  0
APPID
  2
GENIUS_GENOLIS_13
 70
     0
  0
APPID
  2
GENIUS_GENOBJ-NBEHI-BHF_13
 70
     0
  0
APPID
  2
GENIUS_GENOBJ-NBEHI-BHB_13
 70
     0
  0
APPID
  2
GENIUS_GENOBJ-F-PART_13
 70
     0
  0
APPID
  2
GENIUS_GEFSTDP_13
 70
     0
  0
APPID
  2
GENIUS_GENOBJ-N-RSSYM_13
 70
     0
  0
APPID
  2
GENIUS_GENSYMENT_13
 70
     0
  0
APPID
  2
GENIUS_GENOBJ-N-TIT_13
 70
     0
  0
APPID
  2
GENIUS_GENTITLE_13
 70
     0
  0
APPID
  2
GENIUS_GENZVEED_13
 70
     0
  0
APPID
  2
GENIUS_GENOBJ-N-LEADER_13
 70
     0
  0
APPID
  2
GENIUS_GENOBJ-N-FIL_13
 70
     0
  0
APPID
  2
GENIUS_GENOBJ-N-SEC_13
 70
     0
  0
APPID
  2
GENIUS_GENOBJ-N-CRS_13
 70
     0
  0
APPID
  2
GENIUS_GENOBJ-N-ZOO_13
 70
     0
  0
APPID
  2
GENIUS_GENZOO_13
 70
     0
  0
APPID
  2
GENIUS_GENOBJ-F-TOL_13
 70
     0
  0
APPID
  2
GENIUS_GENFIL_13
 70
     0
  0
APPID
  2
GENIUS_GENOBJ-N-CHA_13
 70
     0
  0
APPID
  2
_CALL_MAC$
 70
     0
  0
APPID
  2
ASM_BASE
 70
     0
  0
APPID
  2
ASM_EXPLO_VER_2_00
 70
     0
  0
APPID
  2
ASM_CADM_VER_12_00
 70
     0
  0
APPID
  2
ASM_BASEFORO
 70
     0
  0
APPID
  2
ASM_BASETRAVI
 70
     0
  0
APPID
  2
ASM_BASETRAVI1
 70
     0
  0
APPID
  2
ASM_GRUPPI
 70
     0
  0
APPID
  2
ASM_CADM_ALBERO
 70
     0
  0
APPID
  2
ASM_GOLE
 70
     0
  0
APPID
  2
ACAD_MLEADERVER
 70
     0
  0
APPID
  2
ACAD_DSTYLE_DIMJAG
 70
     0
  0
APPID
  2
ACAD_DSTYLE_DIMTALN
 70
     0
  0
APPID
  2
ACAD_EXEMPT_FROM_CAD_STANDARDS
 70
     0
  0
APPID
  2
ACAD_DSTYLE_DIMRADIAL_EXTENSION
 70
     0
  0
APPID
  2
ACAD_PSEXT
 70
     0
  0
APPID
  2
ACAD_DSTYLE_DIMBREAK
 70
     0
  0
APPID
  2
ACAECLAYERSTANDARD
 70
     0
  0
APPID
  2
ACCMTRANSPARENCY
 70
     0
  0
APPID
  2
GRADIENTCOLOR1ACI
 70
     0
  0
APPID
  2
GRADIENTCOLOR2ACI
 70
     0
  0
APPID
  2
ACAD_NAV_VCDISPLAY
 70
     0
  0
ENDTAB
  0
TABLE
  2
DIMSTYLE
 70
     1
  0
DIMSTYLE
  2
STANDARD
 70
     0
  3

  4

  5

  6

  7

 40
1.0
 41
0.18
 42
0.0625
 43
0.38
 44
0.18
 45
0.0
 46
0.0
 47
0.0
 48
0.0
140
0.18
141
0.09
142
0.0
143
25.399999999999999
144
1.0
145
0.0
146
1.0
147
0.09
 71
     0
 72
     0
 73
     1
 74
     1
 75
     0
 76
     0
 77
     0
 78
     0
170
     0
171
     2
172
     0
173
     0
174
     0
175
     0
176
     0
177
     0
178
     0
  0
ENDTAB
  0
ENDSEC
  0
SECTION
  2
BLOCKS
  0
BLOCK
  8
0
  2
$MODEL_SPACE
 70
     0
 10
0.0
 20
0.0
 30
0.0
  3
$MODEL_SPACE
  1

  0
ENDBLK
  5
36
  8
0
  0
BLOCK
 67
     1
  8
0
  2
$PAPER_SPACE
 70
     0
 10
0.0
 20
0.0
 30
0.0
  3
$PAPER_SPACE
  1

  0
ENDBLK
  5
34
 67
     1
  8
0
  0
ENDSEC
  0
SECTION
  2
ENTITIES
  0
LINE
  5
1DBDB
  8
0
 10
304.2023159840428
 20
353.08045729116247
 30
0.0
 11
304.2023159840428
 21
352.98045729116262
 31
0.0
  0
LINE
  5
1DBDC
  8
0
 10
304.2023159840428
 20
402.98045729116262
 30
0.0
 11
304.2023159840428
 21
402.8804572911626
 31
0.0
  0
CIRCLE
  5
1DBE2
  8
0
 10
353.90231598404262
 20
377.98045729116262
 30
0.0
 40
11.0
  0
CIRCLE
  5
1DBE3
  8
0
 10
353.90231598404262
 20
377.98045729116262
 30
0.0
 40
28.025000000000009
  0
CIRCLE
  5
1DBE4
  8
0
 10
353.90231598404262
 20
377.98045729116262
 30
0.0
 40
31.025000000000009
  0
CIRCLE
  5
1DBE5
  8
0
 10
353.90231598404262
 20
377.98045729116262
 30
0.0
 40
32.5
  0
CIRCLE
  5
1DBE6
  8
0
 10
353.90231598404262
 20
377.98045729116262
 30
0.0
 40
36.5
  0
LINE
  5
1DBEA
  8
0
 10
310.90231598404262
 20
402.98045729116262
 30
0.0
 11
310.90231598404262
 21
352.98045729116262
 31
0.0
  0
LINE
  5
1DBEF
  8
0
 10
327.3081436900984
 20
352.98045729116262
 30
0.0
 11
304.2023159840428
 21
352.98045729116262
 31
0.0
  0
LINE
  5
1DBF2
  8
0
 10
304.2023159840428
 20
402.98045729116262
 30
0.0
 11
327.3081436900984
 21
402.98045729116262
 31
0.0
  0
LINE
  5
1DBF4
  8
0
 10
304.26420283282141
 20
352.98045729116262
 30
0.0
 11
304.26420283282141
 21
353.08045729116247
 31
0.0
  0
LINE
  5
1DBF7
  8
0
 10
304.26420283282141
 20
402.8804572911626
 30
0.0
 11
304.26420283282141
 21
402.98045729116262
 31
0.0
  0
LINE
  5
1DBF8
  8
0
 10
310.90231598404262
 20
353.08045729116247
 30
0.0
 11
258.41897648243821
 21
353.08045729116247
 31
0.0
  0
LINE
  5
1DBF9
  8
0
 10
310.90231598404262
 20
402.8804572911626
 30
0.0
 11
258.41897648243821
 21
402.8804572911626
 31
0.0
  0
LINE
  5
1DBFA
  8
0
 10
306.93563698083341
 20
353.08045729116247
 30
0.0
 11
306.93563698083341
 21
402.8804572911626
 31
0.0
  0
LINE
  5
1DC02
  8
0
 10
258.41897648243821
 20
353.08045729116247
 30
0.0
 11
258.41897648243821
 21
402.8804572911626
 31
0.0
  0
CIRCLE
  5
1DC13
  8
0
 10
353.90231598404262
 20
377.98045729116262
 30
0.0
 40
6.0
  0
LINE
  5
1DC14
  8
1
 10
231.30886722793821
 20
377.98045729116262
 30
0.0
 11
399.52408051272693
 21
377.98045729116262
 31
0.0
  0
LINE
  5
1DC15
  8
1
 10
353.90231598404262
 20
332.35869276247831
 30
0.0
 11
353.90231598404262
 21
423.60222181984682
 31
0.0
  0
LINE
  5
1DC16
  8
0
 10
313.08731598404262
 20
352.98045729116262
 30
0.0
 11
313.08731598404262
 21
352.38045729116271
 31
0.0
  0
LINE
  5
1DC17
  8
0
 10
324.71731598404273
 20
352.38045729116271
 30
0.0
 11
324.71731598404273
 21
352.98045729116262
 31
0.0
  0
LINE
  5
1DC18
  8
0
 10
314.90231598404262
 20
412.21345729116268
 30
0.0
 11
314.90231598404262
 21
410.98045729116262
 31
0.0
  0
LINE
  5
1DC19
  8
0
 10
322.90231598404262
 20
410.98045729116262
 30
0.0
 11
322.90231598404262
 21
412.21345729116268
 31
0.0
  0
LINE
  5
1DC1A
  8
0
 10
315.6693159840425
 20
412.98045729116251
 30
0.0
 11
314.90231598404262
 21
412.21345729116268
 31
0.0
  0
LINE
  5
1DC1B
  8
0
 10
322.90231598404262
 20
412.21345729116268
 30
0.0
 11
322.13531598404279
 21
412.98045729116251
 31
0.0
  0
LINE
  5
1DC1C
  8
0
 10
325.16064931737583
 20
347.68045729116238
 30
0.0
 11
326.1288168533992
 21
347.93987700057818
 31
0.0
  0
LINE
  5
1DC1D
  8
0
 10
311.67581511468597
 20
347.93987700057818
 30
0.0
 11
312.6439826507094
 21
347.68045729116238
 31
0.0
  0
LINE
  5
1DC1E
  8
0
 10
326.1288168533992
 20
352.12103758174732
 30
0.0
 11
325.16064931737583
 21
352.38045729116271
 31
0.0
  0
LINE
  5
1DC1F
  8
0
 10
312.6439826507094
 20
352.38045729116271
 30
0.0
 11
311.67581511468597
 21
352.12103758174732
 31
0.0
  0
LINE
  5
1DC22
  8
0
 10
313.08731598404262
 20
410.98045729116262
 30
0.0
 11
313.08731598404262
 21
408.48045729116251
 31
0.0
  0
LINE
  5
1DC23
  8
0
 10
324.71731598404273
 20
408.48045729116251
 30
0.0
 11
324.71731598404273
 21
410.98045729116262
 31
0.0
  0
LINE
  5
1DC24
  8
0
 10
325.16064931737583
 20
402.98045729116262
 30
0.0
 11
326.1288168533992
 21
403.23987700057791
 31
0.0
  0
LINE
  5
1DC25
  8
0
 10
311.67581511468597
 20
403.23987700057791
 30
0.0
 11
312.6439826507094
 21
402.98045729116262
 31
0.0
  0
LINE
  5
1DC26
  8
0
 10
326.1288168533992
 20
408.22103758174723
 30
0.0
 11
325.16064931737583
 21
408.48045729116251
 31
0.0
  0
LINE
  5
1DC27
  8
0
 10
312.6439826507094
 20
408.48045729116251
 30
0.0
 11
311.67581511468597
 21
408.22103758174723
 31
0.0
  0
LINE
  5
1DC2C
  8
0
 10
322.90231598404262
 20
412.21345729116268
 30
0.0
 11
314.90231598404262
 21
412.21345729116268
 31
0.0
  0
LINE
  5
1DC2D
  8
0
 10
322.13531598404279
 20
412.98045729116251
 30
0.0
 11
315.6693159840425
 21
412.98045729116251
 31
0.0
  0
LINE
  5
1DC2E
  8
0
 10
325.16064931737583
 20
347.68045729116238
 30
0.0
 11
312.6439826507094
 21
347.68045729116238
 31
0.0
  0
LINE
  5
1DC2F
  8
0
 10
325.16064931737583
 20
352.38045729116271
 30
0.0
 11
312.6439826507094
 21
352.38045729116271
 31
0.0
  0
POLYLINE
  5
1DC30
  8
0
 66
     1
 10
0.0
 20
0.0
 30
0.0
  0
VERTEX
  5
2D247
  8
0
 10
315.2890655493643
 20
347.93987700057818
 30
0.0
  0
VERTEX
  5
2D248
  8
0
 10
314.96449165369182
 20
347.8590323473199
 30
0.0
  0
VERTEX
  5
2D249
  8
0
 10
314.35493107492039
 20
347.7444220085668
 30
0.0
  0
VERTEX
  5
2D24A
  8
0
 10
313.77252290334451
 20
347.68764742478243
 30
0.0
  0
VERTEX
  5
2D24B
  8
0
 10
313.48244033202491
 20
347.68045729116238
 30
0.0
  0
SEQEND
  5
2D24C
  8
0
  0
POLYLINE
  5
1DC31
  8
0
 66
     1
 10
0.0
 20
0.0
 30
0.0
  0
VERTEX
  5
2D24D
  8
0
 10
313.48244033202491
 20
347.68045729116238
 30
0.0
  0
VERTEX
  5
2D24E
  8
0
 10
313.19235776070542
 20
347.68764742478243
 30
0.0
  0
VERTEX
  5
2D24F
  8
0
 10
312.60994958912988
 20
347.7444220085668
 30
0.0
  0
VERTEX
  5
2D250
  8
0
 10
312.00038901035811
 20
347.8590323473199
 30
0.0
  0
VERTEX
  5
2D251
  8
0
 10
311.67581511468597
 20
347.93987700057818
 30
0.0
  0
SEQEND
  5
2D252
  8
0
  0
POLYLINE
  5
1DC32
  8
0
 66
     1
 10
0.0
 20
0.0
 30
0.0
  0
VERTEX
  5
2D253
  8
0
 10
311.67581511468597
 20
352.12103758174732
 30
0.0
  0
VERTEX
  5
2D254
  8
0
 10
312.00038901035811
 20
352.20188223500509
 30
0.0
  0
VERTEX
  5
2D255
  8
0
 10
312.60994958912988
 20
352.3164925737583
 30
0.0
  0
VERTEX
  5
2D256
  8
0
 10
313.19235776070542
 20
352.37326715754261
 30
0.0
  0
VERTEX
  5
2D257
  8
0
 10
313.48244033202491
 20
352.38045729116271
 30
0.0
  0
SEQEND
  5
2D258
  8
0
  0
POLYLINE
  5
1DC33
  8
0
 66
     1
 10
0.0
 20
0.0
 30
0.0
  0
VERTEX
  5
2D259
  8
0
 10
313.48244033202491
 20
352.38045729116271
 30
0.0
  0
VERTEX
  5
2D25A
  8
0
 10
313.77252290334451
 20
352.37326715754261
 30
0.0
  0
VERTEX
  5
2D25B
  8
0
 10
314.35493107492039
 20
352.3164925737583
 30
0.0
  0
VERTEX
  5
2D25C
  8
0
 10
314.96449165369182
 20
352.20188223500509
 30
0.0
  0
VERTEX
  5
2D25D
  8
0
 10
315.2890655493643
 20
352.12103758174732
 30
0.0
  0
SEQEND
  5
2D25E
  8
0
  0
LINE
  5
1DC34
  8
0
 10
311.67581511468597
 20
347.93987700057818
 30
0.0
 11
311.67581511468597
 21
352.12103758174732
 31
0.0
  0
POLYLINE
  5
1DC3D
  8
0
 66
     1
 10
0.0
 20
0.0
 30
0.0
  0
VERTEX
  5
2D25F
  8
0
 10
324.32219163606032
 20
352.38045729116271
 30
0.0
  0
VERTEX
  5
2D260
  8
0
 10
324.61227420737993
 20
352.37326715754261
 30
0.0
  0
VERTEX
  5
2D261
  8
0
 10
325.19468237895541
 20
352.3164925737583
 30
0.0
  0
VERTEX
  5
2D262
  8
0
 10
325.80424295772718
 20
352.20188223500509
 30
0.0
  0
VERTEX
  5
2D263
  8
0
 10
326.1288168533992
 20
352.12103758174732
 30
0.0
  0
SEQEND
  5
2D264
  8
0
  0
POLYLINE
  5
1DC3E
  8
0
 66
     1
 10
0.0
 20
0.0
 30
0.0
  0
VERTEX
  5
2D265
  8
0
 10
326.1288168533992
 20
347.93987700057818
 30
0.0
  0
VERTEX
  5
2D266
  8
0
 10
325.80424295772718
 20
347.8590323473199
 30
0.0
  0
VERTEX
  5
2D267
  8
0
 10
325.19468237895541
 20
347.7444220085668
 30
0.0
  0
VERTEX
  5
2D268
  8
0
 10
324.61227420737993
 20
347.68764742478243
 30
0.0
  0
VERTEX
  5
2D269
  8
0
 10
324.32219163606032
 20
347.68045729116238
 30
0.0
  0
SEQEND
  5
2D26A
  8
0
  0
POLYLINE
  5
1DC3F
  8
0
 66
     1
 10
0.0
 20
0.0
 30
0.0
  0
VERTEX
  5
2D26B
  8
0
 10
324.32219163606032
 20
347.68045729116238
 30
0.0
  0
VERTEX
  5
2D26C
  8
0
 10
324.03210906474078
 20
347.68764742478243
 30
0.0
  0
VERTEX
  5
2D26D
  8
0
 10
323.44970089316479
 20
347.7444220085668
 30
0.0
  0
VERTEX
  5
2D26E
  8
0
 10
322.84014031439341
 20
347.8590323473199
 30
0.0
  0
VERTEX
  5
2D26F
  8
0
 10
322.51556641872088
 20
347.93987700057818
 30
0.0
  0
SEQEND
  5
2D270
  8
0
  0
POLYLINE
  5
1DC40
  8
0
 66
     1
 10
0.0
 20
0.0
 30
0.0
  0
VERTEX
  5
2D271
  8
0
 10
322.51556641872088
 20
352.12103758174732
 30
0.0
  0
VERTEX
  5
2D272
  8
0
 10
322.84014031439341
 20
352.20188223500509
 30
0.0
  0
VERTEX
  5
2D273
  8
0
 10
323.44970089316479
 20
352.3164925737583
 30
0.0
  0
VERTEX
  5
2D274
  8
0
 10
324.03210906474078
 20
352.37326715754261
 30
0.0
  0
VERTEX
  5
2D275
  8
0
 10
324.32219163606032
 20
352.38045729116271
 30
0.0
  0
SEQEND
  5
2D276
  8
0
  0
LINE
  5
1DC44
  8
0
 10
326.1288168533992
 20
347.93987700057818
 30
0.0
 11
326.1288168533992
 21
352.12103758174732
 31
0.0
  0
POLYLINE
  5
1DC46
  8
0
 66
     1
 10
0.0
 20
0.0
 30
0.0
  0
VERTEX
  5
2D277
  8
0
 10
318.90231598404262
 20
352.38045729116271
 30
0.0
  0
VERTEX
  5
2D278
  8
0
 10
319.48248112668171
 20
352.37326715754261
 30
0.0
  0
VERTEX
  5
2D279
  8
0
 10
320.64729746983272
 20
352.3164925737583
 30
0.0
  0
VERTEX
  5
2D27A
  8
0
 10
321.86641862737679
 20
352.20188223500509
 30
0.0
  0
VERTEX
  5
2D27B
  8
0
 10
322.51556641872088
 20
352.12103758174732
 30
0.0
  0
SEQEND
  5
2D27C
  8
0
  0
LINE
  5
1DC47
  8
0
 10
322.51556641872088
 20
347.93987700057818
 30
0.0
 11
322.51556641872088
 21
352.12103758174732
 31
0.0
  0
POLYLINE
  5
1DC48
  8
0
 66
     1
 10
0.0
 20
0.0
 30
0.0
  0
VERTEX
  5
2D27D
  8
0
 10
322.51556641872088
 20
347.93987700057818
 30
0.0
  0
VERTEX
  5
2D27E
  8
0
 10
321.86641862737679
 20
347.8590323473199
 30
0.0
  0
VERTEX
  5
2D27F
  8
0
 10
320.64729746983272
 20
347.7444220085668
 30
0.0
  0
VERTEX
  5
2D280
  8
0
 10
319.48248112668171
 20
347.68764742478243
 30
0.0
  0
VERTEX
  5
2D281
  8
0
 10
318.90231598404262
 20
347.68045729116238
 30
0.0
  0
SEQEND
  5
2D282
  8
0
  0
POLYLINE
  5
1DC49
  8
0
 66
     1
 10
0.0
 20
0.0
 30
0.0
  0
VERTEX
  5
2D283
  8
0
 10
318.90231598404262
 20
347.68045729116238
 30
0.0
  0
VERTEX
  5
2D284
  8
0
 10
318.32215084140353
 20
347.68764742478243
 30
0.0
  0
VERTEX
  5
2D285
  8
0
 10
317.15733449825262
 20
347.7444220085668
 30
0.0
  0
VERTEX
  5
2D286
  8
0
 10
315.93821334070839
 20
347.8590323473199
 30
0.0
  0
VERTEX
  5
2D287
  8
0
 10
315.2890655493643
 20
347.93987700057818
 30
0.0
  0
SEQEND
  5
2D288
  8
0
  0
LINE
  5
1DC4A
  8
0
 10
315.2890655493643
 20
347.93987700057818
 30
0.0
 11
315.2890655493643
 21
352.12103758174732
 31
0.0
  0
POLYLINE
  5
1DC4B
  8
0
 66
     1
 10
0.0
 20
0.0
 30
0.0
  0
VERTEX
  5
2D289
  8
0
 10
315.2890655493643
 20
352.12103758174732
 30
0.0
  0
VERTEX
  5
2D28A
  8
0
 10
315.93821334070839
 20
352.20188223500509
 30
0.0
  0
VERTEX
  5
2D28B
  8
0
 10
317.15733449825262
 20
352.3164925737583
 30
0.0
  0
VERTEX
  5
2D28C
  8
0
 10
318.32215084140353
 20
352.37326715754261
 30
0.0
  0
VERTEX
  5
2D28D
  8
0
 10
318.90231598404262
 20
352.38045729116271
 30
0.0
  0
SEQEND
  5
2D28E
  8
0
  0
LINE
  5
1DC4C
  8
0
 10
324.71731598404273
 20
410.98045729116262
 30
0.0
 11
313.08731598404262
 21
410.98045729116262
 31
0.0
  0
LINE
  5
1DC4D
  8
0
 10
325.16064931737583
 20
408.48045729116251
 30
0.0
 11
312.6439826507094
 21
408.48045729116251
 31
0.0
  0
POLYLINE
  5
1DC4E
  8
0
 66
     1
 10
0.0
 20
0.0
 30
0.0
  0
VERTEX
  5
2D28F
  8
0
 10
315.2890655493643
 20
403.23987700057791
 30
0.0
  0
VERTEX
  5
2D290
  8
0
 10
314.96449165369182
 20
403.15903234732008
 30
0.0
  0
VERTEX
  5
2D291
  8
0
 10
314.35493107492039
 20
403.04442200856681
 30
0.0
  0
VERTEX
  5
2D292
  8
0
 10
313.77252290334451
 20
402.98764742478261
 30
0.0
  0
VERTEX
  5
2D293
  8
0
 10
313.48244033202491
 20
402.98045729116262
 30
0.0
  0
SEQEND
  5
2D294
  8
0
  0
POLYLINE
  5
1DC4F
  8
0
 66
     1
 10
0.0
 20
0.0
 30
0.0
  0
VERTEX
  5
2D295
  8
0
 10
313.48244033202491
 20
402.98045729116262
 30
0.0
  0
VERTEX
  5
2D296
  8
0
 10
313.19235776070542
 20
402.98764742478261
 30
0.0
  0
VERTEX
  5
2D297
  8
0
 10
312.60994958912988
 20
403.04442200856681
 30
0.0
  0
VERTEX
  5
2D298
  8
0
 10
312.00038901035811
 20
403.15903234732008
 30
0.0
  0
VERTEX
  5
2D299
  8
0
 10
311.67581511468597
 20
403.23987700057791
 30
0.0
  0
SEQEND
  5
2D29A
  8
0
  0
POLYLINE
  5
1DC50
  8
0
 66
     1
 10
0.0
 20
0.0
 30
0.0
  0
VERTEX
  5
2D29B
  8
0
 10
311.67581511468597
 20
408.22103758174723
 30
0.0
  0
VERTEX
  5
2D29C
  8
0
 10
312.00038901035811
 20
408.301882235005
 30
0.0
  0
VERTEX
  5
2D29D
  8
0
 10
312.60994958912988
 20
408.41649257375821
 30
0.0
  0
VERTEX
  5
2D29E
  8
0
 10
313.19235776070542
 20
408.47326715754252
 30
0.0
  0
VERTEX
  5
2D29F
  8
0
 10
313.48244033202491
 20
408.48045729116251
 30
0.0
  0
SEQEND
  5
2D2A0
  8
0
  0
POLYLINE
  5
1DC51
  8
0
 66
     1
 10
0.0
 20
0.0
 30
0.0
  0
VERTEX
  5
2D2A1
  8
0
 10
313.48244033202491
 20
408.48045729116251
 30
0.0
  0
VERTEX
  5
2D2A2
  8
0
 10
313.77252290334451
 20
408.47326715754252
 30
0.0
  0
VERTEX
  5
2D2A3
  8
0
 10
314.35493107492039
 20
408.41649257375821
 30
0.0
  0
VERTEX
  5
2D2A4
  8
0
 10
314.96449165369182
 20
408.301882235005
 30
0.0
  0
VERTEX
  5
2D2A5
  8
0
 10
315.2890655493643
 20
408.22103758174723
 30
0.0
  0
SEQEND
  5
2D2A6
  8
0
  0
LINE
  5
1DC52
  8
0
 10
311.67581511468597
 20
403.23987700057791
 30
0.0
 11
311.67581511468597
 21
408.22103758174723
 31
0.0
  0
POLYLINE
  5
1DC5B
  8
0
 66
     1
 10
0.0
 20
0.0
 30
0.0
  0
VERTEX
  5
2D2A7
  8
0
 10
324.32219163606032
 20
408.48045729116251
 30
0.0
  0
VERTEX
  5
2D2A8
  8
0
 10
324.61227420737993
 20
408.47326715754252
 30
0.0
  0
VERTEX
  5
2D2A9
  8
0
 10
325.19468237895541
 20
408.41649257375821
 30
0.0
  0
VERTEX
  5
2D2AA
  8
0
 10
325.80424295772718
 20
408.301882235005
 30
0.0
  0
VERTEX
  5
2D2AB
  8
0
 10
326.1288168533992
 20
408.22103758174723
 30
0.0
  0
SEQEND
  5
2D2AC
  8
0
  0
POLYLINE
  5
1DC5C
  8
0
 66
     1
 10
0.0
 20
0.0
 30
0.0
  0
VERTEX
  5
2D2AD
  8
0
 10
326.1288168533992
 20
403.23987700057791
 30
0.0
  0
VERTEX
  5
2D2AE
  8
0
 10
325.80424295772718
 20
403.15903234732008
 30
0.0
  0
VERTEX
  5
2D2AF
  8
0
 10
325.19468237895541
 20
403.04442200856681
 30
0.0
  0
VERTEX
  5
2D2B0
  8
0
 10
324.61227420737993
 20
402.98764742478261
 30
0.0
  0
VERTEX
  5
2D2B1
  8
0
 10
324.32219163606032
 20
402.98045729116262
 30
0.0
  0
SEQEND
  5
2D2B2
  8
0
  0
POLYLINE
  5
1DC5D
  8
0
 66
     1
 10
0.0
 20
0.0
 30
0.0
  0
VERTEX
  5
2D2B3
  8
0
 10
324.32219163606032
 20
402.98045729116262
 30
0.0
  0
VERTEX
  5
2D2B4
  8
0
 10
324.03210906474078
 20
402.98764742478261
 30
0.0
  0
VERTEX
  5
2D2B5
  8
0
 10
323.4497008931653
 20
403.04442200856681
 30
0.0
  0
VERTEX
  5
2D2B6
  8
0
 10
322.84014031439341
 20
403.15903234732008
 30
0.0
  0
VERTEX
  5
2D2B7
  8
0
 10
322.51556641872088
 20
403.23987700057791
 30
0.0
  0
SEQEND
  5
2D2B8
  8
0
  0
POLYLINE
  5
1DC5E
  8
0
 66
     1
 10
0.0
 20
0.0
 30
0.0
  0
VERTEX
  5
2D2B9
  8
0
 10
322.51556641872088
 20
408.22103758174723
 30
0.0
  0
VERTEX
  5
2D2BA
  8
0
 10
322.84014031439341
 20
408.301882235005
 30
0.0
  0
VERTEX
  5
2D2BB
  8
0
 10
323.4497008931653
 20
408.41649257375821
 30
0.0
  0
VERTEX
  5
2D2BC
  8
0
 10
324.03210906474078
 20
408.47326715754252
 30
0.0
  0
VERTEX
  5
2D2BD
  8
0
 10
324.32219163606032
 20
408.48045729116251
 30
0.0
  0
SEQEND
  5
2D2BE
  8
0
  0
LINE
  5
1DC62
  8
0
 10
326.1288168533992
 20
403.23987700057791
 30
0.0
 11
326.1288168533992
 21
408.22103758174723
 31
0.0
  0
POLYLINE
  5
1DC64
  8
0
 66
     1
 10
0.0
 20
0.0
 30
0.0
  0
VERTEX
  5
2D2BF
  8
0
 10
318.90231598404262
 20
408.48045729116251
 30
0.0
  0
VERTEX
  5
2D2C0
  8
0
 10
319.48248112668171
 20
408.47326715754252
 30
0.0
  0
VERTEX
  5
2D2C1
  8
0
 10
320.64729746983272
 20
408.41649257375821
 30
0.0
  0
VERTEX
  5
2D2C2
  8
0
 10
321.86641862737679
 20
408.301882235005
 30
0.0
  0
VERTEX
  5
2D2C3
  8
0
 10
322.51556641872088
 20
408.22103758174723
 30
0.0
  0
SEQEND
  5
2D2C4
  8
0
  0
LINE
  5
1DC65
  8
0
 10
322.51556641872088
 20
403.23987700057791
 30
0.0
 11
322.51556641872088
 21
408.22103758174723
 31
0.0
  0
POLYLINE
  5
1DC66
  8
0
 66
     1
 10
0.0
 20
0.0
 30
0.0
  0
VERTEX
  5
2D2C5
  8
0
 10
322.51556641872088
 20
403.23987700057791
 30
0.0
  0
VERTEX
  5
2D2C6
  8
0
 10
321.86641862737679
 20
403.15903234732008
 30
0.0
  0
VERTEX
  5
2D2C7
  8
0
 10
320.64729746983272
 20
403.04442200856681
 30
0.0
  0
VERTEX
  5
2D2C8
  8
0
 10
319.48248112668171
 20
402.98764742478261
 30
0.0
  0
VERTEX
  5
2D2C9
  8
0
 10
318.90231598404262
 20
402.98045729116262
 30
0.0
  0
SEQEND
  5
2D2CA
  8
0
  0
POLYLINE
  5
1DC67
  8
0
 66
     1
 10
0.0
 20
0.0
 30
0.0
  0
VERTEX
  5
2D2CB
  8
0
 10
318.90231598404262
 20
402.98045729116262
 30
0.0
  0
VERTEX
  5
2D2CC
  8
0
 10
318.32215084140353
 20
402.98764742478261
 30
0.0
  0
VERTEX
  5
2D2CD
  8
0
 10
317.15733449825262
 20
403.04442200856681
 30
0.0
  0
VERTEX
  5
2D2CE
  8
0
 10
315.93821334070839
 20
403.15903234732008
 30
0.0
  0
VERTEX
  5
2D2CF
  8
0
 10
315.2890655493643
 20
403.23987700057791
 30
0.0
  0
SEQEND
  5
2D2D0
  8
0
  0
LINE
  5
1DC68
  8
0
 10
315.2890655493643
 20
403.23987700057791
 30
0.0
 11
315.2890655493643
 21
408.22103758174723
 31
0.0
  0
POLYLINE
  5
1DC69
  8
0
 66
     1
 10
0.0
 20
0.0
 30
0.0
  0
VERTEX
  5
2D2D1
  8
0
 10
315.2890655493643
 20
408.22103758174723
 30
0.0
  0
VERTEX
  5
2D2D2
  8
0
 10
315.93821334070839
 20
408.301882235005
 30
0.0
  0
VERTEX
  5
2D2D3
  8
0
 10
317.15733449825262
 20
408.41649257375821
 30
0.0
  0
VERTEX
  5
2D2D4
  8
0
 10
318.32215084140353
 20
408.47326715754252
 30
0.0
  0
VERTEX
  5
2D2D5
  8
0
 10
318.90231598404262
 20
408.48045729116251
 30
0.0
  0
SEQEND
  5
2D2D6
  8
0
  0
LINE
  5
1DC71
  8
1
 10
318.90231598404262
 20
336.79942825462967
 30
0.0
 11
318.90231598404262
 21
419.1614863276954
 31
0.0
  0
ARC
  5
1DD30
  8
0
 10
483.42774210022748
 20
261.44368873142179
 30
0.0
 40
2.9999999999999849
 50
90.0
 51
180.0
  0
ARC
  5
1DD31
  8
0
 10
539.4777421002276
 20
261.44368873142179
 30
0.0
 40
2.9999999999999849
 50
0.0
 51
90.0
  0
LINE
  5
1DD32
  8
0
 10
542.47774210022772
 20
260.9436887314219
 30
0.0
 11
542.47774210022772
 21
261.44368873142179
 31
0.0
  0
LINE
  5
1DD33
  8
0
 10
480.42774210022748
 20
261.44368873142179
 30
0.0
 11
480.42774210022748
 21
260.9436887314219
 31
0.0
  0
ARC
  5
1DD34
  8
0
 10
478.95274210022762
 20
256.9436887314219
 30
0.0
 40
4.0000000000000142
 50
90.0
 51
180.0
  0
ARC
  5
1DD35
  8
0
 10
543.95274210022762
 20
256.9436887314219
 30
0.0
 40
4.0000000000000142
 50
0.0
 51
90.0
  0
LINE
  5
1DD36
  8
0
 10
547.95274210022762
 20
255.94368873142179
 30
0.0
 11
547.95274210022762
 21
256.9436887314219
 31
0.0
  0
LINE
  5
1DD37
  8
0
 10
474.95274210022762
 20
256.9436887314219
 30
0.0
 11
474.95274210022762
 21
255.94368873142179
 31
0.0
  0
LINE
  5
1DD38
  8
0
 10
544.45274210022762
 20
209.6028512841194
 30
0.0
 11
544.45274210022762
 21
255.94368873142179
 31
0.0
  0
LINE
  5
1DD39
  8
0
 10
478.45274210022762
 20
255.94368873142179
 30
0.0
 11
478.45274210022762
 21
209.6028512841194
 31
0.0
  0
LINE
  5
1DD3A
  8
2
 10
541.95274210022762
 20
209.6028512841194
 30
0.0
 11
541.95274210022762
 21
253.743688731422
 31
0.0
  0
LINE
  5
1DD3B
  8
2
 10
480.95274210022762
 20
253.743688731422
 30
0.0
 11
480.95274210022762
 21
209.6028512841194
 31
0.0
  0
LINE
  5
1DD40
  8
2
 10
517.45274210022762
 20
253.743688731422
 30
0.0
 11
517.45274210022762
 21
267.74368873142203
 31
0.0
  0
LINE
  5
1DD41
  8
2
 10
505.45274210022751
 20
267.74368873142203
 30
0.0
 11
505.45274210022751
 21
253.743688731422
 31
0.0
  0
LINE
  5
1DD43
  8
0
 10
483.42774210022748
 20
264.44368873142179
 30
0.0
 11
539.4777421002276
 21
264.44368873142179
 31
0.0
  0
LINE
  5
1DD45
  8
0
 10
478.95274210022762
 20
260.9436887314219
 30
0.0
 11
543.95274210022762
 21
260.9436887314219
 31
0.0
  0
LINE
  5
1DD47
  8
0
 10
474.95274210022762
 20
255.94368873142179
 30
0.0
 11
547.95274210022762
 21
255.94368873142179
 31
0.0
  0
LINE
  5
1DD4B
  8
0
 10
486.45274210022762
 20
179.743688731422
 30
0.0
 11
486.45274210022762
 21
184.59055327798339
 31
0.0
  0
POLYLINE
  5
1DD4C
  8
0
 66
     1
 10
0.0
 20
0.0
 30
0.0
  0
VERTEX
  5
2D2D7
  8
0
 10
486.45274210022762
 20
184.59055327798339
 30
0.0
  0
VERTEX
  5
2D2D8
  8
0
 10
486.03209743663041
 20
185.16888834948659
 30
0.0
  0
VERTEX
  5
2D2D9
  8
0
 10
485.22073152717428
 20
186.3539369522573
 30
0.0
  0
VERTEX
  5
2D2DA
  8
0
 10
484.45031240882832
 20
187.5752758895423
 30
0.0
  0
VERTEX
  5
2D2DB
  8
0
 10
484.08083625249031
 20
188.19896060126621
 30
0.0
  0
VERTEX
  5
2D2DC
  8
0
 10
483.7220426653825
 20
188.83099871539019
 30
0.0
  0
VERTEX
  5
2D2DD
  8
0
 10
483.03705908766591
 20
190.11914531240649
 30
0.0
  0
VERTEX
  5
2D2DE
  8
0
 10
482.39643089907662
 20
191.43770495139049
 30
0.0
  0
VERTEX
  5
2D2DF
  8
0
 10
481.8011580865786
 20
192.7846194299814
 30
0.0
  0
VERTEX
  5
2D2E0
  8
0
 10
481.25216983977538
 20
194.1577862854019
 30
0.0
  0
VERTEX
  5
2D2E1
  8
0
 10
480.75032310049431
 20
195.55506207629381
 30
0.0
  0
VERTEX
  5
2D2E2
  8
0
 10
480.51732550371162
 20
196.2620606141881
 30
0.0
  0
VERTEX
  5
2D2E3
  8
0
 10
480.2964012251436
 20
196.97426572851509
 30
0.0
  0
VERTEX
  5
2D2E4
  8
0
 10
479.89111276193671
 20
198.41318193968479
 30
0.0
  0
VERTEX
  5
2D2E5
  8
0
 10
479.53509034488332
 20
199.869564637152
 30
0.0
  0
VERTEX
  5
2D2E6
  8
0
 10
479.2288897062831
 20
201.34114048399849
 30
0.0
  0
VERTEX
  5
2D2E7
  8
0
 10
478.97298880925382
 20
202.8256124275963
 30
0.0
  0
VERTEX
  5
2D2E8
  8
0
 10
478.76778710165979
 20
204.32066328518891
 30
0.0
  0
VERTEX
  5
2D2E9
  8
0
 10
478.68430164636942
 20
205.07142707235701
 30
0.0
  0
VERTEX
  5
2D2EA
  8
0
 10
478.6136048925909
 20
205.8239593608896
 30
0.0
  0
VERTEX
  5
2D2EB
  8
0
 10
478.51068285238068
 20
207.33315408846011
 30
0.0
  0
VERTEX
  5
2D2EC
  8
0
 10
478.4591816369288
 20
208.8458916941749
 30
0.0
  0
VERTEX
  5
2D2ED
  8
0
 10
478.45274210022762
 20
209.6028512841194
 30
0.0
  0
SEQEND
  5
2D2EE
  8
0
  0
POLYLINE
  5
1DD4D
  8
0
 66
     1
 10
0.0
 20
0.0
 30
0.0
  0
VERTEX
  5
2D2EF
  8
0
 10
478.45274210022762
 20
209.6028512841194
 30
0.0
  0
VERTEX
  5
2D2F0
  8
0
 10
478.45623244663278
 20
210.16015168269541
 30
0.0
  0
VERTEX
  5
2D2F1
  8
0
 10
478.48415078802651
 20
211.2742809480724
 30
0.0
  0
VERTEX
  5
2D2F2
  8
0
 10
478.5399638491084
 20
212.38699601708549
 30
0.0
  0
VERTEX
  5
2D2F3
  8
0
 10
478.57831706319979
 20
212.94252895066259
 30
0.0
  0
VERTEX
  5
2D2F4
  8
0
 10
478.62362440645848
 20
213.49735542169759
 30
0.0
  0
VERTEX
  5
2D2F5
  8
0
 10
478.73506167489171
 20
214.60441968699931
 30
0.0
  0
VERTEX
  5
2D2F6
  8
0
 10
478.87418136735408
 20
215.70725212609801
 30
0.0
  0
VERTEX
  5
2D2F7
  8
0
 10
479.04086577469701
 20
216.8049196326474
 30
0.0
  0
VERTEX
  5
2D2F8
  8
0
 10
479.23497386526958
 20
217.8964934703508
 30
0.0
  0
VERTEX
  5
2D2F9
  8
0
 10
479.45634140424988
 20
218.98105005876459
 30
0.0
  0
VERTEX
  5
2D2FA
  8
0
 10
479.57718983268842
 20
219.5204098678096
 30
0.0
  0
VERTEX
  5
2D2FB
  8
0
 10
479.7047810925983
 20
220.0576717547365
 30
0.0
  0
VERTEX
  5
2D2FC
  8
0
 10
479.98008272553619
 20
221.12544762882729
 30
0.0
  0
VERTEX
  5
2D2FD
  8
0
 10
480.28201337039673
 20
222.1834742360447
 30
0.0
  0
VERTEX
  5
2D2FE
  8
0
 10
480.61031756371079
 20
223.2308563802512
 30
0.0
  0
VERTEX
  5
2D2FF
  8
0
 10
480.96471752735528
 20
224.26670787158631
 30
0.0
  0
VERTEX
  5
2D300
  8
0
 10
481.34491340357812
 20
225.29015227627309
 30
0.0
  0
VERTEX
  5
2D301
  8
0
 10
481.54458512801818
 20
225.79695078591789
 30
0.0
  0
VERTEX
  5
2D302
  8
0
 10
481.75058350871171
 20
226.3003236581699
 30
0.0
  0
VERTEX
  5
2D303
  8
0
 10
482.18138460534652
 20
227.29636731143589
 30
0.0
  0
VERTEX
  5
2D304
  8
0
 10
482.6369521927449
 20
228.2774404837001
 30
0.0
  0
VERTEX
  5
2D305
  8
0
 10
482.8739037753412
 20
228.76210322356201
 30
0.0
  0
VERTEX
  5
2D306
  8
0
 10
483.11690081524739
 20
229.24271308911241
 30
0.0
  0
VERTEX
  5
2D307
  8
0
 10
483.62082438840253
 20
230.1913684106807
 30
0.0
  0
VERTEX
  5
2D308
  8
0
 10
484.148296542558
 20
231.1226037912929
 30
0.0
  0
VERTEX
  5
2D309
  8
0
 10
484.4207246386909
 20
231.5814421852742
 30
0.0
  0
VERTEX
  5
2D30A
  8
0
 10
484.6988709836105
 20
232.03563131284631
 30
0.0
  0
VERTEX
  5
2D30B
  8
0
 10
485.27208187061711
 20
232.92967846290591
 30
0.0
  0
VERTEX
  5
2D30C
  8
0
 10
485.86744420993909
 20
233.8039887883242
 30
0.0
  0
VERTEX
  5
2D30D
  8
0
 10
486.48445426560062
 20
234.65782253527871
 30
0.0
  0
VERTEX
  5
2D30E
  8
0
 10
487.12258998549351
 20
235.49045727517699
 30
0.0
  0
VERTEX
  5
2D30F
  8
0
 10
487.78131144309089
 20
236.30118851590211
 30
0.0
  0
VERTEX
  5
2D310
  8
0
 10
488.11821832107171
 20
236.698125221802
 30
0.0
  0
VERTEX
  5
2D311
  8
0
 10
488.46006129427582
 20
237.0893302978848
 30
0.0
  0
VERTEX
  5
2D312
  8
0
 10
489.15826524891099
 20
237.8542157744923
 30
0.0
  0
VERTEX
  5
2D313
  8
0
 10
489.87533255674452
 20
238.59519777624931
 30
0.0
  0
VERTEX
  5
2D314
  8
0
 10
490.61065650724498
 20
239.3116493584057
 30
0.0
  0
VERTEX
  5
2D315
  8
0
 10
491.36361494293982
 20
240.00296433139559
 30
0.0
  0
VERTEX
  5
2D316
  8
0
 10
492.1335707858197
 20
240.66855777373391
 30
0.0
  0
VERTEX
  5
2D317
  8
0
 10
492.52471970064329
 20
240.99153207060411
 30
0.0
  0
VERTEX
  5
2D318
  8
0
 10
492.9198725763722
 20
241.30786652691901
 30
0.0
  0
VERTEX
  5
2D319
  8
0
 10
493.7218550247826
 20
241.92034967191921
 30
0.0
  0
VERTEX
  5
2D31A
  8
0
 10
494.53883957383232
 20
242.50548898684659
 30
0.0
  0
VERTEX
  5
2D31B
  8
0
 10
495.3701349730286
 20
243.0627893854226
 30
0.0
  0
VERTEX
  5
2D31C
  8
0
 10
496.21503786347142
 20
243.59177933587219
 30
0.0
  0
VERTEX
  5
2D31D
  8
0
 10
497.07283337296388
 20
244.09201125988511
 30
0.0
  0
VERTEX
  5
2D31E
  8
0
 10
497.50633946278452
 20
244.33120973714719
 30
0.0
  0
VERTEX
  5
2D31F
  8
0
 10
497.9427957208668
 20
244.56306191131259
 30
0.0
  0
VERTEX
  5
2D320
  8
0
 10
498.82418883217952
 20
245.0045327342759
 30
0.0
  0
VERTEX
  5
2D321
  8
0
 10
499.71626696033672
 20
245.41605020038421
 30
0.0
  0
VERTEX
  5
2D322
  8
0
 10
500.61827531818022
 20
245.7972661247772
 30
0.0
  0
VERTEX
  5
2D323
  8
0
 10
501.52945071658678
 20
246.1478579607242
 30
0.0
  0
VERTEX
  5
2D324
  8
0
 10
502.44902221020129
 20
246.46752907253
 30
0.0
  0
VERTEX
  5
2D325
  8
0
 10
502.91171361184428
 20
246.61568380549261
 30
0.0
  0
VERTEX
  5
2D326
  8
0
 10
503.37621174973492
 20
246.75600898651919
 30
0.0
  0
VERTEX
  5
2D327
  8
0
 10
504.31023484027043
 20
247.01305361988489
 30
0.0
  0
VERTEX
  5
2D328
  8
0
 10
505.25030120502367
 20
247.23844548720439
 30
0.0
  0
VERTEX
  5
2D329
  8
0
 10
506.19561545399932
 20
247.43199388445601
 30
0.0
  0
VERTEX
  5
2D32A
  8
0
 10
507.1453777569659
 20
247.59353505037279
 30
0.0
  0
VERTEX
  5
2D32B
  8
0
 10
508.0987845201953
 20
247.72293230500051
 30
0.0
  0
VERTEX
  5
2D32C
  8
0
 10
508.57660258955502
 20
247.77554168707269
 30
0.0
  0
VERTEX
  5
2D32D
  8
0
 10
509.05502906638139
 20
247.82007616534341
 30
0.0
  0
VERTEX
  5
2D32E
  8
0
 10
510.01330231717151
 20
247.88488443799719
 30
0.0
  0
VERTEX
  5
2D32F
  8
0
 10
510.97279347772519
 20
247.91730228869349
 30
0.0
  0
VERTEX
  5
2D330
  8
0
 10
511.45274210022762
 20
247.92135516300459
 30
0.0
  0
VERTEX
  5
2D331
  8
0
 10
511.93269072273
 20
247.91730228869349
 30
0.0
  0
VERTEX
  5
2D332
  8
0
 10
512.89218188328368
 20
247.88488443799719
 30
0.0
  0
VERTEX
  5
2D333
  8
0
 10
513.85045513407385
 20
247.82007616534341
 30
0.0
  0
VERTEX
  5
2D334
  8
0
 10
514.32888161090023
 20
247.77554168707269
 30
0.0
  0
VERTEX
  5
2D335
  8
0
 10
514.80669968025995
 20
247.72293230500051
 30
0.0
  0
VERTEX
  5
2D336
  8
0
 10
515.76010644348935
 20
247.59353505037279
 30
0.0
  0
VERTEX
  5
2D337
  8
0
 10
516.70986874645575
 20
247.43199388445601
 30
0.0
  0
VERTEX
  5
2D338
  8
0
 10
517.65518299543135
 20
247.23844548720439
 30
0.0
  0
VERTEX
  5
2D339
  8
0
 10
518.59524936018477
 20
247.01305361988489
 30
0.0
  0
VERTEX
  5
2D33A
  8
0
 10
519.52927245072033
 20
246.75600898651919
 30
0.0
  0
VERTEX
  5
2D33B
  8
0
 10
519.9937705886108
 20
246.61568380549261
 30
0.0
  0
VERTEX
  5
2D33C
  8
0
 10
520.45646199025396
 20
246.46752907253
 30
0.0
  0
VERTEX
  5
2D33D
  8
0
 10
521.37603348386835
 20
246.1478579607242
 30
0.0
  0
VERTEX
  5
2D33E
  8
0
 10
522.28720888227497
 20
245.7972661247772
 30
0.0
  0
VERTEX
  5
2D33F
  8
0
 10
523.18921724011852
 20
245.41605020038421
 30
0.0
  0
VERTEX
  5
2D340
  8
0
 10
524.08129536827573
 20
245.0045327342759
 30
0.0
  0
VERTEX
  5
2D341
  8
0
 10
524.96268847958845
 20
244.56306191131259
 30
0.0
  0
VERTEX
  5
2D342
  8
0
 10
525.39914473767055
 20
244.33120973714719
 30
0.0
  0
VERTEX
  5
2D343
  8
0
 10
525.83265082749131
 20
244.09201125988511
 30
0.0
  0
VERTEX
  5
2D344
  8
0
 10
526.69044633698365
 20
243.59177933587219
 30
0.0
  0
VERTEX
  5
2D345
  8
0
 10
527.53534922742665
 20
243.0627893854226
 30
0.0
  0
VERTEX
  5
2D346
  8
0
 10
528.36664462662293
 20
242.50548898684659
 30
0.0
  0
VERTEX
  5
2D347
  8
0
 10
529.18362917567265
 20
241.92034967191921
 30
0.0
  0
VERTEX
  5
2D348
  8
0
 10
529.98561162408305
 20
241.30786652691901
 30
0.0
  0
VERTEX
  5
2D349
  8
0
 10
530.38076449981179
 20
240.99153207060411
 30
0.0
  0
VERTEX
  5
2D34A
  8
0
 10
530.77191341463538
 20
240.66855777373391
 30
0.0
  0
VERTEX
  5
2D34B
  8
0
 10
531.54186925751526
 20
240.00296433139559
 30
0.0
  0
VERTEX
  5
2D34C
  8
0
 10
532.29482769321021
 20
239.3116493584057
 30
0.0
  0
VERTEX
  5
2D34D
  8
0
 10
533.03015164371072
 20
238.59519777624931
 30
0.0
  0
VERTEX
  5
2D34E
  8
0
 10
533.74721895154426
 20
237.8542157744923
 30
0.0
  0
VERTEX
  5
2D34F
  8
0
 10
534.44542290617937
 20
237.0893302978848
 30
0.0
  0
VERTEX
  5
2D350
  8
0
 10
534.78726587938354
 20
236.698125221802
 30
0.0
  0
VERTEX
  5
2D351
  8
0
 10
535.12417275736425
 20
236.30118851590211
 30
0.0
  0
VERTEX
  5
2D352
  8
0
 10
535.78289421496174
 20
235.49045727517699
 30
0.0
  0
VERTEX
  5
2D353
  8
0
 10
536.42102993485457
 20
234.65782253527871
 30
0.0
  0
VERTEX
  5
2D354
  8
0
 10
537.03803999051615
 20
233.8039887883242
 30
0.0
  0
VERTEX
  5
2D355
  8
0
 10
537.63340232983808
 20
232.92967846290591
 30
0.0
  0
VERTEX
  5
2D356
  8
0
 10
538.20661321684474
 20
232.03563131284631
 30
0.0
  0
VERTEX
  5
2D357
  8
0
 10
538.48475956176435
 20
231.5814421852742
 30
0.0
  0
VERTEX
  5
2D358
  8
0
 10
538.75718765789725
 20
231.1226037912929
 30
0.0
  0
VERTEX
  5
2D359
  8
0
 10
539.28465981205261
 20
230.1913684106807
 30
0.0
  0
VERTEX
  5
2D35A
  8
0
 10
539.78858338520774
 20
229.24271308911241
 30
0.0
  0
VERTEX
  5
2D35B
  8
0
 10
540.03158042511404
 20
228.76210322356201
 30
0.0
  0
VERTEX
  5
2D35C
  8
0
 10
540.26853200771029
 20
228.2774404837001
 30
0.0
  0
VERTEX
  5
2D35D
  8
0
 10
540.72409959510867
 20
227.29636731143589
 30
0.0
  0
VERTEX
  5
2D35E
  8
0
 10
541.15490069174336
 20
226.3003236581699
 30
0.0
  0
VERTEX
  5
2D35F
  8
0
 10
541.36089907243695
 20
225.79695078591789
 30
0.0
  0
VERTEX
  5
2D360
  8
0
 10
541.56057079687696
 20
225.29015227627309
 30
0.0
  0
VERTEX
  5
2D361
  8
0
 10
541.9407666730998
 20
224.26670787158631
 30
0.0
  0
VERTEX
  5
2D362
  8
0
 10
542.2951666367444
 20
223.2308563802512
 30
0.0
  0
VERTEX
  5
2D363
  8
0
 10
542.62347083005852
 20
222.1834742360447
 30
0.0
  0
VERTEX
  5
2D364
  8
0
 10
542.92540147491889
 20
221.12544762882729
 30
0.0
  0
VERTEX
  5
2D365
  8
0
 10
543.20070310785695
 20
220.0576717547365
 30
0.0
  0
VERTEX
  5
2D366
  8
0
 10
543.32829436776683
 20
219.5204098678096
 30
0.0
  0
VERTEX
  5
2D367
  8
0
 10
543.44914279620525
 20
218.98105005876459
 30
0.0
  0
VERTEX
  5
2D368
  8
0
 10
543.67051033518555
 20
217.8964934703508
 30
0.0
  0
VERTEX
  5
2D369
  8
0
 10
543.86461842575807
 20
216.8049196326474
 30
0.0
  0
VERTEX
  5
2D36A
  8
0
 10
544.03130283310111
 20
215.70725212609801
 30
0.0
  0
VERTEX
  5
2D36B
  8
0
 10
544.17042252556348
 20
214.60441968699931
 30
0.0
  0
VERTEX
  5
2D36C
  8
0
 10
544.28185979399666
 20
213.49735542169759
 30
0.0
  0
VERTEX
  5
2D36D
  8
0
 10
544.3271671372554
 20
212.94252895066259
 30
0.0
  0
VERTEX
  5
2D36E
  8
0
 10
544.36552035134673
 20
212.38699601708549
 30
0.0
  0
VERTEX
  5
2D36F
  8
0
 10
544.42133341242868
 20
211.2742809480724
 30
0.0
  0
VERTEX
  5
2D370
  8
0
 10
544.44925175382241
 20
210.16015168269541
 30
0.0
  0
VERTEX
  5
2D371
  8
0
 10
544.45274210022762
 20
209.6028512841194
 30
0.0
  0
SEQEND
  5
2D372
  8
0
  0
POLYLINE
  5
1DD4E
  8
0
 66
     1
 10
0.0
 20
0.0
 30
0.0
  0
VERTEX
  5
2D373
  8
0
 10
544.45274210022762
 20
209.6028512841194
 30
0.0
  0
VERTEX
  5
2D374
  8
0
 10
544.44630256352639
 20
208.8458916941749
 30
0.0
  0
VERTEX
  5
2D375
  8
0
 10
544.39480134807445
 20
207.33315408846011
 30
0.0
  0
VERTEX
  5
2D376
  8
0
 10
544.29187930786429
 20
205.8239593608896
 30
0.0
  0
VERTEX
  5
2D377
  8
0
 10
544.22118255408577
 20
205.07142707235701
 30
0.0
  0
VERTEX
  5
2D378
  8
0
 10
544.13769709879534
 20
204.32066328518891
 30
0.0
  0
VERTEX
  5
2D379
  8
0
 10
543.93249539120143
 20
202.8256124275963
 30
0.0
  0
VERTEX
  5
2D37A
  8
0
 10
543.67659449417215
 20
201.34114048399849
 30
0.0
  0
VERTEX
  5
2D37B
  8
0
 10
543.37039385557171
 20
199.869564637152
 30
0.0
  0
VERTEX
  5
2D37C
  8
0
 10
543.01437143851854
 20
198.41318193968479
 30
0.0
  0
VERTEX
  5
2D37D
  8
0
 10
542.60908297531159
 20
196.97426572851509
 30
0.0
  0
VERTEX
  5
2D37E
  8
0
 10
542.38815869674363
 20
196.2620606141881
 30
0.0
  0
VERTEX
  5
2D37F
  8
0
 10
542.15516109996088
 20
195.55506207629381
 30
0.0
  0
VERTEX
  5
2D380
  8
0
 10
541.6533143606797
 20
194.1577862854019
 30
0.0
  0
VERTEX
  5
2D381
  8
0
 10
541.10432611387648
 20
192.7846194299814
 30
0.0
  0
VERTEX
  5
2D382
  8
0
 10
540.50905330137846
 20
191.43770495139049
 30
0.0
  0
VERTEX
  5
2D383
  8
0
 10
539.86842511278917
 20
190.11914531240649
 30
0.0
  0
VERTEX
  5
2D384
  8
0
 10
539.18344153507269
 20
188.83099871539019
 30
0.0
  0
VERTEX
  5
2D385
  8
0
 10
538.82464794796476
 20
188.19896060126621
 30
0.0
  0
VERTEX
  5
2D386
  8
0
 10
538.45517179162687
 20
187.5752758895423
 30
0.0
  0
VERTEX
  5
2D387
  8
0
 10
537.68475267328085
 20
186.3539369522573
 30
0.0
  0
VERTEX
  5
2D388
  8
0
 10
536.87338676382478
 20
185.16888834948659
 30
0.0
  0
VERTEX
  5
2D389
  8
0
 10
536.45274210022762
 20
184.59055327798339
 30
0.0
  0
SEQEND
  5
2D38A
  8
0
  0
LINE
  5
1DD4F
  8
0
 10
536.45274210022762
 20
184.59055327798339
 30
0.0
 11
536.45274210022762
 21
179.743688731422
 31
0.0
  0
LINE
  5
1DD51
  8
0
 10
486.45274210022762
 20
179.743688731422
 30
0.0
 11
488.95274210022762
 21
179.743688731422
 31
0.0
  0
LINE
  5
1DD53
  8
0
 10
533.95274210022762
 20
179.743688731422
 30
0.0
 11
536.45274210022762
 21
179.743688731422
 31
0.0
  0
POLYLINE
  5
1DD54
  8
0
 66
     1
 10
0.0
 20
0.0
 30
0.0
  0
VERTEX
  5
2D38B
  8
0
 10
488.95274210022762
 20
185.69296379969629
 30
0.0
  0
VERTEX
  5
2D38C
  8
0
 10
488.53362773073741
 20
186.2358534523087
 30
0.0
  0
VERTEX
  5
2D38D
  8
0
 10
487.7247125071566
 20
187.35110793779899
 30
0.0
  0
VERTEX
  5
2D38E
  8
0
 10
486.95601766833892
 20
188.50408041733951
 30
0.0
  0
VERTEX
  5
2D38F
  8
0
 10
486.5871627994984
 20
189.0941025764582
 30
0.0
  0
VERTEX
  5
2D390
  8
0
 10
486.22884619656628
 20
189.692816535784
 30
0.0
  0
VERTEX
  5
2D391
  8
0
 10
485.54443068961012
 20
190.91530131654639
 30
0.0
  0
VERTEX
  5
2D392
  8
0
 10
484.90393127140442
 20
192.1694625771033
 30
0.0
  0
VERTEX
  5
2D393
  8
0
 10
484.30843362556692
 20
193.4531744414617
 30
0.0
  0
VERTEX
  5
2D394
  8
0
 10
483.7589471551068
 20
194.7642609436443
 30
0.0
  0
VERTEX
  5
2D395
  8
0
 10
483.25640327142349
 20
196.10049971607711
 30
0.0
  0
VERTEX
  5
2D396
  8
0
 10
483.02300414856882
 20
196.77734495136841
 30
0.0
  0
VERTEX
  5
2D397
  8
0
 10
482.80165381551302
 20
197.45962575663
 30
0.0
  0
VERTEX
  5
2D398
  8
0
 10
482.39546961404761
 20
198.83933526792811
 30
0.0
  0
VERTEX
  5
2D399
  8
0
 10
482.03853917277911
 20
200.2372895624207
 30
0.0
  0
VERTEX
  5
2D39A
  8
0
 10
481.73146750948399
 20
201.6511190265937
 30
0.0
  0
VERTEX
  5
2D39B
  8
0
 10
481.47477512841982
 20
203.07842713759919
 30
0.0
  0
VERTEX
  5
2D39C
  8
0
 10
481.26889713804349
 20
204.516794525503
 30
0.0
  0
VERTEX
  5
2D39D
  8
0
 10
481.18512597584908
 20
205.2393641564781
 30
0.0
  0
VERTEX
  5
2D39E
  8
0
 10
481.1141825134755
 20
205.9637830742559
 30
0.0
  0
VERTEX
  5
2D39F
  8
0
 10
481.01089350496699
 20
207.41694005444151
 30
0.0
  0
VERTEX
  5
2D3A0
  8
0
 10
480.95920519337142
 20
208.87380228079471
 30
0.0
  0
VERTEX
  5
2D3A1
  8
0
 10
480.95274210022762
 20
209.6028512841194
 30
0.0
  0
SEQEND
  5
2D3A2
  8
0
  0
POLYLINE
  5
1DD55
  8
0
 66
     1
 10
0.0
 20
0.0
 30
0.0
  0
VERTEX
  5
2D3A3
  8
0
 10
480.95274210022762
 20
209.6028512841194
 30
0.0
  0
VERTEX
  5
2D3A4
  8
0
 10
480.95596802645059
 20
210.11793195553079
 30
0.0
  0
VERTEX
  5
2D3A5
  8
0
 10
480.98177134198107
 20
211.147657488682
 30
0.0
  0
VERTEX
  5
2D3A6
  8
0
 10
481.03335614086018
 20
212.1760759615577
 30
0.0
  0
VERTEX
  5
2D3A7
  8
0
 10
481.06880380842938
 20
212.68952306683329
 30
0.0
  0
VERTEX
  5
2D3A8
  8
0
 10
481.11067877719859
 20
213.20231722945709
 30
0.0
  0
VERTEX
  5
2D3A9
  8
0
 10
481.21367382832659
 20
214.2255129898117
 30
0.0
  0
VERTEX
  5
2D3AA
  8
0
 10
481.34225415014771
 20
215.24479751685701
 30
0.0
  0
VERTEX
  5
2D3AB
  8
0
 10
481.49631095087352
 20
216.2593083941224
 30
0.0
  0
VERTEX
  5
2D3AC
  8
0
 10
481.67571388306942
 20
217.26818724412121
 30
0.0
  0
VERTEX
  5
2D3AD
  8
0
 10
481.880311153945
 20
218.27058045462491
 30
0.0
  0
VERTEX
  5
2D3AE
  8
0
 10
481.9920043984111
 20
218.76907967207541
 30
0.0
  0
VERTEX
  5
2D3AF
  8
0
 10
482.10992965378222
 20
219.26563990090199
 30
0.0
  0
VERTEX
  5
2D3B0
  8
0
 10
482.36437510240688
 20
220.25252366331921
 30
0.0
  0
VERTEX
  5
2D3B1
  8
0
 10
482.64343221356552
 20
221.230396739687
 30
0.0
  0
VERTEX
  5
2D3B2
  8
0
 10
482.94686487708339
 20
222.19843175175629
 30
0.0
  0
VERTEX
  5
2D3B3
  8
0
 10
483.27441635863352
 20
223.15580964526271
 30
0.0
  0
VERTEX
  5
2D3B4
  8
0
 10
483.62580951696049
 20
224.10172038292831
 30
0.0
  0
VERTEX
  5
2D3B5
  8
0
 10
483.81035459560962
 20
224.57012506608501
 30
0.0
  0
VERTEX
  5
2D3B6
  8
0
 10
484.00074703837208
 20
225.0353636298328
 30
0.0
  0
VERTEX
  5
2D3B7
  8
0
 10
484.39891168829172
 20
225.95594943057861
 30
0.0
  0
VERTEX
  5
2D3B8
  8
0
 10
484.81996657967551
 20
226.86269887767139
 30
0.0
  0
VERTEX
  5
2D3B9
  8
0
 10
485.03896728480231
 20
227.310644743301
 30
0.0
  0
VERTEX
  5
2D3BA
  8
0
 10
485.26355545804881
 20
227.75484477055261
 30
0.0
  0
VERTEX
  5
2D3BB
  8
0
 10
485.7293030029345
 20
228.63163226472901
 30
0.0
  0
VERTEX
  5
2D3BC
  8
0
 10
486.2168151454116
 20
229.49231951044609
 30
0.0
  0
VERTEX
  5
2D3BD
  8
0
 10
486.4686047494132
 20
229.91639742003511
 30
0.0
  0
VERTEX
  5
2D3BE
  8
0
 10
486.72567940153613
 20
230.33617828036719
 30
0.0
  0
VERTEX
  5
2D3BF
  8
0
 10
487.25546522134482
 20
231.1624945857252
 30
0.0
  0
VERTEX
  5
2D3C0
  8
0
 10
487.80572435314292
 20
231.97056928043
 30
0.0
  0
VERTEX
  5
2D3C1
  8
0
 10
488.37599122276919
 20
232.75971865261539
 30
0.0
  0
VERTEX
  5
2D3C2
  8
0
 10
488.96578332751869
 20
233.5292750031272
 30
0.0
  0
VERTEX
  5
2D3C3
  8
0
 10
489.57460164438947
 20
234.27858721046411
 30
0.0
  0
VERTEX
  5
2D3C4
  8
0
 10
489.88598527403792
 20
234.64545295379591
 30
0.0
  0
VERTEX
  5
2D3C5
  8
0
 10
490.20193105230283
 20
235.00702128169041
 30
0.0
  0
VERTEX
  5
2D3C6
  8
0
 10
490.8472407679501
 20
235.71396088885791
 30
0.0
  0
VERTEX
  5
2D3C7
  8
0
 10
491.5099847948872
 20
236.39880789048169
 30
0.0
  0
VERTEX
  5
2D3C8
  8
0
 10
492.18960238550147
 20
237.0609828376264
 30
0.0
  0
VERTEX
  5
2D3C9
  8
0
 10
492.88551851546163
 20
237.6999254641778
 30
0.0
  0
VERTEX
  5
2D3CA
  8
0
 10
493.59714437024422
 20
238.3150951608846
 30
0.0
  0
VERTEX
  5
2D3CB
  8
0
 10
493.95866079152069
 20
238.61360170799159
 30
0.0
  0
VERTEX
  5
2D3CC
  8
0
 10
494.32387784333099
 20
238.9059714327673
 30
0.0
  0
VERTEX
  5
2D3CD
  8
0
 10
495.0651040456496
 20
239.47205433951009
 30
0.0
  0
VERTEX
  5
2D3CE
  8
0
 10
495.82019582583177
 20
240.01286491845801
 30
0.0
  0
VERTEX
  5
2D3CF
  8
0
 10
496.58851430084678
 20
240.5279455898694
 30
0.0
  0
VERTEX
  5
2D3D0
  8
0
 10
497.36940939655909
 20
241.0168605440731
 30
0.0
  0
VERTEX
  5
2D3D1
  8
0
 10
498.1622203977567
 20
241.479196110206
 30
0.0
  0
VERTEX
  5
2D3D2
  8
0
 10
498.56288511713632
 20
241.70027349070551
 30
0.0
  0
VERTEX
  5
2D3D3
  8
0
 10
498.96627650718159
 20
241.91456110622221
 30
0.0
  0
VERTEX
  5
2D3D4
  8
0
 10
499.78089741309259
 20
242.3225871698701
 30
0.0
  0
VERTEX
  5
2D3D5
  8
0
 10
500.60539386487369
 20
242.70292907036401
 30
0.0
  0
VERTEX
  5
2D3D6
  8
0
 10
501.43906825621377
 20
243.05526500048521
 30
0.0
  0
VERTEX
  5
2D3D7
  8
0
 10
502.28121521534729
 20
243.37929684886009
 30
0.0
  0
VERTEX
  5
2D3D8
  8
0
 10
503.13112220186991
 20
243.67475045219541
 30
0.0
  0
VERTEX
  5
2D3D9
  8
0
 10
503.55876122460091
 20
243.81168134175229
 30
0.0
  0
VERTEX
  5
2D3DA
  8
0
 10
503.98807010962071
 20
243.9413758272467
 30
0.0
  0
VERTEX
  5
2D3DB
  8
0
 10
504.85133387511542
 20
244.1789473823269
 30
0.0
  0
VERTEX
  5
2D3DC
  8
0
 10
505.7201830910239
 20
244.38726410818251
 30
0.0
  0
VERTEX
  5
2D3DD
  8
0
 10
506.59388262416809
 20
244.56614974806689
 30
0.0
  0
VERTEX
  5
2D3DE
  8
0
 10
507.47169323751632
 20
244.71545294686851
 30
0.0
  0
VERTEX
  5
2D3DF
  8
0
 10
508.35287221565198
 20
244.8350473791761
 30
0.0
  0
VERTEX
  5
2D3E0
  8
0
 10
508.79449194642388
 20
244.88367120200061
 30
0.0
  0
VERTEX
  5
2D3E1
  8
0
 10
509.23667399318811
 20
244.9248318561599
 30
0.0
  0
VERTEX
  5
2D3E2
  8
0
 10
510.12235078558479
 20
244.9847304111882
 30
0.0
  0
VERTEX
  5
2D3E3
  8
0
 10
511.00915322185432
 20
245.0146923641046
 30
0.0
  0
VERTEX
  5
2D3E4
  8
0
 10
511.45274210022762
 20
245.01843820248311
 30
0.0
  0
VERTEX
  5
2D3E5
  8
0
 10
511.89633097860087
 20
245.0146923641046
 30
0.0
  0
VERTEX
  5
2D3E6
  8
0
 10
512.78313341487035
 20
244.9847304111882
 30
0.0
  0
VERTEX
  5
2D3E7
  8
0
 10
513.66881020726714
 20
244.9248318561599
 30
0.0
  0
VERTEX
  5
2D3E8
  8
0
 10
514.11099225403132
 20
244.88367120200061
 30
0.0
  0
VERTEX
  5
2D3E9
  8
0
 10
514.55261198480321
 20
244.8350473791761
 30
0.0
  0
VERTEX
  5
2D3EA
  8
0
 10
515.43379096293927
 20
244.71545294686851
 30
0.0
  0
VERTEX
  5
2D3EB
  8
0
 10
516.3116015762871
 20
244.56614974806689
 30
0.0
  0
VERTEX
  5
2D3EC
  8
0
 10
517.18530110943118
 20
244.38726410818251
 30
0.0
  0
VERTEX
  5
2D3ED
  8
0
 10
518.05415032533983
 20
244.1789473823269
 30
0.0
  0
VERTEX
  5
2D3EE
  8
0
 10
518.91741409083443
 20
243.9413758272467
 30
0.0
  0
VERTEX
  5
2D3EF
  8
0
 10
519.34672297585428
 20
243.81168134175229
 30
0.0
  0
VERTEX
  5
2D3F0
  8
0
 10
519.77436199858528
 20
243.67475045219541
 30
0.0
  0
VERTEX
  5
2D3F1
  8
0
 10
520.62426898510785
 20
243.37929684886009
 30
0.0
  0
VERTEX
  5
2D3F2
  8
0
 10
521.46641594424125
 20
243.05526500048521
 30
0.0
  0
VERTEX
  5
2D3F3
  8
0
 10
522.30009033558144
 20
242.70292907036401
 30
0.0
  0
VERTEX
  5
2D3F4
  8
0
 10
523.12458678736255
 20
242.3225871698701
 30
0.0
  0
VERTEX
  5
2D3F5
  8
0
 10
523.9392076932736
 20
241.91456110622221
 30
0.0
  0
VERTEX
  5
2D3F6
  8
0
 10
524.34259908331887
 20
241.70027349070551
 30
0.0
  0
VERTEX
  5
2D3F7
  8
0
 10
524.74326380269838
 20
241.479196110206
 30
0.0
  0
VERTEX
  5
2D3F8
  8
0
 10
525.5360748038961
 20
241.0168605440731
 30
0.0
  0
VERTEX
  5
2D3F9
  8
0
 10
526.31696989960835
 20
240.5279455898694
 30
0.0
  0
VERTEX
  5
2D3FA
  8
0
 10
527.08528837462336
 20
240.01286491845801
 30
0.0
  0
VERTEX
  5
2D3FB
  8
0
 10
527.84038015480564
 20
239.47205433951009
 30
0.0
  0
VERTEX
  5
2D3FC
  8
0
 10
528.5816063571242
 20
238.9059714327673
 30
0.0
  0
VERTEX
  5
2D3FD
  8
0
 10
528.94682340893451
 20
238.61360170799159
 30
0.0
  0
VERTEX
  5
2D3FE
  8
0
 10
529.30833983021103
 20
238.3150951608846
 30
0.0
  0
VERTEX
  5
2D3FF
  8
0
 10
530.01996568499362
 20
237.6999254641778
 30
0.0
  0
VERTEX
  5
2D400
  8
0
 10
530.71588181495372
 20
237.0609828376264
 30
0.0
  0
VERTEX
  5
2D401
  8
0
 10
531.39549940556799
 20
236.39880789048169
 30
0.0
  0
VERTEX
  5
2D402
  8
0
 10
532.05824343250515
 20
235.71396088885791
 30
0.0
  0
VERTEX
  5
2D403
  8
0
 10
532.70355314815242
 20
235.00702128169041
 30
0.0
  0
VERTEX
  5
2D404
  8
0
 10
533.01949892641733
 20
234.64545295379591
 30
0.0
  0
VERTEX
  5
2D405
  8
0
 10
533.3308825560656
 20
234.27858721046411
 30
0.0
  0
VERTEX
  5
2D406
  8
0
 10
533.93970087293656
 20
233.5292750031272
 30
0.0
  0
VERTEX
  5
2D407
  8
0
 10
534.52949297768589
 20
232.75971865261539
 30
0.0
  0
VERTEX
  5
2D408
  8
0
 10
535.09975984731227
 20
231.97056928043
 30
0.0
  0
VERTEX
  5
2D409
  8
0
 10
535.65001897911043
 20
231.1624945857252
 30
0.0
  0
VERTEX
  5
2D40A
  8
0
 10
536.17980479891912
 20
230.33617828036719
 30
0.0
  0
VERTEX
  5
2D40B
  8
0
 10
536.43687945104193
 20
229.91639742003511
 30
0.0
  0
VERTEX
  5
2D40C
  8
0
 10
536.68866905504365
 20
229.49231951044661
 30
0.0
  0
VERTEX
  5
2D40D
  8
0
 10
537.17618119752069
 20
228.63163226472901
 30
0.0
  0
VERTEX
  5
2D40E
  8
0
 10
537.64192874240644
 20
227.75484477055261
 30
0.0
  0
VERTEX
  5
2D40F
  8
0
 10
537.86651691565294
 20
227.310644743301
 30
0.0
  0
VERTEX
  5
2D410
  8
0
 10
538.08551762077968
 20
226.86269887767139
 30
0.0
  0
VERTEX
  5
2D411
  8
0
 10
538.50657251216353
 20
225.95594943057861
 30
0.0
  0
VERTEX
  5
2D412
  8
0
 10
538.90473716208305
 20
225.0353636298328
 30
0.0
  0
VERTEX
  5
2D413
  8
0
 10
539.09512960484562
 20
224.57012506608501
 30
0.0
  0
VERTEX
  5
2D414
  8
0
 10
539.2796746834947
 20
224.10172038292831
 30
0.0
  0
VERTEX
  5
2D415
  8
0
 10
539.63106784182173
 20
223.15580964526271
 30
0.0
  0
VERTEX
  5
2D416
  8
0
 10
539.95861932337175
 20
222.19843175175629
 30
0.0
  0
VERTEX
  5
2D417
  8
0
 10
540.26205198688967
 20
221.230396739687
 30
0.0
  0
VERTEX
  5
2D418
  8
0
 10
540.54110909804831
 20
220.25252366331921
 30
0.0
  0
VERTEX
  5
2D419
  8
0
 10
540.79555454667286
 20
219.26563990090199
 30
0.0
  0
VERTEX
  5
2D41A
  8
0
 10
540.91347980204398
 20
218.76907967207541
 30
0.0
  0
VERTEX
  5
2D41B
  8
0
 10
541.02517304651019
 20
218.27058045462491
 30
0.0
  0
VERTEX
  5
2D41C
  8
0
 10
541.22977031738583
 20
217.26818724412121
 30
0.0
  0
VERTEX
  5
2D41D
  8
0
 10
541.40917324958173
 20
216.2593083941224
 30
0.0
  0
VERTEX
  5
2D41E
  8
0
 10
541.56323005030754
 20
215.24479751685701
 30
0.0
  0
VERTEX
  5
2D41F
  8
0
 10
541.69181037212854
 20
214.2255129898117
 30
0.0
  0
VERTEX
  5
2D420
  8
0
 10
541.79480542325655
 20
213.20231722945709
 30
0.0
  0
VERTEX
  5
2D421
  8
0
 10
541.83668039202576
 20
212.6895230668338
 30
0.0
  0
VERTEX
  5
2D422
  8
0
 10
541.87212805959496
 20
212.1760759615577
 30
0.0
  0
VERTEX
  5
2D423
  8
0
 10
541.923712858474
 20
211.147657488682
 30
0.0
  0
VERTEX
  5
2D424
  8
0
 10
541.94951617400454
 20
210.11793195553079
 30
0.0
  0
VERTEX
  5
2D425
  8
0
 10
541.95274210022762
 20
209.6028512841194
 30
0.0
  0
SEQEND
  5
2D426
  8
0
  0
POLYLINE
  5
1DD56
  8
0
 66
     1
 10
0.0
 20
0.0
 30
0.0
  0
VERTEX
  5
2D427
  8
0
 10
541.95274210022762
 20
209.6028512841194
 30
0.0
  0
VERTEX
  5
2D428
  8
0
 10
541.94627900708383
 20
208.87380228079471
 30
0.0
  0
VERTEX
  5
2D429
  8
0
 10
541.89459069548809
 20
207.41694005444151
 30
0.0
  0
VERTEX
  5
2D42A
  8
0
 10
541.79130168697975
 20
205.9637830742559
 30
0.0
  0
VERTEX
  5
2D42B
  8
0
 10
541.720358224606
 20
205.2393641564781
 30
0.0
  0
VERTEX
  5
2D42C
  8
0
 10
541.63658706241165
 20
204.516794525503
 30
0.0
  0
VERTEX
  5
2D42D
  8
0
 10
541.43070907203526
 20
203.07842713759919
 30
0.0
  0
VERTEX
  5
2D42E
  8
0
 10
541.17401669097114
 20
201.6511190265937
 30
0.0
  0
VERTEX
  5
2D42F
  8
0
 10
540.86694502767614
 20
200.2372895624207
 30
0.0
  0
VERTEX
  5
2D430
  8
0
 10
540.51001458640746
 20
198.83933526792811
 30
0.0
  0
VERTEX
  5
2D431
  8
0
 10
540.10383038494217
 20
197.45962575663
 30
0.0
  0
VERTEX
  5
2D432
  8
0
 10
539.88248005188643
 20
196.77734495136841
 30
0.0
  0
VERTEX
  5
2D433
  8
0
 10
539.6490809290317
 20
196.10049971607711
 30
0.0
  0
VERTEX
  5
2D434
  8
0
 10
539.1465370453484
 20
194.7642609436443
 30
0.0
  0
VERTEX
  5
2D435
  8
0
 10
538.59705057488827
 20
193.4531744414617
 30
0.0
  0
VERTEX
  5
2D436
  8
0
 10
538.00155292905083
 20
192.1694625771033
 30
0.0
  0
VERTEX
  5
2D437
  8
0
 10
537.36105351084507
 20
190.91530131654639
 30
0.0
  0
VERTEX
  5
2D438
  8
0
 10
536.67663800388891
 20
189.692816535784
 30
0.0
  0
VERTEX
  5
2D439
  8
0
 10
536.31832140095685
 20
189.0941025764582
 30
0.0
  0
VERTEX
  5
2D43A
  8
0
 10
535.94946653211628
 20
188.50408041733951
 30
0.0
  0
VERTEX
  5
2D43B
  8
0
 10
535.18077169329854
 20
187.35110793779899
 30
0.0
  0
VERTEX
  5
2D43C
  8
0
 10
534.37185646971784
 20
186.2358534523087
 30
0.0
  0
VERTEX
  5
2D43D
  8
0
 10
533.95274210022762
 20
185.69296379969629
 30
0.0
  0
SEQEND
  5
2D43E
  8
0
  0
LINE
  5
1DD57
  8
2
 10
480.95274210022762
 20
253.743688731422
 30
0.0
 11
541.95274210022762
 21
253.743688731422
 31
0.0
  0
LINE
  5
1DD5C
  8
0
 10
533.95274210022762
 20
233.51269490219099
 30
0.0
 11
533.95274210022762
 21
179.743688731422
 31
0.0
  0
LINE
  5
1DD5D
  8
0
 10
488.95274210022762
 20
179.743688731422
 30
0.0
 11
488.95274210022762
 21
233.51269490219099
 31
0.0
  0
LINE
  5
1DD81
  8
0
 10
485.85274210022772
 20
183.928688731422
 30
0.0
 11
486.45274210022762
 21
183.928688731422
 31
0.0
  0
LINE
  5
1DD82
  8
0
 10
545.68574210022769
 20
193.743688731422
 30
0.0
 11
544.45274210022762
 21
193.743688731422
 31
0.0
  0
LINE
  5
1DD83
  8
0
 10
544.45274210022762
 20
185.743688731422
 30
0.0
 11
545.68574210022769
 21
185.743688731422
 31
0.0
  0
LINE
  5
1DD84
  8
0
 10
546.45274210022762
 20
192.9766887314222
 30
0.0
 11
545.68574210022769
 21
193.743688731422
 31
0.0
  0
LINE
  5
1DD85
  8
0
 10
545.68574210022769
 20
185.743688731422
 30
0.0
 11
546.45274210022762
 21
186.51068873142179
 31
0.0
  0
LINE
  5
1DD87
  8
0
 10
533.95274210022762
 20
193.743688731422
 30
0.0
 11
531.45274210022762
 21
193.743688731422
 31
0.0
  0
LINE
  5
1DD88
  8
0
 10
531.45274210022762
 20
185.743688731422
 30
0.0
 11
533.95274210022762
 21
185.743688731422
 31
0.0
  0
LINE
  5
1DD8A
  8
0
 10
544.45274210022762
 20
195.558688731422
 30
0.0
 11
542.15632441579965
 21
195.558688731422
 31
0.0
  0
LINE
  5
1DD8C
  8
0
 10
541.95274210022762
 20
183.928688731422
 30
0.0
 11
544.45274210022762
 21
183.928688731422
 31
0.0
  0
LINE
  5
1DD8D
  8
0
 10
491.45274210022762
 20
193.743688731422
 30
0.0
 11
488.95274210022762
 21
193.743688731422
 31
0.0
  0
LINE
  5
1DD90
  8
0
 10
488.95274210022762
 20
185.743688731422
 30
0.0
 11
491.45274210022762
 21
185.743688731422
 31
0.0
  0
LINE
  5
1DD91
  8
0
 10
531.45274210022762
 20
195.743688731422
 30
0.0
 11
526.45274210022762
 21
195.743688731422
 31
0.0
  0
LINE
  5
1DD93
  8
0
 10
496.45274210022762
 20
195.743688731422
 30
0.0
 11
491.45274210022762
 21
195.743688731422
 31
0.0
  0
LINE
  5
1DD94
  8
0
 10
491.45274210022762
 20
183.743688731422
 30
0.0
 11
496.45274210022762
 21
183.743688731422
 31
0.0
  0
LINE
  5
1DD96
  8
0
 10
526.45274210022762
 20
183.743688731422
 30
0.0
 11
531.45274210022762
 21
183.743688731422
 31
0.0
  0
LINE
  5
1DD97
  8
0
 10
545.68574210022769
 20
185.743688731422
 30
0.0
 11
545.68574210022769
 21
193.743688731422
 31
0.0
  0
LINE
  5
1DD98
  8
0
 10
546.45274210022762
 20
186.51068873142179
 30
0.0
 11
546.45274210022762
 21
192.9766887314222
 31
0.0
  0
LINE
  5
1DD99
  8
0
 10
481.15274210022739
 20
183.48535539808881
 30
0.0
 11
481.15274210022739
 21
194.42764741174409
 31
0.0
  0
LINE
  5
1DD9B
  8
0
 10
485.85274210022772
 20
183.48535539808881
 30
0.0
 11
485.85274210022772
 21
185.41799263673329
 31
0.0
  0
POLYLINE
  5
1DDA8
  8
0
 66
     1
 10
0.0
 20
0.0
 30
0.0
  0
VERTEX
  5
2D43F
  8
0
 10
481.41216180964318
 20
189.743688731422
 30
0.0
  0
VERTEX
  5
2D440
  8
0
 10
481.33131715638501
 20
190.3058672095367
 30
0.0
  0
VERTEX
  5
2D441
  8
0
 10
481.2167068176318
 20
191.36165710226081
 30
0.0
  0
VERTEX
  5
2D442
  8
0
 10
481.15993223384748
 20
192.37041764617331
 30
0.0
  0
VERTEX
  5
2D443
  8
0
 10
481.15274210022739
 20
192.8728553980886
 30
0.0
  0
SEQEND
  5
2D444
  8
0
  0
POLYLINE
  5
1DDA9
  8
0
 66
     1
 10
0.0
 20
0.0
 30
0.0
  0
VERTEX
  5
2D445
  8
0
 10
481.15274210022739
 20
192.8728553980886
 30
0.0
  0
VERTEX
  5
2D446
  8
0
 10
481.1542991251203
 20
193.1064685637493
 30
0.0
  0
VERTEX
  5
2D447
  8
0
 10
481.16662158320321
 20
193.57162206565411
 30
0.0
  0
VERTEX
  5
2D448
  8
0
 10
481.19106806598529
 20
194.03822231617909
 30
0.0
  0
VERTEX
  5
2D449
  8
0
 10
481.20784221545358
 20
194.273614741458
 30
0.0
  0
SEQEND
  5
2D44A
  8
0
  0
POLYLINE
  5
1DDAD
  8
0
 66
     1
 10
0.0
 20
0.0
 30
0.0
  0
VERTEX
  5
2D44B
  8
0
 10
485.81623797360811
 20
185.477495903207
 30
0.0
  0
VERTEX
  5
2D44C
  8
0
 10
485.79351699520151
 20
185.1613976648014
 30
0.0
  0
VERTEX
  5
2D44D
  8
0
 10
485.7313093869447
 20
184.51490596427041
 30
0.0
  0
VERTEX
  5
2D44E
  8
0
 10
485.6456179417778
 20
183.8387947870842
 30
0.0
  0
VERTEX
  5
2D44F
  8
0
 10
485.59332239081181
 20
183.48535539808881
 30
0.0
  0
SEQEND
  5
2D450
  8
0
  0
POLYLINE
  5
1DDAF
  8
0
 66
     1
 10
0.0
 20
0.0
 30
0.0
  0
VERTEX
  5
2D451
  8
0
 10
481.41216180964318
 20
183.48535539808881
 30
0.0
  0
VERTEX
  5
2D452
  8
0
 10
481.33131715638501
 20
184.04753387620349
 30
0.0
  0
VERTEX
  5
2D453
  8
0
 10
481.2167068176318
 20
185.10332376892751
 30
0.0
  0
VERTEX
  5
2D454
  8
0
 10
481.15993223384748
 20
186.11208431283961
 30
0.0
  0
VERTEX
  5
2D455
  8
0
 10
481.15274210022739
 20
186.61452206475539
 30
0.0
  0
SEQEND
  5
2D456
  8
0
  0
POLYLINE
  5
1DDB0
  8
0
 66
     1
 10
0.0
 20
0.0
 30
0.0
  0
VERTEX
  5
2D457
  8
0
 10
481.15274210022739
 20
186.61452206475539
 30
0.0
  0
VERTEX
  5
2D458
  8
0
 10
481.15993223384748
 20
187.11695981667069
 30
0.0
  0
VERTEX
  5
2D459
  8
0
 10
481.2167068176318
 20
188.1257203605833
 30
0.0
  0
VERTEX
  5
2D45A
  8
0
 10
481.33131715638501
 20
189.18151025330729
 30
0.0
  0
VERTEX
  5
2D45B
  8
0
 10
481.41216180964318
 20
189.743688731422
 30
0.0
  0
SEQEND
  5
2D45C
  8
0
  0
LINE
  5
1DDB1
  8
0
 10
481.41216180964318
 20
189.743688731422
 30
0.0
 11
483.23041102182458
 21
189.743688731422
 31
0.0
  0
LINE
  5
1DDB7
  8
0
 10
544.45274210022762
 20
183.928688731422
 30
0.0
 11
544.45274210022762
 21
195.558688731422
 31
0.0
  0
LINE
  5
1DDB8
  8
0
 10
541.95274210022762
 20
183.48535539808881
 30
0.0
 11
541.95274210022762
 21
194.97497530128931
 31
0.0
  0
POLYLINE
  5
1DDC4
  8
0
 66
     1
 10
0.0
 20
0.0
 30
0.0
  0
VERTEX
  5
2D45D
  8
0
 10
541.95274210022762
 20
192.8728553980886
 30
0.0
  0
VERTEX
  5
2D45E
  8
0
 10
541.94555196660747
 20
192.37041764617331
 30
0.0
  0
VERTEX
  5
2D45F
  8
0
 10
541.88877738282315
 20
191.36165710226081
 30
0.0
  0
VERTEX
  5
2D460
  8
0
 10
541.77416704407051
 20
190.3058672095367
 30
0.0
  0
VERTEX
  5
2D461
  8
0
 10
541.69332239081223
 20
189.743688731422
 30
0.0
  0
SEQEND
  5
2D462
  8
0
  0
POLYLINE
  5
1DDC8
  8
0
 66
     1
 10
0.0
 20
0.0
 30
0.0
  0
VERTEX
  5
2D463
  8
0
 10
541.85934471104019
 20
194.70677612477169
 30
0.0
  0
VERTEX
  5
2D464
  8
0
 10
541.8878713289655
 20
194.39492075390081
 30
0.0
  0
VERTEX
  5
2D465
  8
0
 10
541.92927397261019
 20
193.78277316709591
 30
0.0
  0
VERTEX
  5
2D466
  8
0
 10
541.95010557865453
 20
193.17689842720799
 30
0.0
  0
VERTEX
  5
2D467
  8
0
 10
541.95274210022762
 20
192.8728553980886
 30
0.0
  0
SEQEND
  5
2D468
  8
0
  0
POLYLINE
  5
1DDC9
  8
0
 66
     1
 10
0.0
 20
0.0
 30
0.0
  0
VERTEX
  5
2D469
  8
0
 10
541.95274210022762
 20
186.61452206475539
 30
0.0
  0
VERTEX
  5
2D46A
  8
0
 10
541.94555196660747
 20
186.11208431283961
 30
0.0
  0
VERTEX
  5
2D46B
  8
0
 10
541.88877738282315
 20
185.10332376892751
 30
0.0
  0
VERTEX
  5
2D46C
  8
0
 10
541.77416704407051
 20
184.04753387620349
 30
0.0
  0
VERTEX
  5
2D46D
  8
0
 10
541.69332239081223
 20
183.48535539808881
 30
0.0
  0
SEQEND
  5
2D46E
  8
0
  0
POLYLINE
  5
1DDCB
  8
0
 66
     1
 10
0.0
 20
0.0
 30
0.0
  0
VERTEX
  5
2D46F
  8
0
 10
536.71216180964302
 20
183.48535539808881
 30
0.0
  0
VERTEX
  5
2D470
  8
0
 10
536.67951266613397
 20
183.70213225296399
 30
0.0
  0
VERTEX
  5
2D471
  8
0
 10
536.62141660654834
 20
184.1232065851145
 30
0.0
  0
VERTEX
  5
2D472
  8
0
 10
536.57245212729822
 20
184.53036884816669
 30
0.0
  0
VERTEX
  5
2D473
  8
0
 10
536.55125050202048
 20
184.72969486261721
 30
0.0
  0
SEQEND
  5
2D474
  8
0
  0
LINE
  5
1DDCF
  8
0
 10
539.67507317863056
 20
189.743688731422
 30
0.0
 11
541.69332239081223
 21
189.743688731422
 31
0.0
  0
POLYLINE
  5
1DDD0
  8
0
 66
     1
 10
0.0
 20
0.0
 30
0.0
  0
VERTEX
  5
2D475
  8
0
 10
541.69332239081223
 20
189.743688731422
 30
0.0
  0
VERTEX
  5
2D476
  8
0
 10
541.77416704407051
 20
189.18151025330729
 30
0.0
  0
VERTEX
  5
2D477
  8
0
 10
541.88877738282315
 20
188.1257203605833
 30
0.0
  0
VERTEX
  5
2D478
  8
0
 10
541.94555196660747
 20
187.11695981667069
 30
0.0
  0
VERTEX
  5
2D479
  8
0
 10
541.95274210022762
 20
186.61452206475539
 30
0.0
  0
SEQEND
  5
2D47A
  8
0
  0
LINE
  5
1DDD4
  8
0
 10
491.45274210022762
 20
183.743688731422
 30
0.0
 11
491.45274210022762
 21
195.743688731422
 31
0.0
  0
LINE
  5
1DDD5
  8
0
 10
531.45274210022762
 20
183.743688731422
 30
0.0
 11
531.45274210022762
 21
195.743688731422
 31
0.0
  0
LINE
  5
1DDDC
  8
0
 10
523.06070407190919
 20
239.743688731422
 30
0.0
 11
499.84478012854601
 21
239.743688731422
 31
0.0
  0
LINE
  5
1DDDD
  8
0
 10
499.84478012854601
 20
139.743688731422
 30
0.0
 11
523.06070407190919
 21
139.743688731422
 31
0.0
  0
ARC
  5
1DDDE
  8
0
 10
523.06070407190919
 20
142.243688731422
 30
0.0
 40
2.499999999999992
 50
270.0
 51
345.00000000000563
  0
ARC
  5
1DDDF
  8
0
 10
523.06070407190919
 20
237.243688731422
 30
0.0
 40
2.499999999999992
 50
14.999999999994451
 51
90.0
  0
LINE
  5
1DDE0
  8
0
 10
526.45274210022762
 20
234.243688731422
 30
0.0
 11
525.47551863763192
 21
237.89073634417849
 31
0.0
  0
LINE
  5
1DDE1
  8
0
 10
525.47551863763192
 20
141.5966411186655
 30
0.0
 11
526.45274210022762
 21
145.243688731422
 31
0.0
  0
LINE
  5
1DDE9
  8
0
 10
526.44524210022735
 20
173.7286887314221
 30
0.0
 11
526.45274210022762
 21
173.7286887314221
 31
0.0
  0
LINE
  5
1DDEB
  8
0
 10
526.44524210022735
 20
173.743688731422
 30
0.0
 11
526.45274210022762
 21
173.743688731422
 31
0.0
  0
LINE
  5
1DDF2
  8
0
 10
497.42996556282333
 20
237.89073634417849
 30
0.0
 11
496.45274210022762
 21
234.243688731422
 31
0.0
  0
LINE
  5
1DDF3
  8
0
 10
496.45274210022762
 20
145.243688731422
 30
0.0
 11
497.42996556282333
 21
141.5966411186655
 31
0.0
  0
ARC
  5
1DDF4
  8
0
 10
499.84478012854601
 20
142.243688731422
 30
0.0
 40
2.4999999999999778
 50
194.9999999999944
 51
270.0
  0
ARC
  5
1DDF5
  8
0
 10
499.84478012854601
 20
237.243688731422
 30
0.0
 40
2.4999999999999778
 50
90.0
 51
165.00000000000551
  0
LINE
  5
1DE0A
  8
0
 10
523.06070407190919
 20
139.743688731422
 30
0.0
 11
523.06070407190919
 21
239.743688731422
 31
0.0
  0
LINE
  5
1DE0C
  8
0
 10
526.45274210022762
 20
145.243688731422
 30
0.0
 11
526.45274210022762
 21
234.243688731422
 31
0.0
  0
LINE
  5
1DE0F
  8
0
 10
496.45274210022762
 20
145.243688731422
 30
0.0
 11
496.45274210022762
 21
234.243688731422
 31
0.0
  0
LINE
  5
1DE10
  8
0
 10
499.84478012854601
 20
139.743688731422
 30
0.0
 11
499.84478012854601
 21
239.743688731422
 31
0.0
  0
LINE
  5
1DE89
  8
0
 10
364.90231598404768
 20
264.44368873142179
 30
0.0
 11
364.90231598404768
 21
267.74368873142203
 31
0.0
  0
LINE
  5
1DE8A
  8
0
 10
342.90231598404762
 20
267.74368873142203
 30
0.0
 11
342.90231598404762
 21
264.44368873142179
 31
0.0
  0
ARC
  5
1DE8B
  8
0
 10
325.87731598404753
 20
261.44368873142179
 30
0.0
 40
2.9999999999999849
 50
90.0
 51
180.0
  0
ARC
  5
1DE8C
  8
0
 10
381.92731598404771
 20
261.44368873142179
 30
0.0
 40
2.999999999999992
 50
0.0
 51
90.0
  0
LINE
  5
1DE8D
  8
0
 10
384.92731598404771
 20
260.9436887314219
 30
0.0
 11
384.92731598404771
 21
261.44368873142179
 31
0.0
  0
LINE
  5
1DE8E
  8
0
 10
322.87731598404753
 20
261.44368873142179
 30
0.0
 11
322.87731598404753
 21
260.9436887314219
 31
0.0
  0
ARC
  5
1DE8F
  8
0
 10
321.40231598404762
 20
256.9436887314219
 30
0.0
 40
4.0000000000000142
 50
90.0
 51
180.0
  0
ARC
  5
1DE90
  8
0
 10
386.40231598404762
 20
256.9436887314219
 30
0.0
 40
4.0000000000000284
 50
0.0
 51
90.0
  0
LINE
  5
1DE91
  8
0
 10
390.40231598404762
 20
255.94368873142179
 30
0.0
 11
390.40231598404762
 21
256.9436887314219
 31
0.0
  0
LINE
  5
1DE92
  8
0
 10
317.40231598404762
 20
256.9436887314219
 30
0.0
 11
317.40231598404762
 21
255.94368873142179
 31
0.0
  0
LINE
  5
1DE93
  8
0
 10
386.90231598404762
 20
247.92135516300459
 30
0.0
 11
386.90231598404762
 21
255.94368873142179
 31
0.0
  0
LINE
  5
1DE94
  8
0
 10
320.90231598404762
 20
255.94368873142179
 30
0.0
 11
320.90231598404762
 21
253.94368873142179
 31
0.0
  0
LINE
  5
1DE95
  8
2
 10
384.40231598404762
 20
245.01843820248311
 30
0.0
 11
384.40231598404762
 21
253.743688731422
 31
0.0
  0
LINE
  5
1DE97
  8
2
 10
359.90231598404762
 20
253.743688731422
 30
0.0
 11
359.90231598404762
 21
267.74368873142203
 31
0.0
  0
LINE
  5
1DE98
  8
2
 10
347.90231598404762
 20
267.74368873142203
 30
0.0
 11
347.90231598404762
 21
253.743688731422
 31
0.0
  0
LINE
  5
1DE99
  8
0
 10
342.90231598404762
 20
267.74368873142203
 30
0.0
 11
364.90231598404762
 21
267.74368873142203
 31
0.0
  0
LINE
  5
1DE9A
  8
0
 10
325.87731598404753
 20
264.44368873142179
 30
0.0
 11
381.92731598404771
 21
264.44368873142179
 31
0.0
  0
LINE
  5
1DE9C
  8
0
 10
321.40231598404762
 20
260.9436887314219
 30
0.0
 11
386.40231598404762
 21
260.9436887314219
 31
0.0
  0
LINE
  5
1DE9E
  8
0
 10
317.40231598404762
 20
255.94368873142179
 30
0.0
 11
390.40231598404762
 21
255.94368873142179
 31
0.0
  0
LINE
  5
1DE9F
  8
0
 10
332.36165675550961
 20
253.94368873142179
 30
0.0
 11
310.90231598404762
 21
253.94368873142179
 31
0.0
  0
LINE
  5
1DEA0
  8
0
 10
332.36165675550961
 20
253.94368873142179
 30
0.0
 11
332.36165675550961
 21
184.59055327798339
 31
0.0
  0
LINE
  5
1DEA1
  8
0
 10
310.90231598404762
 20
253.94368873142179
 30
0.0
 11
310.90231598404762
 21
250.243688731422
 31
0.0
  0
LINE
  5
1DEA2
  8
0
 10
331.17966074267139
 20
183.2180587688085
 30
0.0
 11
332.36165675550961
 21
184.59055327798339
 31
0.0
  0
POLYLINE
  5
1DEA3
  8
0
 66
     1
 10
0.0
 20
0.0
 30
0.0
  0
VERTEX
  5
2D47B
  8
0
 10
332.36165675550961
 20
184.59055327798339
 30
0.0
  0
VERTEX
  5
2D47C
  8
0
 10
332.62697450944961
 20
184.8986314411199
 30
0.0
  0
VERTEX
  5
2D47D
  8
0
 10
333.16470404369238
 20
185.5230251151701
 30
0.0
  0
VERTEX
  5
2D47E
  8
0
 10
333.71169178570022
 20
186.15816911255931
 30
0.0
  0
VERTEX
  5
2D47F
  8
0
 10
333.98858133058411
 20
186.47968405497289
 30
0.0
  0
VERTEX
  5
2D480
  8
0
 10
334.26769353541022
 20
186.8037798762839
 30
0.0
  0
VERTEX
  5
2D481
  8
0
 10
334.83246106849668
 20
187.45956917650341
 30
0.0
  0
VERTEX
  5
2D482
  8
0
 10
335.4057422471933
 20
188.12524423921829
 30
0.0
  0
VERTEX
  5
2D483
  8
0
 10
335.98728113285779
 20
188.80050787697741
 30
0.0
  0
VERTEX
  5
2D484
  8
0
 10
336.57681810023229
 20
189.48505862155571
 30
0.0
  0
VERTEX
  5
2D485
  8
0
 10
337.17408995335518
 20
190.17859085854479
 30
0.0
  0
VERTEX
  5
2D486
  8
0
 10
337.47554326585401
 20
190.52862843200819
 30
0.0
  0
VERTEX
  5
2D487
  8
0
 10
337.77883004306108
 20
190.88079496379081
 30
0.0
  0
VERTEX
  5
2D488
  8
0
 10
338.39076838602659
 20
191.5913574416258
 30
0.0
  0
VERTEX
  5
2D489
  8
0
 10
339.00963178530219
 20
192.30996106482729
 30
0.0
  0
VERTEX
  5
2D48A
  8
0
 10
339.63514395228049
 20
193.03628501624101
 30
0.0
  0
VERTEX
  5
2D48B
  8
0
 10
340.26702563004352
 20
193.77000503200901
 30
0.0
  0
VERTEX
  5
2D48C
  8
0
 10
340.90499471803429
 20
194.51079354633609
 30
0.0
  0
VERTEX
  5
2D48D
  8
0
 10
341.2261731378531
 20
194.8837352592345
 30
0.0
  0
VERTEX
  5
2D48E
  8
0
 10
341.54876639800301
 20
195.25831983772969
 30
0.0
  0
VERTEX
  5
2D48F
  8
0
 10
342.19805326115829
 20
196.01225017664859
 30
0.0
  0
VERTEX
  5
2D490
  8
0
 10
342.85256543648262
 20
196.77224797449571
 30
0.0
  0
VERTEX
  5
2D491
  8
0
 10
343.18168979007578
 20
197.15441624176171
 30
0.0
  0
VERTEX
  5
2D492
  8
0
 10
343.51201072014283
 20
197.53797393388459
 30
0.0
  0
VERTEX
  5
2D493
  8
0
 10
344.17609470594249
 20
198.30908620012039
 30
0.0
  0
VERTEX
  5
2D494
  8
0
 10
344.84452091675939
 20
199.08524051381571
 30
0.0
  0
VERTEX
  5
2D495
  8
0
 10
345.18026917373521
 20
199.47510023767151
 30
0.0
  0
VERTEX
  5
2D496
  8
0
 10
345.5169909369061
 20
199.86609036458549
 30
0.0
  0
VERTEX
  5
2D497
  8
0
 10
346.19320454535409
 20
200.6512871457453
 30
0.0
  0
VERTEX
  5
2D498
  8
0
 10
346.8728598497691
 20
201.44048030994369
 30
0.0
  0
VERTEX
  5
2D499
  8
0
 10
347.55565342128881
 20
202.2333175256631
 30
0.0
  0
VERTEX
  5
2D49A
  8
0
 10
348.24128042998473
 20
203.02944483451759
 30
0.0
  0
VERTEX
  5
2D49B
  8
0
 10
348.92943478095509
 20
203.8285068092728
 30
0.0
  0
VERTEX
  5
2D49C
  8
0
 10
349.2743637428639
 20
204.22902686275299
 30
0.0
  0
VERTEX
  5
2D49D
  8
0
 10
349.61980925097799
 20
204.6301467125291
 30
0.0
  0
VERTEX
  5
2D49E
  8
0
 10
350.31209562566983
 20
205.43400665598119
 30
0.0
  0
VERTEX
  5
2D49F
  8
0
 10
351.00598483708609
 20
206.239727760199
 30
0.0
  0
VERTEX
  5
2D4A0
  8
0
 10
351.70116710170441
 20
207.04695031484471
 30
0.0
  0
VERTEX
  5
2D4A1
  8
0
 10
352.39733205872432
 20
207.8553139392657
 30
0.0
  0
VERTEX
  5
2D4A2
  8
0
 10
353.09416890862622
 20
208.6644577433849
 30
0.0
  0
VERTEX
  5
2D4A3
  8
0
 10
353.44274208274061
 20
209.0692093350321
 30
0.0
  0
VERTEX
  5
2D4A4
  8
0
 10
353.79136655192912
 20
209.47402048881619
 30
0.0
  0
VERTEX
  5
2D4A5
  8
0
 10
354.48861372807551
 20
210.2836407501409
 30
0.0
  0
VERTEX
  5
2D4A6
  8
0
 10
355.18559915439528
 20
211.092957076261
 30
0.0
  0
VERTEX
  5
2D4A7
  8
0
 10
355.88201166507542
 20
211.9016081517702
 30
0.0
  0
VERTEX
  5
2D4A8
  8
0
 10
356.57754035007792
 20
212.70923295825969
 30
0.0
  0
VERTEX
  5
2D4A9
  8
0
 10
357.27187469394448
 20
213.51547093549291
 30
0.0
  0
VERTEX
  5
2D4AA
  8
0
 10
357.6184970938844
 20
213.91795735296549
 30
0.0
  0
VERTEX
  5
2D4AB
  8
0
 10
357.9647047144253
 20
214.31996214237731
 30
0.0
  0
VERTEX
  5
2D4AC
  8
0
 10
358.65572110086708
 20
215.12234741765769
 30
0.0
  0
VERTEX
  5
2D4AD
  8
0
 10
359.3446153523073
 20
215.92226854026191
 30
0.0
  0
VERTEX
  5
2D4AE
  8
0
 10
360.03107991519761
 20
216.7193683892265
 30
0.0
  0
VERTEX
  5
2D4AF
  8
0
 10
360.71480832071393
 20
217.51329110313239
 30
0.0
  0
VERTEX
  5
2D4B0
  8
0
 10
361.39549532157753
 20
218.3036822389777
 30
0.0
  0
VERTEX
  5
2D4B1
  8
0
 10
361.73460327305429
 20
218.6974431284934
 30
0.0
  0
VERTEX
  5
2D4B2
  8
0
 10
362.07283702832859
 20
219.09018893041639
 30
0.0
  0
VERTEX
  5
2D4B3
  8
0
 10
362.74653104499879
 20
219.87246004529331
 30
0.0
  0
VERTEX
  5
2D4B4
  8
0
 10
363.41627660411268
 20
220.65014634240791
 30
0.0
  0
VERTEX
  5
2D4B5
  8
0
 10
364.08177470096598
 20
221.42290062742811
 30
0.0
  0
VERTEX
  5
2D4B6
  8
0
 10
364.74272822711328
 20
222.19037790789611
 30
0.0
  0
VERTEX
  5
2D4B7
  8
0
 10
365.39884210301079
 20
222.9522355472464
 30
0.0
  0
VERTEX
  5
2D4B8
  8
0
 10
365.72499254697499
 20
223.3309506094329
 30
0.0
  0
VERTEX
  5
2D4B9
  8
0
 10
366.04982340975312
 20
223.70813341777651
 30
0.0
  0
VERTEX
  5
2D4BA
  8
0
 10
366.69538151984671
 20
224.45773405249341
 30
0.0
  0
VERTEX
  5
2D4BB
  8
0
 10
367.3352282269575
 20
225.2007027957761
 30
0.0
  0
VERTEX
  5
2D4BC
  8
0
 10
367.65292043363888
 20
225.5695964337765
 30
0.0
  0
VERTEX
  5
2D4BD
  8
0
 10
367.96907787458082
 20
225.93670795277879
 30
0.0
  0
VERTEX
  5
2D4BE
  8
0
 10
368.59664748357
 20
226.66542093751559
 30
0.0
  0
VERTEX
  5
2D4BF
  8
0
 10
369.21765687847119
 20
227.3865164195563
 30
0.0
  0
VERTEX
  5
2D4C0
  8
0
 10
369.5256147382533
 20
227.74410685727119
 30
0.0
  0
VERTEX
  5
2D4C1
  8
0
 10
369.8318288126074
 20
228.0996724692686
 30
0.0
  0
VERTEX
  5
2D4C2
  8
0
 10
370.43888909185353
 20
228.80457070154131
 30
0.0
  0
VERTEX
  5
2D4C3
  8
0
 10
371.03856669704783
 20
229.5008964179269
 30
0.0
  0
VERTEX
  5
2D4C4
  8
0
 10
371.63059390498938
 20
230.1883387471367
 30
0.0
  0
VERTEX
  5
2D4C5
  8
0
 10
372.21470640796002
 20
230.86659078382669
 30
0.0
  0
VERTEX
  5
2D4C6
  8
0
 10
372.79064343172291
 20
231.5353497256165
 30
0.0
  0
VERTEX
  5
2D4C7
  8
0
 10
373.07546564182309
 20
231.86607581538959
 30
0.0
  0
VERTEX
  5
2D4C8
  8
0
 10
373.3581478519464
 20
232.19431700827141
 30
0.0
  0
VERTEX
  5
2D4C9
  8
0
 10
373.91696630899332
 20
232.84319843899669
 30
0.0
  0
VERTEX
  5
2D4CA
  8
0
 10
374.46684932103341
 20
233.48170432777849
 30
0.0
  0
VERTEX
  5
2D4CB
  8
0
 10
375.00755139542389
 20
234.10954961671359
 30
0.0
  0
VERTEX
  5
2D4CC
  8
0
 10
375.5388311383067
 20
234.72645400727151
 30
0.0
  0
VERTEX
  5
2D4CD
  8
0
 10
376.0604513623789
 20
235.33214208543629
 30
0.0
  0
VERTEX
  5
2D4CE
  8
0
 10
376.31756621015762
 20
235.6306953064036
 30
0.0
  0
VERTEX
  5
2D4CF
  8
0
 10
376.57217919278452
 20
235.9263434446579
 30
0.0
  0
VERTEX
  5
2D4D0
  8
0
 10
377.0737861710777
 20
236.50879280658
 30
0.0
  0
VERTEX
  5
2D4D1
  8
0
 10
377.5650483572208
 20
237.0792301394668
 30
0.0
  0
VERTEX
  5
2D4D2
  8
0
 10
378.04574642955731
 20
237.63740077429699
 30
0.0
  0
VERTEX
  5
2D4D3
  8
0
 10
378.51566578273008
 20
238.1830555184583
 30
0.0
  0
VERTEX
  5
2D4D4
  8
0
 10
378.97459662348911
 20
238.7159507669962
 30
0.0
  0
VERTEX
  5
2D4D5
  8
0
 10
379.19987713022738
 20
238.97753900855059
 30
0.0
  0
VERTEX
  5
2D4D6
  8
0
 10
379.42233406435298
 20
239.235848611374
 30
0.0
  0
VERTEX
  5
2D4D7
  8
0
 10
379.858678215081
 20
239.74251694568329
 30
0.0
  0
VERTEX
  5
2D4D8
  8
0
 10
380.28343427191157
 20
240.2357295702663
 30
0.0
  0
VERTEX
  5
2D4D9
  8
0
 10
380.69641260453272
 20
240.7152662927038
 30
0.0
  0
VERTEX
  5
2D4DA
  8
0
 10
381.09742884074149
 20
241.18091302611759
 30
0.0
  0
VERTEX
  5
2D4DB
  8
0
 10
381.4863039487546
 20
241.6324618847479
 30
0.0
  0
VERTEX
  5
2D4DC
  8
0
 10
381.67613411224647
 20
241.85288636523549
 30
0.0
  0
VERTEX
  5
2D4DD
  8
0
 10
381.8628643171387
 20
242.06971127676479
 30
0.0
  0
VERTEX
  5
2D4DE
  8
0
 10
382.22694183231579
 20
242.4924659942663
 30
0.0
  0
VERTEX
  5
2D4DF
  8
0
 10
382.57837395361997
 20
242.90053730042831
 30
0.0
  0
VERTEX
  5
2D4E0
  8
0
 10
382.91700378585892
 20
243.2937430137668
 30
0.0
  0
VERTEX
  5
2D4E1
  8
0
 10
383.24268014936251
 20
243.6719075894689
 30
0.0
  0
VERTEX
  5
2D4E2
  8
0
 10
383.55525764747432
 20
244.0348621977669
 30
0.0
  0
VERTEX
  5
2D4E3
  8
0
 10
383.70659048287371
 20
244.2105848595929
 30
0.0
  0
VERTEX
  5
2D4E4
  8
0
 10
383.85459673146352
 20
244.3824447993106
 30
0.0
  0
VERTEX
  5
2D4E5
  8
0
 10
384.14056376282628
 20
244.714500217508
 30
0.0
  0
VERTEX
  5
2D4E6
  8
0
 10
384.41303107294789
 20
245.0308802078043
 30
0.0
  0
VERTEX
  5
2D4E7
  8
0
 10
384.54416408257481
 20
245.18314750289619
 30
0.0
  0
VERTEX
  5
2D4E8
  8
0
 10
384.67187702010051
 20
245.33144352386441
 30
0.0
  0
VERTEX
  5
2D4E9
  8
0
 10
384.91698604374642
 20
245.6160559806317
 30
0.0
  0
VERTEX
  5
2D4EA
  8
0
 10
385.14824871613382
 20
245.8845905142357
 30
0.0
  0
VERTEX
  5
2D4EB
  8
0
 10
385.25865516344493
 20
246.01279081361599
 30
0.0
  0
VERTEX
  5
2D4EC
  8
0
 10
385.36556179114768
 20
246.136927238716
 30
0.0
  0
VERTEX
  5
2D4ED
  8
0
 10
385.56882825040378
 20
246.37295349954769
 30
0.0
  0
VERTEX
  5
2D4EE
  8
0
 10
385.75795734656282
 20
246.5925639239349
 30
0.0
  0
VERTEX
  5
2D4EF
  8
0
 10
385.932864643843
 20
246.79566046785251
 30
0.0
  0
VERTEX
  5
2D4F0
  8
0
 10
386.093472055718
 20
246.98215245981919
 30
0.0
  0
VERTEX
  5
2D4F1
  8
0
 10
386.23970787977532
 20
247.1519566413763
 30
0.0
  0
VERTEX
  5
2D4F2
  8
0
 10
386.30741579296182
 20
247.23057682119679
 30
0.0
  0
VERTEX
  5
2D4F3
  8
0
 10
386.37150682973061
 20
247.30499720425769
 30
0.0
  0
VERTEX
  5
2D4F4
  8
0
 10
386.48881006457208
 20
247.44120582423599
 30
0.0
  0
VERTEX
  5
2D4F5
  8
0
 10
386.59156521483152
 20
247.56052169162331
 30
0.0
  0
VERTEX
  5
2D4F6
  8
0
 10
386.6797264059623
 20
247.66289153842081
 30
0.0
  0
VERTEX
  5
2D4F7
  8
0
 10
386.75325427882223
 20
247.7482696620996
 30
0.0
  0
VERTEX
  5
2D4F8
  8
0
 10
386.81211600724367
 20
247.81661794600399
 30
0.0
  0
VERTEX
  5
2D4F9
  8
0
 10
386.83603859914001
 20
247.84439606510571
 30
0.0
  0
VERTEX
  5
2D4FA
  8
0
 10
386.85628531269009
 20
247.86790587636921
 30
0.0
  0
VERTEX
  5
2D4FB
  8
0
 10
386.8857424759849
 20
247.90211055594449
 30
0.0
  0
VERTEX
  5
2D4FC
  8
0
 10
386.9004743461187
 20
247.91921671421321
 30
0.0
  0
VERTEX
  5
2D4FD
  8
0
 10
386.90231598404762
 20
247.92135516300459
 30
0.0
  0
SEQEND
  5
2D4FE
  8
0
  0
ARC
  5
1DEA4
  8
0
 10
323.60231598404738
 20
189.743688731422
 30
0.0
 40
10.00000000000006
 50
270.0
 51
319.26487930294587
  0
LINE
  5
1DEA5
  8
0
 10
314.2023159840478
 20
179.743688731422
 30
0.0
 11
323.60231598404738
 21
179.743688731422
 31
0.0
  0
ARC
  5
1DEA6
  8
0
 10
314.2023159840478
 20
189.743688731422
 30
0.0
 40
10.0
 50
173.62234466032379
 51
270.0
  0
LINE
  5
1DEA7
  8
2
 10
323.40231598404762
 20
253.743688731422
 30
0.0
 11
384.40231598404762
 21
253.743688731422
 31
0.0
  0
LINE
  5
1DEA8
  8
0
 10
310.90231598404762
 20
250.243688731422
 30
0.0
 11
304.26420283282641
 21
190.8545023942479
 31
0.0
  0
LINE
  5
1DEAC
  8
0
 10
306.9356369808383
 20
253.743688731422
 30
0.0
 11
258.41897648244321
 21
240.743688731422
 31
0.0
  0
LINE
  5
1DEAD
  8
0
 10
310.90231598404762
 20
253.743688731422
 30
0.0
 11
306.9356369808383
 21
253.743688731422
 31
0.0
  0
LINE
  5
1DEAE
  8
0
 10
261.90231598404762
 20
227.743688731422
 30
0.0
 11
308.38742135231217
 21
227.743688731422
 31
0.0
  0
LINE
  5
1DEB1
  8
0
 10
258.41897648244321
 20
240.743688731422
 30
0.0
 11
261.90231598404762
 21
227.743688731422
 31
0.0
  0
LINE
  5
1DEBD
  8
1
 10
353.90231598404762
 20
279.04421004304459
 30
0.0
 11
353.90231598404762
 21
223.743688731422
 31
0.0
  0
CIRCLE
  5
1DED0
  8
0
 10
318.90231598404762
 20
189.743688731422
 30
0.0
 40
6.2583333333333391
  0
ARC
  5
1DED1
  8
0
 10
318.90231598404762
 20
189.743688731422
 30
0.0
 40
15.999999999999989
 50
150.1039591947706
 51
351.27869401317759
  0
ARC
  5
1DED7
  8
0
 10
318.90231598404762
 20
189.743688731422
 30
0.0
 40
41.499999999999972
 50
113.69999183745399
 51
30.191454864779342
  0
ARC
  5
1DEDD
  8
0
 10
318.90231598404762
 20
189.743688731422
 30
0.0
 40
50.0
 50
130.53580211130119
 51
33.527583333267877
  0
ARC
  5
1DF0A
  8
0
 10
318.90231598404762
 20
189.743688731422
 30
0.0
 40
18.0
 50
138.214723150655
 51
0.3413451152573228
  0
ARC
  5
1DF12
  8
0
 10
318.90231598404762
 20
189.743688731422
 30
0.0
 40
38.500000000000007
 50
106.021867706207
 51
28.640316280481141
  0
LINE
  5
1DF16
  8
0
 10
303.97963967805708
 20
179.67821646894799
 30
0.0
 11
286.98436944067862
 21
168.21476194779819
 31
0.0
  0
LINE
  5
1DF17
  8
0
 10
285.56033793834689
 20
208.993688731422
 30
0.0
 11
303.31385871592738
 21
198.743688731422
 31
0.0
  0
LINE
  5
1DF19
  8
0
 10
335.08060881743222
 20
181.85300808921781
 30
0.0
 11
353.50588676656571
 21
172.86639958004289
 31
0.0
  0
ARC
  5
1DF1C
  8
0
 10
318.90231598404762
 20
189.743688731422
 30
0.0
 40
34.519775472152183
 50
150.0000000000027
 51
214.0000000000027
  0
LINE
  5
1DF1F
  8
0
 10
318.90231598404762
 20
151.243688731422
 30
0.0
 11
318.90231598404762
 21
171.65679234840081
 31
0.0
  0
ARC
  5
1DF20
  8
0
 10
318.90231598404762
 20
189.743688731422
 30
0.0
 40
34.519775472152283
 50
270.0
 51
334.00000000000938
  0
ARC
  5
1E68D
  8
0
 10
98.326889867867521
 20
261.44368873142179
 30
0.0
 40
2.9999999999999849
 50
90.0
 51
180.0
  0
ARC
  5
1E68E
  8
0
 10
154.37688986786719
 20
261.44368873142179
 30
0.0
 40
2.9999999999999849
 50
0.0
 51
90.0
  0
LINE
  5
1E68F
  8
0
 10
157.37688986786719
 20
260.9436887314219
 30
0.0
 11
157.37688986786719
 21
261.44368873142179
 31
0.0
  0
LINE
  5
1E690
  8
0
 10
95.326889867867521
 20
261.44368873142179
 30
0.0
 11
95.326889867867521
 21
260.9436887314219
 31
0.0
  0
ARC
  5
1E691
  8
0
 10
93.851889867867143
 20
256.9436887314219
 30
0.0
 40
4.0000000000000142
 50
90.0
 51
180.0
  0
ARC
  5
1E692
  8
0
 10
158.8518898678671
 20
256.9436887314219
 30
0.0
 40
4.0000000000000142
 50
0.0
 51
90.0
  0
LINE
  5
1E693
  8
0
 10
162.8518898678671
 20
255.94368873142179
 30
0.0
 11
162.8518898678671
 21
256.9436887314219
 31
0.0
  0
LINE
  5
1E694
  8
0
 10
89.851889867867143
 20
256.9436887314219
 30
0.0
 11
89.851889867867143
 21
255.94368873142179
 31
0.0
  0
LINE
  5
1E695
  8
0
 10
159.3518898678671
 20
209.60285128411891
 30
0.0
 11
159.3518898678671
 21
255.94368873142179
 31
0.0
  0
LINE
  5
1E696
  8
0
 10
93.351889867867158
 20
255.94368873142179
 30
0.0
 11
93.351889867867158
 21
209.60285128411891
 31
0.0
  0
LINE
  5
1E6A0
  8
0
 10
98.326889867867521
 20
264.44368873142179
 30
0.0
 11
154.37688986786719
 21
264.44368873142179
 31
0.0
  0
LINE
  5
1E6A2
  8
0
 10
93.851889867867143
 20
260.9436887314219
 30
0.0
 11
158.8518898678671
 21
260.9436887314219
 31
0.0
  0
LINE
  5
1E6A4
  8
0
 10
89.851889867867143
 20
255.94368873142179
 30
0.0
 11
162.8518898678671
 21
255.94368873142179
 31
0.0
  0
LINE
  5
1E6A5
  8
0
 10
101.3518898678671
 20
253.94368873142179
 30
0.0
 11
151.3518898678671
 21
253.94368873142179
 31
0.0
  0
POLYLINE
  5
1E6A8
  8
0
 66
     1
 10
0.0
 20
0.0
 30
0.0
  0
VERTEX
  5
2D4FF
  8
0
 10
156.65181817213849
 20
194.42242870265949
 30
0.0
  0
VERTEX
  5
2D500
  8
0
 10
156.797799582469
 20
194.82148628804401
 30
0.0
  0
VERTEX
  5
2D501
  8
0
 10
157.0780506951578
 20
195.6252272823312
 30
0.0
  0
VERTEX
  5
2D502
  8
0
 10
157.3425674378513
 20
196.4361259917959
 30
0.0
  0
VERTEX
  5
2D503
  8
0
 10
157.46888277417841
 20
196.84412986205959
 30
0.0
  0
VERTEX
  5
2D504
  8
0
 10
157.59121435580479
 20
197.253767168324
 30
0.0
  0
VERTEX
  5
2D505
  8
0
 10
157.82386412095269
 20
198.07773211109361
 30
0.0
  0
VERTEX
  5
2D506
  8
0
 10
158.0403975971135
 20
198.90759888098449
 30
0.0
  0
VERTEX
  5
2D507
  8
0
 10
158.24070390099581
 20
199.742942516646
 30
0.0
  0
VERTEX
  5
2D508
  8
0
 10
158.42468045898161
 20
200.58333525211361
 30
0.0
  0
VERTEX
  5
2D509
  8
0
 10
158.59223305965091
 20
201.42834673585909
 30
0.0
  0
VERTEX
  5
2D50A
  8
0
 10
158.6698232334229
 20
201.85244937070229
 30
0.0
  0
VERTEX
  5
2D50B
  8
0
 10
158.74327590202711
 20
202.2775442511693
 30
0.0
  0
VERTEX
  5
2D50C
  8
0
 10
158.877731639513
 20
203.13049293773199
 30
0.0
  0
VERTEX
  5
2D50D
  8
0
 10
158.99553141950079
 20
203.98675601431981
 30
0.0
  0
VERTEX
  5
2D50E
  8
0
 10
159.09661491862829
 20
204.84589500246011
 30
0.0
  0
VERTEX
  5
2D50F
  8
0
 10
159.18093037367041
 20
205.70746995097349
 30
0.0
  0
VERTEX
  5
2D510
  8
0
 10
159.24843460804641
 20
206.571039661264
 30
0.0
  0
VERTEX
  5
2D511
  8
0
 10
159.275871378245
 20
207.00343439201291
 30
0.0
  0
VERTEX
  5
2D512
  8
0
 10
159.29909305392951
 20
207.43616191324961
 30
0.0
  0
VERTEX
  5
2D513
  8
0
 10
159.3328797699491
 20
208.30239369181851
 30
0.0
  0
VERTEX
  5
2D514
  8
0
 10
159.3497774544748
 20
209.16929141368649
 30
0.0
  0
VERTEX
  5
2D515
  8
0
 10
159.3518898678671
 20
209.60285128411891
 30
0.0
  0
SEQEND
  5
2D516
  8
0
  0
POLYLINE
  5
1E6AA
  8
0
 66
     1
 10
0.0
 20
0.0
 30
0.0
  0
VERTEX
  5
2D517
  8
0
 10
93.351889867867158
 20
209.60285128411891
 30
0.0
  0
VERTEX
  5
2D518
  8
0
 10
93.353683598988937
 20
209.2033305326386
 30
0.0
  0
VERTEX
  5
2D519
  8
0
 10
93.368032277994189
 20
208.40446275412069
 30
0.0
  0
VERTEX
  5
2D51A
  8
0
 10
93.396723396738707
 20
207.606116073392
 30
0.0
  0
VERTEX
  5
2D51B
  8
0
 10
93.416443715805144
 20
207.20724664104
 30
0.0
  0
VERTEX
  5
2D51C
  8
0
 10
93.439744479403544
 20
206.8086376372089
 30
0.0
  0
VERTEX
  5
2D51D
  8
0
 10
93.497076819040544
 20
206.01237421478621
 30
0.0
  0
VERTEX
  5
2D51E
  8
0
 10
93.568695485709668
 20
205.21767204701291
 30
0.0
  0
VERTEX
  5
2D51F
  8
0
 10
93.654569337315934
 20
204.42487669589261
 30
0.0
  0
VERTEX
  5
2D520
  8
0
 10
93.754661033152843
 20
203.63433289428579
 30
0.0
  0
VERTEX
  5
2D521
  8
0
 10
93.868927050139519
 20
202.84638439600619
 30
0.0
  0
VERTEX
  5
2D522
  8
0
 10
93.931360142209996
 20
202.45349050417821
 30
0.0
  0
VERTEX
  5
2D523
  8
0
 10
93.997317701744123
 20
202.061373826346
 30
0.0
  0
VERTEX
  5
2D524
  8
0
 10
94.139777159592086
 20
201.27964253309159
 30
0.0
  0
VERTEX
  5
2D525
  8
0
 10
94.296243477739154
 20
200.5015304380963
 30
0.0
  0
VERTEX
  5
2D526
  8
0
 10
94.466648619609245
 20
199.72737588946799
 30
0.0
  0
VERTEX
  5
2D527
  8
0
 10
94.650918487578565
 20
198.95751551444749
 30
0.0
  0
VERTEX
  5
2D528
  8
0
 10
94.848972955195208
 20
198.19228407303029
 30
0.0
  0
VERTEX
  5
2D529
  8
0
 10
94.953142734368157
 20
197.81150826850759
 30
0.0
  0
VERTEX
  5
2D52A
  8
0
 10
95.060725902020749
 20
197.43201431240459
 30
0.0
  0
VERTEX
  5
2D52B
  8
0
 10
95.286085251078475
 20
196.67703682225871
 30
0.0
  0
VERTEX
  5
2D52C
  8
0
 10
95.524953008892226
 20
195.92767989103319
 30
0.0
  0
VERTEX
  5
2D52D
  8
0
 10
95.649420310761798
 20
195.55521106075361
 30
0.0
  0
SEQEND
  5
2D52E
  8
0
  0
LINE
  5
1E6AE
  8
0
 10
151.3518898678671
 20
253.94368873142179
 30
0.0
 11
151.3518898678671
 21
179.743688731422
 31
0.0
  0
LINE
  5
1E6AF
  8
0
 10
151.3518898678671
 20
179.743688731422
 30
0.0
 11
148.8518898678671
 21
179.743688731422
 31
0.0
  0
LINE
  5
1E6B0
  8
0
 10
103.8518898678671
 20
179.743688731422
 30
0.0
 11
101.3518898678671
 21
179.743688731422
 31
0.0
  0
LINE
  5
1E6B1
  8
0
 10
101.3518898678671
 20
179.743688731422
 30
0.0
 11
101.3518898678671
 21
253.94368873142179
 31
0.0
  0
POLYLINE
  5
1E6B6
  8
0
 66
     1
 10
0.0
 20
0.0
 30
0.0
  0
VERTEX
  5
2D52F
  8
0
 10
148.84833497090901
 20
233.51724845083211
 30
0.0
  0
VERTEX
  5
2D530
  8
0
 10
148.13197796371281
 20
234.3952648688433
 30
0.0
  0
VERTEX
  5
2D531
  8
0
 10
146.6239241142334
 20
236.06356285452009
 30
0.0
  0
VERTEX
  5
2D532
  8
0
 10
145.3518898678671
 20
237.28979407938459
 30
0.0
  0
SEQEND
  5
2D533
  8
0
  0
POLYLINE
  5
1E6B8
  8
0
 66
     1
 10
0.0
 20
0.0
 30
0.0
  0
VERTEX
  5
2D534
  8
0
 10
107.3518898678671
 20
237.30648144847649
 30
0.0
  0
VERTEX
  5
2D535
  8
0
 10
107.27334187738001
 20
237.2342051948267
 30
0.0
  0
VERTEX
  5
2D536
  8
0
 10
107.0036843050879
 20
236.98022260764631
 30
0.0
  0
VERTEX
  5
2D537
  8
0
 10
106.0798556215013
 20
236.06356285452009
 30
0.0
  0
VERTEX
  5
2D538
  8
0
 10
104.5718017720219
 20
234.3952648688433
 30
0.0
  0
VERTEX
  5
2D539
  8
0
 10
103.85544476482571
 20
233.51724845083211
 30
0.0
  0
SEQEND
  5
2D53A
  8
0
  0
LINE
  5
1E6CA
  8
0
 10
103.8518898678671
 20
238.32887416569929
 30
0.0
 11
107.3518898678676
 21
238.32887416569969
 31
0.0
  0
LINE
  5
1E6CB
  8
0
 10
103.8518898678671
 20
179.743688731422
 30
0.0
 11
103.8518898678671
 21
238.32887416569929
 31
0.0
  0
LINE
  5
1E6CC
  8
0
 10
103.8518898678671
 20
227.743688731422
 30
0.0
 11
101.45188986786749
 21
227.743688731422
 31
0.0
  0
LINE
  5
1E6CD
  8
0
 10
107.3518898678671
 20
240.743688731422
 30
0.0
 11
101.3518898678676
 21
240.74368873142251
 31
0.0
  0
LINE
  5
1E6CE
  8
0
 10
151.25188986786719
 20
240.743688731422
 30
0.0
 11
145.3518898678671
 21
240.743688731422
 31
0.0
  0
LINE
  5
1E6CF
  8
0
 10
151.25188986786719
 20
227.743688731422
 30
0.0
 11
148.8518898678671
 21
227.743688731422
 31
0.0
  0
LINE
  5
1E6D0
  8
0
 10
148.8518898678671
 20
238.32887416569929
 30
0.0
 11
148.8518898678671
 21
179.743688731422
 31
0.0
  0
LINE
  5
1E6D1
  8
0
 10
145.3518898678671
 20
238.32887416569969
 30
0.0
 11
148.8518898678671
 21
238.32887416569929
 31
0.0
  0
LINE
  5
1E6E2
  8
0
 10
151.3518898678671
 20
183.928688731422
 30
0.0
 11
151.95188986786749
 21
183.928688731422
 31
0.0
  0
LINE
  5
1E6E3
  8
0
 10
151.95188986786749
 20
195.5586887314216
 30
0.0
 11
151.3518898678671
 21
195.5586887314216
 31
0.0
  0
LINE
  5
1E6E4
  8
0
 10
92.118889867867438
 20
185.743688731422
 30
0.0
 11
93.351889867867158
 21
185.743688731422
 31
0.0
  0
LINE
  5
1E6E5
  8
0
 10
93.351889867867158
 20
193.743688731422
 30
0.0
 11
92.118889867867438
 21
193.743688731422
 31
0.0
  0
LINE
  5
1E6E6
  8
0
 10
91.351889867867143
 20
186.51068873142179
 30
0.0
 11
92.118889867867438
 21
185.743688731422
 31
0.0
  0
LINE
  5
1E6E7
  8
0
 10
92.118889867867438
 20
193.743688731422
 30
0.0
 11
91.351889867867143
 21
192.97668873142169
 31
0.0
  0
LINE
  5
1E6E9
  8
0
 10
103.8518898678671
 20
185.743688731422
 30
0.0
 11
106.3518898678671
 21
185.743688731422
 31
0.0
  0
LINE
  5
1E6EA
  8
0
 10
106.3518898678671
 20
193.743688731422
 30
0.0
 11
103.8518898678671
 21
193.743688731422
 31
0.0
  0
LINE
  5
1E6EC
  8
0
 10
93.351889867867158
 20
183.928688731422
 30
0.0
 11
95.851889867867158
 21
183.928688731422
 31
0.0
  0
LINE
  5
1E6ED
  8
0
 10
95.851889867867158
 20
195.5586887314216
 30
0.0
 11
93.351889867867158
 21
195.5586887314216
 31
0.0
  0
LINE
  5
1E6EE
  8
0
 10
146.3518898678671
 20
185.743688731422
 30
0.0
 11
148.8518898678671
 21
185.743688731422
 31
0.0
  0
LINE
  5
1E6F1
  8
0
 10
148.8518898678671
 20
193.743688731422
 30
0.0
 11
146.3518898678671
 21
193.743688731422
 31
0.0
  0
LINE
  5
1E6F2
  8
0
 10
106.3518898678671
 20
183.743688731422
 30
0.0
 11
111.3518898678671
 21
183.743688731422
 31
0.0
  0
LINE
  5
1E6F4
  8
0
 10
141.3518898678671
 20
183.743688731422
 30
0.0
 11
146.3518898678671
 21
183.743688731422
 31
0.0
  0
LINE
  5
1E6F5
  8
0
 10
146.3518898678671
 20
195.743688731422
 30
0.0
 11
141.3518898678671
 21
195.743688731422
 31
0.0
  0
LINE
  5
1E6F7
  8
0
 10
111.3518898678671
 20
195.743688731422
 30
0.0
 11
106.3518898678671
 21
195.743688731422
 31
0.0
  0
LINE
  5
1E6F8
  8
0
 10
92.118889867867438
 20
193.743688731422
 30
0.0
 11
92.118889867867438
 21
185.743688731422
 31
0.0
  0
LINE
  5
1E6F9
  8
0
 10
91.351889867867143
 20
192.97668873142169
 30
0.0
 11
91.351889867867143
 21
186.51068873142179
 31
0.0
  0
LINE
  5
1E6FA
  8
0
 10
156.65188986786731
 20
196.00202206475521
 30
0.0
 11
156.65188986786731
 21
183.4853553980883
 31
0.0
  0
LINE
  5
1E6FB
  8
0
 10
151.95188986786749
 20
196.00202206475521
 30
0.0
 11
151.95188986786749
 21
183.4853553980883
 31
0.0
  0
POLYLINE
  5
1E6FC
  8
0
 66
     1
 10
0.0
 20
0.0
 30
0.0
  0
VERTEX
  5
2D53B
  8
0
 10
156.39247015845191
 20
196.00202206475521
 30
0.0
  0
VERTEX
  5
2D53C
  8
0
 10
156.4733148117102
 20
195.43984358664051
 30
0.0
  0
VERTEX
  5
2D53D
  8
0
 10
156.58792515046301
 20
194.38405369391651
 30
0.0
  0
VERTEX
  5
2D53E
  8
0
 10
156.6446997342473
 20
193.3752931500039
 30
0.0
  0
VERTEX
  5
2D53F
  8
0
 10
156.65188986786731
 20
192.8728553980886
 30
0.0
  0
SEQEND
  5
2D540
  8
0
  0
POLYLINE
  5
1E6FD
  8
0
 66
     1
 10
0.0
 20
0.0
 30
0.0
  0
VERTEX
  5
2D541
  8
0
 10
156.65188986786731
 20
192.8728553980886
 30
0.0
  0
VERTEX
  5
2D542
  8
0
 10
156.6446997342473
 20
192.37041764617291
 30
0.0
  0
VERTEX
  5
2D543
  8
0
 10
156.58792515046301
 20
191.36165710226081
 30
0.0
  0
VERTEX
  5
2D544
  8
0
 10
156.4733148117102
 20
190.3058672095367
 30
0.0
  0
VERTEX
  5
2D545
  8
0
 10
156.39247015845191
 20
189.743688731422
 30
0.0
  0
SEQEND
  5
2D546
  8
0
  0
POLYLINE
  5
1E6FE
  8
0
 66
     1
 10
0.0
 20
0.0
 30
0.0
  0
VERTEX
  5
2D547
  8
0
 10
152.21130957728289
 20
189.743688731422
 30
0.0
  0
VERTEX
  5
2D548
  8
0
 10
152.13046492402461
 20
190.3058672095367
 30
0.0
  0
VERTEX
  5
2D549
  8
0
 10
152.01585458527191
 20
191.36165710226081
 30
0.0
  0
VERTEX
  5
2D54A
  8
0
 10
151.95908000148711
 20
192.37041764617291
 30
0.0
  0
VERTEX
  5
2D54B
  8
0
 10
151.95188986786749
 20
192.8728553980886
 30
0.0
  0
SEQEND
  5
2D54C
  8
0
  0
POLYLINE
  5
1E6FF
  8
0
 66
     1
 10
0.0
 20
0.0
 30
0.0
  0
VERTEX
  5
2D54D
  8
0
 10
151.95188986786749
 20
192.8728553980886
 30
0.0
  0
VERTEX
  5
2D54E
  8
0
 10
151.95908000148711
 20
193.3752931500039
 30
0.0
  0
VERTEX
  5
2D54F
  8
0
 10
152.01585458527191
 20
194.38405369391651
 30
0.0
  0
VERTEX
  5
2D550
  8
0
 10
152.13046492402461
 20
195.43984358664051
 30
0.0
  0
VERTEX
  5
2D551
  8
0
 10
152.21130957728289
 20
196.00202206475521
 30
0.0
  0
SEQEND
  5
2D552
  8
0
  0
LINE
  5
1E700
  8
0
 10
156.39247015845191
 20
189.743688731422
 30
0.0
 11
152.21130957728289
 21
189.743688731422
 31
0.0
  0
POLYLINE
  5
1E701
  8
0
 66
     1
 10
0.0
 20
0.0
 30
0.0
  0
VERTEX
  5
2D553
  8
0
 10
156.39247015845191
 20
189.743688731422
 30
0.0
  0
VERTEX
  5
2D554
  8
0
 10
156.4733148117102
 20
189.1815102533069
 30
0.0
  0
VERTEX
  5
2D555
  8
0
 10
156.58792515046301
 20
188.12572036058279
 30
0.0
  0
VERTEX
  5
2D556
  8
0
 10
156.6446997342473
 20
187.11695981667069
 30
0.0
  0
VERTEX
  5
2D557
  8
0
 10
156.65188986786731
 20
186.61452206475491
 30
0.0
  0
SEQEND
  5
2D558
  8
0
  0
POLYLINE
  5
1E702
  8
0
 66
     1
 10
0.0
 20
0.0
 30
0.0
  0
VERTEX
  5
2D559
  8
0
 10
156.65188986786731
 20
186.61452206475491
 30
0.0
  0
VERTEX
  5
2D55A
  8
0
 10
156.6446997342473
 20
186.11208431283961
 30
0.0
  0
VERTEX
  5
2D55B
  8
0
 10
156.58792515046301
 20
185.10332376892711
 30
0.0
  0
VERTEX
  5
2D55C
  8
0
 10
156.4733148117102
 20
184.04753387620349
 30
0.0
  0
VERTEX
  5
2D55D
  8
0
 10
156.39247015845191
 20
183.4853553980883
 30
0.0
  0
SEQEND
  5
2D55E
  8
0
  0
POLYLINE
  5
1E703
  8
0
 66
     1
 10
0.0
 20
0.0
 30
0.0
  0
VERTEX
  5
2D55F
  8
0
 10
152.21130957728289
 20
183.4853553980883
 30
0.0
  0
VERTEX
  5
2D560
  8
0
 10
152.13046492402461
 20
184.04753387620349
 30
0.0
  0
VERTEX
  5
2D561
  8
0
 10
152.01585458527191
 20
185.10332376892711
 30
0.0
  0
VERTEX
  5
2D562
  8
0
 10
151.95908000148711
 20
186.11208431283961
 30
0.0
  0
VERTEX
  5
2D563
  8
0
 10
151.95188986786749
 20
186.61452206475491
 30
0.0
  0
SEQEND
  5
2D564
  8
0
  0
POLYLINE
  5
1E704
  8
0
 66
     1
 10
0.0
 20
0.0
 30
0.0
  0
VERTEX
  5
2D565
  8
0
 10
151.95188986786749
 20
186.61452206475491
 30
0.0
  0
VERTEX
  5
2D566
  8
0
 10
151.95908000148711
 20
187.11695981667069
 30
0.0
  0
VERTEX
  5
2D567
  8
0
 10
152.01585458527191
 20
188.1257203605833
 30
0.0
  0
VERTEX
  5
2D568
  8
0
 10
152.13046492402461
 20
189.1815102533069
 30
0.0
  0
VERTEX
  5
2D569
  8
0
 10
152.21130957728289
 20
189.743688731422
 30
0.0
  0
SEQEND
  5
2D56A
  8
0
  0
LINE
  5
1E713
  8
0
 10
93.351889867867158
 20
195.5586887314216
 30
0.0
 11
93.351889867867158
 21
183.928688731422
 31
0.0
  0
LINE
  5
1E714
  8
0
 10
95.851889867867158
 20
196.00202206475521
 30
0.0
 11
95.851889867867158
 21
183.4853553980883
 31
0.0
  0
POLYLINE
  5
1E715
  8
0
 66
     1
 10
0.0
 20
0.0
 30
0.0
  0
VERTEX
  5
2D56B
  8
0
 10
101.0924701584517
 20
196.00202206475521
 30
0.0
  0
VERTEX
  5
2D56C
  8
0
 10
101.17331481171
 20
195.43984358664051
 30
0.0
  0
VERTEX
  5
2D56D
  8
0
 10
101.2879251504632
 20
194.38405369391651
 30
0.0
  0
VERTEX
  5
2D56E
  8
0
 10
101.3446997342476
 20
193.3752931500039
 30
0.0
  0
VERTEX
  5
2D56F
  8
0
 10
101.3518898678671
 20
192.8728553980886
 30
0.0
  0
SEQEND
  5
2D570
  8
0
  0
POLYLINE
  5
1E716
  8
0
 66
     1
 10
0.0
 20
0.0
 30
0.0
  0
VERTEX
  5
2D571
  8
0
 10
101.3518898678671
 20
192.8728553980886
 30
0.0
  0
VERTEX
  5
2D572
  8
0
 10
101.3446997342476
 20
192.37041764617291
 30
0.0
  0
VERTEX
  5
2D573
  8
0
 10
101.2879251504632
 20
191.36165710226081
 30
0.0
  0
VERTEX
  5
2D574
  8
0
 10
101.17331481171
 20
190.3058672095367
 30
0.0
  0
VERTEX
  5
2D575
  8
0
 10
101.0924701584517
 20
189.743688731422
 30
0.0
  0
SEQEND
  5
2D576
  8
0
  0
POLYLINE
  5
1E717
  8
0
 66
     1
 10
0.0
 20
0.0
 30
0.0
  0
VERTEX
  5
2D577
  8
0
 10
96.111309577283009
 20
189.743688731422
 30
0.0
  0
VERTEX
  5
2D578
  8
0
 10
96.030464924024727
 20
190.3058672095367
 30
0.0
  0
VERTEX
  5
2D579
  8
0
 10
95.915854585271518
 20
191.36165710226081
 30
0.0
  0
VERTEX
  5
2D57A
  8
0
 10
95.8590800014872
 20
192.37041764617291
 30
0.0
  0
VERTEX
  5
2D57B
  8
0
 10
95.851889867867158
 20
192.8728553980886
 30
0.0
  0
SEQEND
  5
2D57C
  8
0
  0
POLYLINE
  5
1E718
  8
0
 66
     1
 10
0.0
 20
0.0
 30
0.0
  0
VERTEX
  5
2D57D
  8
0
 10
95.851889867867158
 20
192.8728553980886
 30
0.0
  0
VERTEX
  5
2D57E
  8
0
 10
95.8590800014872
 20
193.3752931500039
 30
0.0
  0
VERTEX
  5
2D57F
  8
0
 10
95.915854585271518
 20
194.38405369391651
 30
0.0
  0
VERTEX
  5
2D580
  8
0
 10
96.030464924024727
 20
195.43984358664051
 30
0.0
  0
VERTEX
  5
2D581
  8
0
 10
96.111309577283009
 20
196.00202206475521
 30
0.0
  0
SEQEND
  5
2D582
  8
0
  0
LINE
  5
1E719
  8
0
 10
101.0924701584517
 20
189.743688731422
 30
0.0
 11
96.111309577283009
 21
189.743688731422
 31
0.0
  0
POLYLINE
  5
1E71A
  8
0
 66
     1
 10
0.0
 20
0.0
 30
0.0
  0
VERTEX
  5
2D583
  8
0
 10
101.0924701584517
 20
189.743688731422
 30
0.0
  0
VERTEX
  5
2D584
  8
0
 10
101.17331481171
 20
189.1815102533069
 30
0.0
  0
VERTEX
  5
2D585
  8
0
 10
101.2879251504632
 20
188.12572036058279
 30
0.0
  0
VERTEX
  5
2D586
  8
0
 10
101.3446997342476
 20
187.11695981667069
 30
0.0
  0
VERTEX
  5
2D587
  8
0
 10
101.3518898678671
 20
186.61452206475491
 30
0.0
  0
SEQEND
  5
2D588
  8
0
  0
POLYLINE
  5
1E71B
  8
0
 66
     1
 10
0.0
 20
0.0
 30
0.0
  0
VERTEX
  5
2D589
  8
0
 10
101.3518898678671
 20
186.61452206475491
 30
0.0
  0
VERTEX
  5
2D58A
  8
0
 10
101.3446997342476
 20
186.11208431283961
 30
0.0
  0
VERTEX
  5
2D58B
  8
0
 10
101.2879251504632
 20
185.10332376892711
 30
0.0
  0
VERTEX
  5
2D58C
  8
0
 10
101.17331481171
 20
184.04753387620349
 30
0.0
  0
VERTEX
  5
2D58D
  8
0
 10
101.0924701584517
 20
183.4853553980883
 30
0.0
  0
SEQEND
  5
2D58E
  8
0
  0
POLYLINE
  5
1E71C
  8
0
 66
     1
 10
0.0
 20
0.0
 30
0.0
  0
VERTEX
  5
2D58F
  8
0
 10
96.111309577283009
 20
183.4853553980883
 30
0.0
  0
VERTEX
  5
2D590
  8
0
 10
96.030464924024727
 20
184.04753387620349
 30
0.0
  0
VERTEX
  5
2D591
  8
0
 10
95.915854585271518
 20
185.10332376892711
 30
0.0
  0
VERTEX
  5
2D592
  8
0
 10
95.8590800014872
 20
186.11208431283961
 30
0.0
  0
VERTEX
  5
2D593
  8
0
 10
95.851889867867158
 20
186.61452206475491
 30
0.0
  0
SEQEND
  5
2D594
  8
0
  0
POLYLINE
  5
1E71D
  8
0
 66
     1
 10
0.0
 20
0.0
 30
0.0
  0
VERTEX
  5
2D595
  8
0
 10
95.851889867867158
 20
186.61452206475491
 30
0.0
  0
VERTEX
  5
2D596
  8
0
 10
95.8590800014872
 20
187.11695981667069
 30
0.0
  0
VERTEX
  5
2D597
  8
0
 10
95.915854585271518
 20
188.12572036058279
 30
0.0
  0
VERTEX
  5
2D598
  8
0
 10
96.030464924024727
 20
189.1815102533069
 30
0.0
  0
VERTEX
  5
2D599
  8
0
 10
96.111309577283009
 20
189.743688731422
 30
0.0
  0
SEQEND
  5
2D59A
  8
0
  0
LINE
  5
1E72C
  8
0
 10
146.3518898678671
 20
195.743688731422
 30
0.0
 11
146.3518898678671
 21
183.743688731422
 31
0.0
  0
LINE
  5
1E72D
  8
0
 10
106.3518898678671
 20
195.743688731422
 30
0.0
 11
106.3518898678671
 21
183.743688731422
 31
0.0
  0
LINE
  5
1E734
  8
0
 10
114.74392789618599
 20
139.743688731422
 30
0.0
 11
137.95985183954869
 21
139.743688731422
 31
0.0
  0
ARC
  5
1E738
  8
0
 10
114.74392789618599
 20
142.243688731422
 30
0.0
 40
2.499999999999992
 50
194.9999999999944
 51
270.0
  0
LINE
  5
1E739
  8
0
 10
111.3518898678671
 20
145.243688731422
 30
0.0
 11
112.3291133304633
 21
141.5966411186655
 31
0.0
  0
LINE
  5
1E73A
  8
0
 10
111.6700548706058
 20
235.43109668683201
 30
0.0
 11
111.3518898678671
 21
234.243688731422
 31
0.0
  0
LINE
  5
1E745
  8
0
 10
141.34438986786739
 20
173.743688731422
 30
0.0
 11
141.3518898678671
 21
173.743688731422
 31
0.0
  0
LINE
  5
1E747
  8
0
 10
141.34438986786739
 20
173.7286887314217
 30
0.0
 11
141.3518898678671
 21
173.7286887314217
 31
0.0
  0
LINE
  5
1E74D
  8
0
 10
140.3746664052714
 20
141.5966411186655
 30
0.0
 11
141.3518898678671
 21
145.243688731422
 31
0.0
  0
LINE
  5
1E74E
  8
0
 10
141.3518898678671
 20
234.243688731422
 30
0.0
 11
141.03372486512899
 21
235.43109668683201
 31
0.0
  0
ARC
  5
1E751
  8
0
 10
137.95985183954869
 20
142.243688731422
 30
0.0
 40
2.4999999999999778
 50
270.0
 51
345.00000000000563
  0
LINE
  5
1E766
  8
0
 10
114.74392789618599
 20
235.43109668683201
 30
0.0
 11
114.74392789618599
 21
139.743688731422
 31
0.0
  0
LINE
  5
1E769
  8
0
 10
111.3518898678671
 20
234.243688731422
 30
0.0
 11
111.3518898678671
 21
145.243688731422
 31
0.0
  0
LINE
  5
1E76C
  8
0
 10
141.3518898678671
 20
234.243688731422
 30
0.0
 11
141.3518898678671
 21
145.243688731422
 31
0.0
  0
LINE
  5
1E76D
  8
0
 10
137.95985183954909
 20
235.43109668683201
 30
0.0
 11
137.95985183954869
 21
139.743688731422
 31
0.0
  0
LINE
  5
274EE
  8
0
 10
541.95274210022762
 20
183.48535539808881
 30
0.0
 11
536.45274210022762
 21
183.48535539808881
 31
0.0
  0
LINE
  5
274EF
  8
3
 10
546.45274210022762
 20
186.51068873142179
 30
0.0
 11
544.45274210022762
 21
186.5106887314214
 31
0.0
  0
LINE
  5
274F0
  8
3
 10
546.45274210022762
 20
192.9766887314222
 30
0.0
 11
544.45274210022762
 21
192.9766887314226
 31
0.0
  0
LINE
  5
274F1
  8
3
 10
533.95274210022706
 20
186.5106887314214
 30
0.0
 11
531.45274210022762
 21
186.5106887314214
 31
0.0
  0
LINE
  5
274F2
  8
3
 10
533.95274210022706
 20
192.9766887314226
 30
0.0
 11
531.45274210022762
 21
192.9766887314226
 31
0.0
  0
LINE
  5
274F3
  8
3
 10
491.45274210022762
 20
186.5106887314214
 30
0.0
 11
488.95274210022762
 21
186.5106887314214
 31
0.0
  0
LINE
  5
274F4
  8
3
 10
491.45274210022762
 20
192.9766887314222
 30
0.0
 11
488.95274210022762
 21
192.9766887314222
 31
0.0
  0
LINE
  5
274F5
  8
0
 10
481.15274210022739
 20
183.48535539808881
 30
0.0
 11
485.85274210022772
 21
183.48535539808881
 31
0.0
  0
LINE
  5
274F7
  8
0
 10
315.2890655493693
 20
196.00202206475521
 30
0.0
 11
322.51556641872588
 21
196.00202206475521
 31
0.0
  0
LINE
  5
274F8
  8
0
 10
315.2890655493693
 20
183.48535539808881
 30
0.0
 11
322.51556641872588
 21
183.48535539808881
 31
0.0
  0
LINE
  5
274F9
  8
0
 10
322.51556641872588
 20
196.00202206475521
 30
0.0
 11
326.12881685340432
 21
189.743688731422
 31
0.0
  0
LINE
  5
274FA
  8
0
 10
326.12881685340432
 20
189.743688731422
 30
0.0
 11
322.51556641872588
 21
183.48535539808881
 31
0.0
  0
LINE
  5
274FB
  8
0
 10
315.2890655493693
 20
196.00202206475521
 30
0.0
 11
311.67581511469098
 21
189.743688731422
 31
0.0
  0
LINE
  5
274FC
  8
0
 10
311.67581511469098
 20
189.743688731422
 30
0.0
 11
315.2890655493693
 21
183.48535539808881
 31
0.0
  0
LINE
  5
274FE
  8
1
 10
257.60179467242511
 20
189.743688731422
 30
0.0
 11
380.20283729567018
 21
189.743688731422
 31
0.0
  0
LINE
  5
274FF
  8
1
 10
318.90231598404762
 20
128.44316741979941
 30
0.0
 11
318.90231598404762
 21
251.04421004304459
 31
0.0
  0
LINE
  5
27500
  8
1
 10
465.82779607960401
 20
189.743688731422
 30
0.0
 11
557.07768812085123
 21
189.743688731422
 31
0.0
  0
LINE
  5
27501
  8
1
 10
511.45274210022762
 20
128.44316741979941
 30
0.0
 11
511.45274210022711
 21
279.04421004304459
 31
0.0
  0
LINE
  5
27504
  8
0
 10
151.95188986786749
 20
196.00202206475521
 30
0.0
 11
156.65188986786779
 21
196.00202206475569
 31
0.0
  0
LINE
  5
27505
  8
0
 10
151.95188986786749
 20
183.4853553980883
 30
0.0
 11
156.65188986786731
 21
183.4853553980883
 31
0.0
  0
LINE
  5
27506
  8
0
 10
95.851889867867158
 20
196.00202206475521
 30
0.0
 11
101.3518898678671
 21
196.00202206475521
 31
0.0
  0
LINE
  5
27507
  8
0
 10
95.851889867867158
 20
183.4853553980883
 30
0.0
 11
101.3518898678671
 21
183.4853553980879
 31
0.0
  0
LINE
  5
27508
  8
3
 10
91.351889867867143
 20
192.97668873142169
 30
0.0
 11
93.351889867867158
 21
192.97668873142169
 31
0.0
  0
LINE
  5
27509
  8
3
 10
91.351889867867143
 20
186.51068873142179
 30
0.0
 11
93.351889867867158
 21
186.5106887314214
 31
0.0
  0
LINE
  5
2750A
  8
3
 10
103.8518898678676
 20
186.51068873142179
 30
0.0
 11
106.3518898678676
 21
186.51068873142179
 31
0.0
  0
LINE
  5
2750B
  8
3
 10
103.8518898678676
 20
192.9766887314222
 30
0.0
 11
106.3518898678676
 21
192.9766887314222
 31
0.0
  0
LINE
  5
2750C
  8
3
 10
146.35188986786761
 20
186.51068873142179
 30
0.0
 11
148.8518898678671
 21
186.51068873142179
 31
0.0
  0
LINE
  5
2750D
  8
3
 10
146.35188986786761
 20
192.97668873142169
 30
0.0
 11
148.8518898678671
 21
192.97668873142129
 31
0.0
  0
LINE
  5
2750E
  8
1
 10
171.97683588849119
 20
189.743688731422
 30
0.0
 11
80.726943847244002
 21
189.743688731422
 31
0.0
  0
LINE
  5
2750F
  8
1
 10
126.3518898678676
 20
128.44316741979941
 30
0.0
 11
126.351889867868
 21
279.04421004304459
 31
0.0
  0
LINE
  5
27510
  8
3
 10
315.6693159840425
 20
412.98045729116251
 30
0.0
 11
315.6693159840425
 21
410.98045729116262
 31
0.0
  0
LINE
  5
27511
  8
3
 10
322.13531598404279
 20
412.98045729116251
 30
0.0
 11
322.13531598404279
 21
410.98045729116262
 31
0.0
  0
LINE
  5
278C0
  8
0
 10
238.41897648243821
 20
394.001977974478
 30
0.0
 11
238.41897648243821
 21
361.95893660784441
 31
0.0
  0
LINE
  5
278C1
  8
0
 10
242.96313674646581
 20
396.98045729116251
 30
0.0
 11
242.96313674646581
 21
358.98045729116262
 31
0.0
  0
LINE
  5
278C2
  8
0
 10
255.41897648243821
 20
393.98045729116262
 30
0.0
 11
255.41897648243821
 21
361.98045729116211
 31
0.0
  0
LINE
  5
278C3
  8
0
 10
258.41897648243821
 20
396.98045729116251
 30
0.0
 11
240.0130861810535
 21
396.98045729116251
 31
0.0
  0
LINE
  5
278C4
  8
0
 10
255.41897648243821
 20
393.98045729116262
 30
0.0
 11
258.41897648243821
 21
393.98045729116262
 31
0.0
  0
LINE
  5
278C5
  8
0
 10
258.41897648243821
 20
358.98045729116262
 30
0.0
 11
240.0130861810535
 21
358.98045729116262
 31
0.0
  0
LINE
  5
278C6
  8
0
 10
255.41897648243909
 20
361.98045729116211
 30
0.0
 11
258.41897648243912
 21
361.98045729116262
 31
0.0
  0
ARC
  5
278C7
  8
0
 10
242.75541587607901
 20
393.5969062647178
 30
0.0
 40
4.3553174057440378
 50
129.0243741561568
 51
174.6634221469576
  0
ARC
  5
278C8
  8
0
 10
242.75541587607901
 20
362.36400831760739
 30
0.0
 40
4.3553174057440378
 50
185.3365778530424
 51
230.9756258438432
  0
LINE
  5
278F0
  8
0
 10
238.41897648244321
 20
241.86604156743081
 30
0.0
 11
241.6329145308755
 21
238.0358193518359
 31
0.0
  0
LINE
  5
278F1
  8
0
 10
240.33408759024039
 20
243.47301059164741
 30
0.0
 11
238.41897648244321
 21
241.86604156743081
 31
0.0
  0
LINE
  5
278F2
  8
0
 10
242.96313674647081
 20
240.33983181460329
 30
0.0
 11
240.33408759024039
 21
243.47301059164741
 31
0.0
  0
LINE
  5
278F3
  8
0
 10
259.12854318207428
 20
238.0955497570389
 30
0.0
 11
242.96313674647081
 21
240.33983181460329
 31
0.0
  0
LINE
  5
278F4
  8
0
 10
258.44511079549829
 20
240.6461541472768
 30
0.0
 11
258.13956915287332
 21
240.8255228994112
 31
0.0
  0
LINE
  5
278F5
  8
0
 10
241.6329145308755
 20
238.0358193518359
 30
0.0
 11
259.84248123050651
 21
235.43109668683201
 31
0.0
  0
LINE
  5
278F6
  8
0
 10
255.87335676289419
 20
244.6021496726639
 30
0.0
 11
258.41739045640952
 21
244.25182632722269
 31
0.0
  0
LINE
  5
278F7
  8
0
 10
255.42243847079411
 20
241.4917089785518
 30
0.0
 11
255.87335676289419
 21
244.6021496726639
 31
0.0
  0
LINE
  5
278F8
  8
0
 10
258.07381807057391
 20
241.20457816917809
 30
0.0
 11
258.41739045640952
 21
244.25182632722269
 31
0.0
  0
LINE
  5
278F9
  8
0
 10
255.42243847079411
 20
241.4917089785518
 30
0.0
 11
256.16038546334772
 21
238.5076261956178
 31
0.0
  0
LINE
  5
278FA
  8
0
 10
258.07381807057391
 20
241.20457816917809
 30
0.0
 11
258.13956915287332
 21
240.8255228994112
 31
0.0
  0
LINE
  5
278FB
  8
0
 10
145.3518898678671
 20
235.43109668683201
 30
0.0
 11
107.3518898678671
 21
235.43109668683201
 31
0.0
  0
LINE
  5
278FC
  8
0
 10
145.3518898678671
 20
235.43109668683201
 30
0.0
 11
145.3518898678671
 21
243.47301059164741
 31
0.0
  0
LINE
  5
278FD
  8
0
 10
145.3518898678671
 20
243.47301059164741
 30
0.0
 11
107.3518898678671
 21
243.47301059164741
 31
0.0
  0
LINE
  5
278FE
  8
0
 10
107.3518898678671
 20
235.43109668683201
 30
0.0
 11
107.3518898678671
 21
243.47301059164741
 31
0.0
  0
LINE
  5
278FF
  8
0
 10
107.3518898678671
 20
238.0358193518359
 30
0.0
 11
145.3518898678671
 21
238.0358193518359
 31
0.0
  0
LINE
  5
27900
  8
0
 10
107.3518898678671
 20
240.7436887314216
 30
0.0
 11
101.3518898678671
 21
240.7436887314216
 31
0.0
  0
LINE
  5
27901
  8
0
 10
496.77090710296568
 20
235.43109668683201
 30
0.0
 11
490.58903622554578
 21
235.43109668683201
 31
0.0
  0
LINE
  5
27902
  8
0
 10
526.13457709748945
 20
235.43109668683201
 30
0.0
 11
532.31644797490935
 21
235.43109668683201
 31
0.0
  0
LINE
  5
2D004
  8
0
 10
142.35188986786741
 20
243.47301059164741
 30
0.0
 11
142.35188986786741
 21
244.6021496726639
 31
0.0
  0
LINE
  5
2D005
  8
0
 10
142.35188986786741
 20
244.6021496726639
 30
0.0
 11
110.3518898678669
 21
244.6021496726639
 31
0.0
  0
LINE
  5
2D006
  8
0
 10
110.3518898678669
 20
243.47301059164741
 30
0.0
 11
110.3518898678669
 21
244.6021496726639
 31
0.0
  0
TEXT
  5
2D062
  8
0
 62
     3
 10
0.0
 20
0.0
 30
0.0
 40
10.0
  1
CAF5-100FSF
  7
STANDARD1
  0
LINE
  5
2D084
  8
0
 10
522.45274210022728
 20
264.44368873142179
 30
0.0
 11
522.45274210022728
 21
267.74368873142203
 31
0.0
  0
LINE
  5
2D085
  8
0
 10
500.45274210022723
 20
267.74368873142203
 30
0.0
 11
500.45274210022723
 21
264.44368873142179
 31
0.0
  0
LINE
  5
2D086
  8
0
 10
500.45274210022723
 20
267.74368873142203
 30
0.0
 11
522.45274210022706
 21
267.74368873142203
 31
0.0
  0
LINE
  5
2D087
  8
0
 10
137.35188986786801
 20
264.44368873142179
 30
0.0
 11
137.35188986786801
 21
267.74368873142203
 31
0.0
  0
LINE
  5
2D088
  8
0
 10
115.351889867868
 20
267.74368873142203
 30
0.0
 11
115.351889867868
 21
264.44368873142179
 31
0.0
  0
LINE
  5
2D089
  8
0
 10
115.351889867868
 20
267.74368873142203
 30
0.0
 11
137.35188986786801
 21
267.74368873142203
 31
0.0
  0
ENDSEC
  0
EOF
