  0
SECTION
  2
HEADER
  9
$ACADVER
  1
AC1009
  9
$INSBASE
 10
0.0
 20
0.0
 30
0.0
  9
$EXTMIN
 10
0.0
 20
-2.960436562073669
 30
0.0
  9
$EXTMAX
 10
623.08401785026854
 20
553.42584617223292
 30
0.0
  9
$LIMMIN
 10
0.0
 20
0.0
  9
$LIMMAX
 10
375.0
 20
270.0
  9
$ORTHOMODE
 70
     1
  9
$REGENMODE
 70
     1
  9
$FILLMODE
 70
     1
  9
$QTEXTMODE
 70
     0
  9
$MIRRTEXT
 70
     1
  9
$DRAGMODE
 70
     2
  9
$LTSCALE
 40
10.0
  9
$OSMODE
 70
  3071
  9
$ATTMODE
 70
     1
  9
$TEXTSIZE
 40
5.0
  9
$TRACEWID
 40
0.05
  9
$TEXTSTYLE
  7
STANDARD
  9
$CLAYER
  8
0
  9
$CELTYPE
  6
BYLAYER
  9
$CECOLOR
 62
     6
  9
$DIMSCALE
 40
2.0
  9
$DIMASZ
 40
3.0
  9
$DIMEXO
 40
2.0
  9
$DIMDLI
 40
0.38
  9
$DIMRND
 40
0.0
  9
$DIMDLE
 40
0.0
  9
$DIMEXE
 40
2.0
  9
$DIMTP
 40
0.0
  9
$DIMTM
 40
0.0
  9
$DIMTXT
 40
3.2000000000000002
  9
$DIMCEN
 40
0.0
  9
$DIMTSZ
 40
0.0
  9
$DIMTOL
 70
     0
  9
$DIMLIM
 70
     0
  9
$DIMTIH
 70
     0
  9
$DIMTOH
 70
     0
  9
$DIMSE1
 70
     0
  9
$DIMSE2
 70
     0
  9
$DIMTAD
 70
     1
  9
$DIMZIN
 70
     8
  9
$DIMBLK
  1

  9
$DIMASO
 70
     0
  9
$DIMSHO
 70
     0
  9
$DIMPOST
  1

  9
$DIMAPOST
  1

  9
$DIMALT
 70
     0
  9
$DIMALTD
 70
     2
  9
$DIMALTF
 40
25.399999999999999
  9
$DIMLFAC
 40
1.0
  9
$DIMTOFL
 70
     0
  9
$DIMTVP
 40
1.6000000000000001
  9
$DIMTIX
 70
     1
  9
$DIMSOXD
 70
     0
  9
$DIMSAH
 70
     0
  9
$DIMBLK1
  1

  9
$DIMBLK2
  1

  9
$DIMSTYLE
  2
STANDARD
  9
$DIMCLRD
 70
     0
  9
$DIMCLRE
 70
     0
  9
$DIMCLRT
 70
     0
  9
$DIMTFAC
 40
1.0
  9
$DIMGAP
 40
1.1999999999999991
  9
$LUNITS
 70
     2
  9
$LUPREC
 70
     4
  9
$SKETCHINC
 40
0.1
  9
$FILLETRAD
 40
0.0
  9
$AUNITS
 70
     0
  9
$AUPREC
 70
     4
  9
$MENU
  1
ACAD
  9
$ELEVATION
 40
0.0
  9
$PELEVATION
 40
0.0
  9
$THICKNESS
 40
0.0
  9
$LIMCHECK
 70
     0
  9
$BLIPMODE
 70
     0
  9
$CHAMFERA
 40
0.0
  9
$CHAMFERB
 40
0.0
  9
$SKPOLY
 70
     0
  9
$TDCREATE
 40
2448055.7149187499
  9
$TDUPDATE
 40
2456598.5599919911
  9
$TDINDWG
 40
3.0184759606
  9
$TDUSRTIMER
 40
3.0184759606
  9
$USRTIMER
 70
     1
  9
$ANGBASE
 50
0.0
  9
$ANGDIR
 70
     0
  9
$PDMODE
 70
     0
  9
$PDSIZE
 40
0.0
  9
$PLINEWID
 40
0.0
  9
$COORDS
 70
     1
  9
$SPLFRAME
 70
     0
  9
$SPLINETYPE
 70
     6
  9
$SPLINESEGS
 70
     8
  9
$ATTDIA
 70
     0
  9
$ATTREQ
 70
     1
  9
$HANDLING
 70
     1
  9
$HANDSEED
  5
2F380
  9
$SURFTAB1
 70
     6
  9
$SURFTAB2
 70
     6
  9
$SURFTYPE
 70
     6
  9
$SURFU
 70
     6
  9
$SURFV
 70
     6
  9
$UCSNAME
  2

  9
$UCSORG
 10
0.0
 20
0.0
 30
0.0
  9
$UCSXDIR
 10
1.0
 20
0.0
 30
0.0
  9
$UCSYDIR
 10
0.0
 20
1.0
 30
0.0
  9
$PUCSNAME
  2

  9
$PUCSORG
 10
0.0
 20
0.0
 30
0.0
  9
$PUCSXDIR
 10
1.0
 20
0.0
 30
0.0
  9
$PUCSYDIR
 10
0.0
 20
1.0
 30
0.0
  9
$USERI1
 70
     0
  9
$USERI2
 70
     0
  9
$USERI3
 70
     0
  9
$USERI4
 70
     0
  9
$USERI5
 70
     0
  9
$USERR1
 40
0.0
  9
$USERR2
 40
0.0
  9
$USERR3
 40
0.0
  9
$USERR4
 40
0.0
  9
$USERR5
 40
0.0
  9
$WORLDVIEW
 70
     1
  9
$SHADEDGE
 70
     3
  9
$SHADEDIF
 70
    70
  9
$TILEMODE
 70
     1
  9
$MAXACTVP
 70
    16
  9
$PLIMCHECK
 70
     0
  9
$PEXTMIN
 10
1.0000000000000000E+020
 20
1.0000000000000000E+020
 30
1.0000000000000000E+020
  9
$PEXTMAX
 10
-1.0000000000000000E+020
 20
-1.0000000000000000E+020
 30
-1.0000000000000000E+020
  9
$PLIMMIN
 10
0.0
 20
0.0
  9
$PLIMMAX
 10
12.0
 20
9.0
  9
$UNITMODE
 70
     0
  9
$VISRETAIN
 70
     0
  9
$PLINEGEN
 70
     1
  9
$PSLTSCALE
 70
     0
  0
ENDSEC
  0
SECTION
  2
TABLES
  0
TABLE
  2
VPORT
 70
     1
  0
VPORT
  2
*ACTIVE
 70
     0
 10
0.0
 20
0.0
 11
1.0
 21
1.0
 12
326.95967575336971
 22
275.23511792945737
 13
0.0
 23
0.0
 14
5.0
 24
5.0
 15
10.0
 25
10.0
 16
0.0
 26
0.0
 36
1.0
 17
0.0
 27
0.0
 37
0.0
 40
561.40550868397588
 41
1.831871345029239
 42
50.0
 43
0.0
 44
0.0
 50
0.0
 51
0.0
 71
     0
 72
   500
 73
     1
 74
     1
 75
     0
 76
     0
 77
     0
 78
     2
  0
ENDTAB
  0
TABLE
  2
LTYPE
 70
     3
  0
LTYPE
  2
CONTINUOUS
 70
     0
  3
実線
 72
    65
 73
     0
 40
0.0
  0
LTYPE
  2
CENTER
 70
     0
  3
____ _ ____ _ ____ _ ____ _ ____ _ ____ _ ____
 72
    65
 73
     4
 40
2.0
 49
1.25
 49
-0.25
 49
0.25
 49
-0.25
  0
LTYPE
  2
PHANTOM2
 70
     0
  3
___ _ _ ___ _ _ ___ _ _ ___ _ _
 72
    65
 73
     6
 40
1.25
 49
0.625
 49
-0.125
 49
0.125
 49
-0.125
 49
0.125
 49
-0.125
  0
ENDTAB
  0
TABLE
  2
LAYER
 70
     4
  0
LAYER
  2
0
 70
     0
 62
     7
  6
CONTINUOUS
  0
LAYER
  2
1
 70
     0
 62
     1
  6
CENTER
  0
LAYER
  2
DEFPOINTS
 70
     0
 62
     7
  6
CONTINUOUS
  0
LAYER
  2
3
 70
     0
 62
     3
  6
CONTINUOUS
  0
ENDTAB
  0
TABLE
  2
STYLE
 70
     3
  0
STYLE
  2
STANDARD
 70
     0
 40
0.0
 41
1.0
 50
0.0
 71
     0
 42
5.0
  3
simplex.shx
  4
bigfont.shx
  0
STYLE
  2
07500
 70
     0
 40
0.0
 41
0.75
 50
0.0
 71
     0
 42
0.2
  3
simplex.shx
  4
bigfont.shx
  0
STYLE
  2
STANDARD1
 70
     0
 40
0.0
 41
1.0
 50
0.0
 71
     0
 42
3.0
  3
txt
  4

  0
ENDTAB
  0
TABLE
  2
VIEW
 70
     2
  0
VIEW
  2
ALL
 70
     0
 40
270.0
 10
220.99159663865549
 20
135.0
 41
0.0
 11
0.0
 21
0.0
 31
1.0
 12
0.0
 22
0.0
 32
0.0
 42
0.0
 43
0.0
 44
0.0
 50
0.0
 71
     0
  0
VIEW
  2
OLE1
 70
     0
 40
168.2487151179721
 10
2892.3009567448912
 20
702.51600084347126
 41
162.5749581879237
 11
0.0
 21
0.0
 31
1.0
 12
0.0
 22
0.0
 32
0.0
 42
50.0
 43
0.0
 44
0.0
 50
0.0
 71
     0
  0
ENDTAB
  0
TABLE
  2
UCS
 70
     0
  0
ENDTAB
  0
TABLE
  2
APPID
 70
    48
  0
APPID
  2
ACAD
 70
     0
  0
APPID
  2
DCO15
 70
     0
  0
APPID
  2
GENIUS_GENOREF_13
 70
     0
  0
APPID
  2
GENIUS_GENOENT_13
 70
     0
  0
APPID
  2
GENIUS_GENBH_13
 70
     0
  0
APPID
  2
GENIUS_GENOBJ_13
 70
     0
  0
APPID
  2
GENIUS_GENODEF_13
 70
     0
  0
APPID
  2
GENIUS_GENOLIS_13
 70
     0
  0
APPID
  2
GENIUS_GENOBJ-NBEHI-BHF_13
 70
     0
  0
APPID
  2
GENIUS_GENOBJ-NBEHI-BHB_13
 70
     0
  0
APPID
  2
GENIUS_GENOBJ-F-PART_13
 70
     0
  0
APPID
  2
GENIUS_GEFSTDP_13
 70
     0
  0
APPID
  2
GENIUS_GENOBJ-N-RSSYM_13
 70
     0
  0
APPID
  2
GENIUS_GENSYMENT_13
 70
     0
  0
APPID
  2
GENIUS_GENOBJ-N-TIT_13
 70
     0
  0
APPID
  2
GENIUS_GENTITLE_13
 70
     0
  0
APPID
  2
GENIUS_GENZVEED_13
 70
     0
  0
APPID
  2
GENIUS_GENOBJ-N-LEADER_13
 70
     0
  0
APPID
  2
GENIUS_GENOBJ-N-FIL_13
 70
     0
  0
APPID
  2
GENIUS_GENOBJ-N-SEC_13
 70
     0
  0
APPID
  2
GENIUS_GENOBJ-N-CRS_13
 70
     0
  0
APPID
  2
GENIUS_GENOBJ-N-ZOO_13
 70
     0
  0
APPID
  2
GENIUS_GENZOO_13
 70
     0
  0
APPID
  2
GENIUS_GENOBJ-F-TOL_13
 70
     0
  0
APPID
  2
GENIUS_GENFIL_13
 70
     0
  0
APPID
  2
GENIUS_GENOBJ-N-CHA_13
 70
     0
  0
APPID
  2
_CALL_MAC$
 70
     0
  0
APPID
  2
ASM_BASE
 70
     0
  0
APPID
  2
ASM_EXPLO_VER_2_00
 70
     0
  0
APPID
  2
ASM_CADM_VER_12_00
 70
     0
  0
APPID
  2
ASM_BASEFORO
 70
     0
  0
APPID
  2
ASM_BASETRAVI
 70
     0
  0
APPID
  2
ASM_BASETRAVI1
 70
     0
  0
APPID
  2
ASM_GRUPPI
 70
     0
  0
APPID
  2
ASM_CADM_ALBERO
 70
     0
  0
APPID
  2
ASM_GOLE
 70
     0
  0
APPID
  2
ACAD_MLEADERVER
 70
     0
  0
APPID
  2
ACAD_DSTYLE_DIMJAG
 70
     0
  0
APPID
  2
ACAD_DSTYLE_DIMTALN
 70
     0
  0
APPID
  2
ACAD_EXEMPT_FROM_CAD_STANDARDS
 70
     0
  0
APPID
  2
ACAD_DSTYLE_DIMRADIAL_EXTENSION
 70
     0
  0
APPID
  2
ACAD_PSEXT
 70
     0
  0
APPID
  2
ACAD_DSTYLE_DIMBREAK
 70
     0
  0
APPID
  2
ACAECLAYERSTANDARD
 70
     0
  0
APPID
  2
ACCMTRANSPARENCY
 70
     0
  0
APPID
  2
GRADIENTCOLOR1ACI
 70
     0
  0
APPID
  2
GRADIENTCOLOR2ACI
 70
     0
  0
APPID
  2
ACAD_NAV_VCDISPLAY
 70
     0
  0
ENDTAB
  0
TABLE
  2
DIMSTYLE
 70
     1
  0
DIMSTYLE
  2
STANDARD
 70
     0
  3

  4

  5

  6

  7

 40
1.0
 41
0.18
 42
0.0625
 43
0.38
 44
0.18
 45
0.0
 46
0.0
 47
0.0
 48
0.0
140
0.18
141
0.09
142
0.0
143
25.399999999999999
144
1.0
145
0.0
146
1.0
147
0.09
 71
     0
 72
     0
 73
     1
 74
     1
 75
     0
 76
     0
 77
     0
 78
     0
170
     0
171
     2
172
     0
173
     0
174
     0
175
     0
176
     0
177
     0
178
     0
  0
ENDTAB
  0
ENDSEC
  0
SECTION
  2
BLOCKS
  0
BLOCK
  8
0
  2
$MODEL_SPACE
 70
     0
 10
0.0
 20
0.0
 30
0.0
  3
$MODEL_SPACE
  1

  0
ENDBLK
  5
36
  8
0
  0
BLOCK
 67
     1
  8
0
  2
$PAPER_SPACE
 70
     0
 10
0.0
 20
0.0
 30
0.0
  3
$PAPER_SPACE
  1

  0
ENDBLK
  5
34
 67
     1
  8
0
  0
ENDSEC
  0
SECTION
  2
ENTITIES
  0
LINE
  5
2149F
  8
0
 10
313.66491367967052
 20
358.11739837369169
 30
0.0
 11
313.66491367967052
 21
356.11739837369169
 31
0.0
  0
LINE
  5
214A0
  8
0
 10
413.66491367967041
 20
358.11739837369169
 30
0.0
 11
413.66491367967041
 21
356.11739837369169
 31
0.0
  0
LINE
  5
214A1
  8
0
 10
408.97580281212572
 20
358.11739837369169
 30
0.0
 11
408.97580281212572
 21
355.90152979892991
 31
0.0
  0
LINE
  5
214A3
  8
0
 10
386.42046717913558
 20
358.11739837369169
 30
0.0
 11
386.42046717913558
 21
263.22223518945611
 31
0.0
  0
LINE
  5
214A4
  8
0
 10
383.38937826589012
 20
358.11739837369169
 30
0.0
 11
383.38937826589012
 21
258.03246188315279
 31
0.0
  0
LINE
  5
214AB
  8
0
 10
343.94044909345092
 20
358.11739837369169
 30
0.0
 11
343.94044909345092
 21
258.03246188315279
 31
0.0
  0
LINE
  5
214AC
  8
0
 10
340.90936018020528
 20
358.11739837369169
 30
0.0
 11
340.90936018020528
 21
263.22223518945611
 31
0.0
  0
LINE
  5
214B5
  8
0
 10
313.66491367967052
 20
356.11739837369169
 30
0.0
 11
318.35402454721509
 21
356.11739837369169
 31
0.0
  0
LINE
  5
214B7
  8
0
 10
408.97580281212572
 20
356.11739837369169
 30
0.0
 11
413.66491367967041
 21
356.11739837369169
 31
0.0
  0
LINE
  5
214B8
  8
0
 10
318.35402454721509
 20
358.11739837369169
 30
0.0
 11
318.35402454721509
 21
355.90152979892991
 31
0.0
  0
LINE
  5
214C4
  8
0
 10
331.26491367967049
 20
328.8306513012476
 30
0.0
 11
331.26491367967049
 21
277.24799126554348
 31
0.0
  0
ARC
  5
214C5
  8
0
 10
341.2649136796706
 20
277.24799126554348
 30
0.0
 40
10.00000000000019
 50
180.0
 51
205.6333654863264
  0
POLYLINE
  5
214C6
  8
0
 66
     1
 10
0.0
 20
0.0
 30
0.0
  0
VERTEX
  5
2EBC0
  8
0
 10
332.24910614236092
 20
272.92188280062959
 30
0.0
  0
VERTEX
  5
2EBC1
  8
0
 10
332.29103979106662
 20
272.83555572137539
 30
0.0
  0
VERTEX
  5
2EBC2
  8
0
 10
332.3773237873732
 20
272.66424324603582
 30
0.0
  0
VERTEX
  5
2EBC3
  8
0
 10
332.46677563448492
 20
272.4948063398478
 30
0.0
  0
VERTEX
  5
2EBC4
  8
0
 10
332.51266787311113
 20
272.41082336050198
 30
0.0
  0
VERTEX
  5
2EBC5
  8
0
 10
332.55932547974032
 20
272.3273475989854
 30
0.0
  0
VERTEX
  5
2EBC6
  8
0
 10
332.65489840389239
 20
272.16196757793841
 30
0.0
  0
VERTEX
  5
2EBC7
  8
0
 10
332.75341461518792
 20
271.99876430576018
 30
0.0
  0
VERTEX
  5
2EBC8
  8
0
 10
332.85478968853141
 20
271.83783281558323
 30
0.0
  0
VERTEX
  5
2EBC9
  8
0
 10
332.95893485314718
 20
271.67926468459609
 30
0.0
  0
VERTEX
  5
2EBCA
  8
0
 10
333.06575779309833
 20
271.52314692288292
 30
0.0
  0
VERTEX
  5
2EBCB
  8
0
 10
333.12014419109192
 20
271.44603211557302
 30
0.0
  0
VERTEX
  5
2EBCC
  8
0
 10
333.17516416071282
 20
271.36956012105202
 30
0.0
  0
VERTEX
  5
2EBCD
  8
0
 10
333.28705340548089
 20
271.21858454136958
 30
0.0
  0
VERTEX
  5
2EBCE
  8
0
 10
333.40131931439151
 20
271.07029884374418
 30
0.0
  0
VERTEX
  5
2EBCF
  8
0
 10
333.51785041756159
 20
270.92477920102368
 30
0.0
  0
VERTEX
  5
2EBD0
  8
0
 10
333.6365302891067
 20
270.78209868627982
 30
0.0
  0
VERTEX
  5
2EBD1
  8
0
 10
333.75723792134079
 20
270.6423266731054
 30
0.0
  0
VERTEX
  5
2EBD2
  8
0
 10
333.8183131896302
 20
270.57355187771918
 30
0.0
  0
VERTEX
  5
2EBD3
  8
0
 10
333.87984817720121
 20
270.50552824938683
 30
0.0
  0
VERTEX
  5
2EBD4
  8
0
 10
334.00423232603589
 20
270.37176364562038
 30
0.0
  0
VERTEX
  5
2EBD5
  8
0
 10
334.13025866792918
 20
270.24108767954749
 30
0.0
  0
VERTEX
  5
2EBD6
  8
0
 10
334.19384586780501
 20
270.17692345367777
 30
0.0
  0
SEQEND
  5
2EBD7
  8
0
  0
ARC
  5
214C7
  8
0
 10
311.26491367967083
 20
328.8306513012476
 30
0.0
 40
19.999999999999659
 50
0.0000008537736463
 51
30.000000000000021
  0
POLYLINE
  5
214C8
  8
0
 66
     1
 10
0.0
 20
0.0
 30
0.0
  0
VERTEX
  5
2EBD8
  8
0
 10
334.19384586780501
 20
270.17692345367777
 30
0.0
  0
VERTEX
  5
2EBD9
  8
0
 10
334.37064347442941
 20
270.00012584705291
 30
0.0
  0
VERTEX
  5
2EBDA
  8
0
 10
334.72210606745148
 20
269.64866325403091
 30
0.0
  0
VERTEX
  5
2EBDB
  8
0
 10
335.07034360789191
 20
269.30042571359081
 30
0.0
  0
VERTEX
  5
2EBDC
  8
0
 10
335.2431108846007
 20
269.12765843688157
 30
0.0
  0
VERTEX
  5
2EBDD
  8
0
 10
335.41490195729023
 20
268.95586736419227
 30
0.0
  0
VERTEX
  5
2EBDE
  8
0
 10
335.7553317752388
 20
268.61543754624381
 30
0.0
  0
VERTEX
  5
2EBDF
  8
0
 10
336.09118910537029
 20
268.27958021611272
 30
0.0
  0
VERTEX
  5
2EBE0
  8
0
 10
336.42203595432329
 20
267.94873336715858
 30
0.0
  0
VERTEX
  5
2EBE1
  8
0
 10
336.74744086293242
 20
267.62332845855047
 30
0.0
  0
VERTEX
  5
2EBE2
  8
0
 10
337.06697946889562
 20
267.30378985258722
 30
0.0
  0
VERTEX
  5
2EBE3
  8
0
 10
337.22441837210738
 20
267.14635094937512
 30
0.0
  0
VERTEX
  5
2EBE4
  8
0
 10
337.38023506018823
 20
266.99053426129473
 30
0.0
  0
VERTEX
  5
2EBE5
  8
0
 10
337.68679911849881
 20
266.6839702029838
 30
0.0
  0
VERTEX
  5
2EBE6
  8
0
 10
337.98627185198029
 20
266.38449746950209
 30
0.0
  0
VERTEX
  5
2EBE7
  8
0
 10
338.27826271662087
 20
266.09250660486123
 30
0.0
  0
VERTEX
  5
2EBE8
  8
0
 10
338.56239092555433
 20
265.80837839592817
 30
0.0
  0
VERTEX
  5
2EBE9
  8
0
 10
338.83828594564602
 20
265.53248337583682
 30
0.0
  0
VERTEX
  5
2EBEA
  8
0
 10
338.97303314122701
 20
265.39773618025538
 30
0.0
  0
VERTEX
  5
2EBEB
  8
0
 10
339.1055879807077
 20
265.26518134077469
 30
0.0
  0
VERTEX
  5
2EBEC
  8
0
 10
339.36394844070929
 20
265.00682088077338
 30
0.0
  0
VERTEX
  5
2EBED
  8
0
 10
339.6130303963771
 20
264.75773892510551
 30
0.0
  0
VERTEX
  5
2EBEE
  8
0
 10
339.73398994162852
 20
264.63677937985449
 30
0.0
  0
SEQEND
  5
2EBEF
  8
0
  0
LINE
  5
214C9
  8
0
 10
319.18226394886
 20
355.11739837369169
 30
0.0
 11
328.58542175535922
 21
338.8306513012476
 31
0.0
  0
POLYLINE
  5
214CA
  8
0
 66
     1
 10
0.0
 20
0.0
 30
0.0
  0
VERTEX
  5
2EBF0
  8
0
 10
339.73398994162852
 20
264.63677937985449
 30
0.0
  0
VERTEX
  5
2EBF1
  8
0
 10
339.9570429815135
 20
264.40645721448527
 30
0.0
  0
VERTEX
  5
2EBF2
  8
0
 10
340.37092528539381
 20
263.9364797597209
 30
0.0
  0
VERTEX
  5
2EBF3
  8
0
 10
340.74094709366022
 20
263.46024400768692
 30
0.0
  0
VERTEX
  5
2EBF4
  8
0
 10
340.90936018020528
 20
263.22223518945611
 30
0.0
  0
SEQEND
  5
2EBF5
  8
0
  0
POLYLINE
  5
214CB
  8
0
 66
     1
 10
0.0
 20
0.0
 30
0.0
  0
VERTEX
  5
2EBF6
  8
0
 10
340.90936018020528
 20
263.22223518945611
 30
0.0
  0
VERTEX
  5
2EBF7
  8
0
 10
340.98184960383628
 20
263.11507600737332
 30
0.0
  0
VERTEX
  5
2EBF8
  8
0
 10
341.1226393329809
 20
262.89798920907009
 30
0.0
  0
VERTEX
  5
2EBF9
  8
0
 10
341.25776541462818
 20
262.67733253482589
 30
0.0
  0
VERTEX
  5
2EBFA
  8
0
 10
341.32317616760753
 20
262.56571156798873
 30
0.0
  0
SEQEND
  5
2EBFB
  8
0
  0
ARC
  5
214CC
  8
0
 10
317.45021314129121
 20
354.11739837369169
 30
0.0
 40
2.0000000000000031
 50
30.000000000000021
 51
63.133982235388032
  0
LINE
  5
214CD
  8
0
 10
341.32317616760741
 20
262.56571156798873
 30
0.0
 11
343.94044909345092
 21
258.03246188315279
 31
0.0
  0
POLYLINE
  5
214CE
  8
0
 66
     1
 10
0.0
 20
0.0
 30
0.0
  0
VERTEX
  5
2EBFC
  8
0
 10
343.94044909345092
 20
258.03246188315279
 30
0.0
  0
VERTEX
  5
2EBFD
  8
0
 10
344.00449506547039
 20
257.92153100559523
 30
0.0
  0
VERTEX
  5
2EBFE
  8
0
 10
344.13528126619951
 20
257.69500266100289
 30
0.0
  0
VERTEX
  5
2EBFF
  8
0
 10
344.2696303543334
 20
257.46230321440453
 30
0.0
  0
VERTEX
  5
2EC00
  8
0
 10
344.33812971069841
 20
257.3436588488949
 30
0.0
  0
VERTEX
  5
2EC01
  8
0
 10
344.40750614523699
 20
257.22349533942628
 30
0.0
  0
VERTEX
  5
2EC02
  8
0
 10
344.54887150441778
 20
256.97864335489521
 30
0.0
  0
VERTEX
  5
2EC03
  8
0
 10
344.69368835752789
 20
256.72781320751619
 30
0.0
  0
VERTEX
  5
2EC04
  8
0
 10
344.8419177006183
 20
256.47107245411098
 30
0.0
  0
VERTEX
  5
2EC05
  8
0
 10
344.99351961064389
 20
256.20849024342169
 30
0.0
  0
VERTEX
  5
2EC06
  8
0
 10
345.14845325621638
 20
255.94013729748809
 30
0.0
  0
VERTEX
  5
2EC07
  8
0
 10
345.22715647435012
 20
255.8038193249613
 30
0.0
  0
VERTEX
  5
2EC08
  8
0
 10
345.30667690860128
 20
255.6660858925988
 30
0.0
  0
VERTEX
  5
2EC09
  8
0
 10
345.46814795295683
 20
255.38640983982441
 30
0.0
  0
VERTEX
  5
2EC0A
  8
0
 10
345.63282289981157
 20
255.10118446513749
 30
0.0
  0
VERTEX
  5
2EC0B
  8
0
 10
345.80065739677792
 20
254.81048658912911
 30
0.0
  0
VERTEX
  5
2EC0C
  8
0
 10
345.97160624049673
 20
254.51439450631281
 30
0.0
  0
VERTEX
  5
2EC0D
  8
0
 10
346.14562338881342
 20
254.21298796404059
 30
0.0
  0
VERTEX
  5
2EC0E
  8
0
 10
346.23376796271128
 20
254.0603170836375
 30
0.0
  0
VERTEX
  5
2EC0F
  8
0
 10
346.32266197317739
 20
253.90634814102211
 30
0.0
  0
VERTEX
  5
2EC10
  8
0
 10
346.50267431126588
 20
253.59455762546349
 30
0.0
  0
VERTEX
  5
2EC11
  8
0
 10
346.6856119198265
 20
253.27770039282129
 30
0.0
  0
VERTEX
  5
2EC12
  8
0
 10
346.77816233372232
 20
253.11739837369171
 30
0.0
  0
SEQEND
  5
2EC13
  8
0
  0
POLYLINE
  5
214CF
  8
0
 66
     1
 10
0.0
 20
0.0
 30
0.0
  0
VERTEX
  5
2EC14
  8
0
 10
346.77816233372232
 20
253.11739837369171
 30
0.0
  0
VERTEX
  5
2EC15
  8
0
 10
346.92541888860092
 20
252.870601841043
 30
0.0
  0
VERTEX
  5
2EC16
  8
0
 10
347.23824152854507
 20
252.39401366323639
 30
0.0
  0
VERTEX
  5
2EC17
  8
0
 10
347.57336926257341
 20
251.94155559935641
 30
0.0
  0
VERTEX
  5
2EC18
  8
0
 10
347.74842020941298
 20
251.72490597822801
 30
0.0
  0
VERTEX
  5
2EC19
  8
0
 10
347.92794235635529
 20
251.51491550231461
 30
0.0
  0
VERTEX
  5
2EC1A
  8
0
 10
348.29868468854772
 20
251.1156677665858
 30
0.0
  0
VERTEX
  5
2EC1B
  8
0
 10
348.69165376930931
 20
250.736260630174
 30
0.0
  0
VERTEX
  5
2EC1C
  8
0
 10
349.11380821216551
 20
250.37147482449291
 30
0.0
  0
VERTEX
  5
2EC1D
  8
0
 10
349.56389618581483
 20
250.02480839351941
 30
0.0
  0
VERTEX
  5
2EC1E
  8
0
 10
350.0403954408057
 20
249.69947879513441
 30
0.0
  0
VERTEX
  5
2EC1F
  8
0
 10
350.28800601623578
 20
249.54574315595889
 30
0.0
  0
VERTEX
  5
2EC20
  8
0
 10
350.54152672534588
 20
249.39842642782969
 30
0.0
  0
VERTEX
  5
2EC21
  8
0
 10
351.0651822019517
 20
249.1243553460117
 30
0.0
  0
VERTEX
  5
2EC22
  8
0
 10
351.60898195216032
 20
248.8796804722042
 30
0.0
  0
VERTEX
  5
2EC23
  8
0
 10
352.17068888309927
 20
248.66636895562809
 30
0.0
  0
VERTEX
  5
2EC24
  8
0
 10
352.74751125163601
 20
248.48624944765379
 30
0.0
  0
VERTEX
  5
2EC25
  8
0
 10
353.3361864678422
 20
248.3408637406082
 30
0.0
  0
VERTEX
  5
2EC26
  8
0
 10
353.633900230346
 20
248.2815597467079
 30
0.0
  0
VERTEX
  5
2EC27
  8
0
 10
353.68369349273939
 20
248.27255466652599
 30
0.0
  0
VERTEX
  5
2EC28
  8
0
 10
353.78341075865262
 20
248.25530141507261
 30
0.0
  0
VERTEX
  5
2EC29
  8
0
 10
353.88328814290162
 20
248.2390596372243
 30
0.0
  0
VERTEX
  5
2EC2A
  8
0
 10
353.9332814821621
 20
248.23131881884819
 30
0.0
  0
VERTEX
  5
2EC2B
  8
0
 10
353.98330833870051
 20
248.22383174619699
 30
0.0
  0
VERTEX
  5
2EC2C
  8
0
 10
354.08345376234382
 20
248.20961979685671
 30
0.0
  0
VERTEX
  5
2EC2D
  8
0
 10
354.1837065803673
 20
248.19642547080281
 30
0.0
  0
VERTEX
  5
2EC2E
  8
0
 10
354.2840487376659
 20
248.18425006281899
 30
0.0
  0
VERTEX
  5
2EC2F
  8
0
 10
354.38446198654628
 20
248.1730944687279
 30
0.0
  0
VERTEX
  5
2EC30
  8
0
 10
354.48492791668991
 20
248.16295917470049
 30
0.0
  0
VERTEX
  5
2EC31
  8
0
 10
354.53517484711568
 20
248.15827417783481
 30
0.0
  0
VERTEX
  5
2EC32
  8
0
 10
354.58542798599638
 20
248.15384424807601
 30
0.0
  0
VERTEX
  5
2EC33
  8
0
 10
354.68594355228191
 20
248.1457493297157
 30
0.0
  0
VERTEX
  5
2EC34
  8
0
 10
354.7864559057989
 20
248.13867362796009
 30
0.0
  0
VERTEX
  5
2EC35
  8
0
 10
354.8869463025444
 20
248.13261591422091
 30
0.0
  0
VERTEX
  5
2EC36
  8
0
 10
354.98739599832243
 20
248.1275745202438
 30
0.0
  0
VERTEX
  5
2EC37
  8
0
 10
355.08778628352121
 20
248.1235473371116
 30
0.0
  0
VERTEX
  5
2EC38
  8
0
 10
355.13795331856812
 20
248.1219132952283
 30
0.0
  0
VERTEX
  5
2EC39
  8
0
 10
355.18809851856702
 20
248.1205318159918
 30
0.0
  0
VERTEX
  5
2EC3A
  8
0
 10
355.28831417000998
 20
248.1185249706987
 30
0.0
  0
VERTEX
  5
2EC3B
  8
0
 10
355.38841484720001
 20
248.1175233820959
 30
0.0
  0
VERTEX
  5
2EC3C
  8
0
 10
355.43841637156669
 20
248.11739837369171
 30
0.0
  0
SEQEND
  5
2EC3D
  8
0
  0
LINE
  5
214D0
  8
0
 10
355.43841637156669
 20
248.11739837369171
 30
0.0
 11
371.89141098777418
 21
248.11739837369171
 31
0.0
  0
POLYLINE
  5
214D1
  8
0
 66
     1
 10
0.0
 20
0.0
 30
0.0
  0
VERTEX
  5
2EC3E
  8
0
 10
371.89141098777418
 20
248.11739837369171
 30
0.0
  0
VERTEX
  5
2EC3F
  8
0
 10
371.94139176488181
 20
248.11752327837621
 30
0.0
  0
VERTEX
  5
2EC40
  8
0
 10
372.04145962081799
 20
248.11852416667631
 30
0.0
  0
VERTEX
  5
2EC41
  8
0
 10
372.14165357913549
 20
248.12052993175169
 30
0.0
  0
VERTEX
  5
2EC42
  8
0
 10
372.19179194125383
 20
248.12191082766461
 30
0.0
  0
VERTEX
  5
2EC43
  8
0
 10
372.2419547229249
 20
248.1235443078304
 30
0.0
  0
VERTEX
  5
2EC44
  8
0
 10
372.34234399060119
 20
248.127570576029
 30
0.0
  0
VERTEX
  5
2EC45
  8
0
 10
372.44280221400169
 20
248.13261155996221
 30
0.0
  0
VERTEX
  5
2EC46
  8
0
 10
372.5433101558595
 20
248.1386696232621
 30
0.0
  0
VERTEX
  5
2EC47
  8
0
 10
372.64384854661142
 20
248.1457466689817
 30
0.0
  0
VERTEX
  5
2EC48
  8
0
 10
372.7443981204982
 20
248.1538441408193
 30
0.0
  0
VERTEX
  5
2EC49
  8
0
 10
372.79467109032458
 20
248.15827586279099
 30
0.0
  0
VERTEX
  5
2EC4A
  8
0
 10
372.8449396509215
 20
248.16296302614231
 30
0.0
  0
VERTEX
  5
2EC4B
  8
0
 10
372.9454539850189
 20
248.1731038607586
 30
0.0
  0
VERTEX
  5
2EC4C
  8
0
 10
373.04592207742542
 20
248.18426673538849
 30
0.0
  0
VERTEX
  5
2EC4D
  8
0
 10
373.14632502318648
 20
248.19645130379371
 30
0.0
  0
VERTEX
  5
2EC4E
  8
0
 10
373.24664408979572
 20
248.20965679252549
 30
0.0
  0
VERTEX
  5
2EC4F
  8
0
 10
373.3468607483257
 20
248.22388201223021
 30
0.0
  0
VERTEX
  5
2EC50
  8
0
 10
373.39692494738881
 20
248.23137653892991
 30
0.0
  0
VERTEX
  5
2EC51
  8
0
 10
373.4469567036279
 20
248.23912537048449
 30
0.0
  0
VERTEX
  5
2EC52
  8
0
 10
373.54691392357421
 20
248.2553848860943
 30
0.0
  0
VERTEX
  5
2EC53
  8
0
 10
373.6467146673192
 20
248.27265820482171
 30
0.0
  0
VERTEX
  5
2EC54
  8
0
 10
373.69655090297891
 20
248.28167420683349
 30
0.0
  0
VERTEX
  5
2EC55
  8
0
 10
373.99453662802603
 20
248.3410563920861
 30
0.0
  0
VERTEX
  5
2EC56
  8
0
 10
374.58378964569721
 20
248.4866612698998
 30
0.0
  0
VERTEX
  5
2EC57
  8
0
 10
375.16115387119441
 20
248.66706602629159
 30
0.0
  0
VERTEX
  5
2EC58
  8
0
 10
375.72328511548068
 20
248.88069221459949
 30
0.0
  0
VERTEX
  5
2EC59
  8
0
 10
376.26737420831182
 20
249.12568297047261
 30
0.0
  0
VERTEX
  5
2EC5A
  8
0
 10
376.7910902515348
 20
249.39999376496419
 30
0.0
  0
VERTEX
  5
2EC5B
  8
0
 10
377.04453332468461
 20
249.5473732756636
 30
0.0
  0
VERTEX
  5
2EC5C
  8
0
 10
377.29198756349672
 20
249.70111815914609
 30
0.0
  0
VERTEX
  5
2EC5D
  8
0
 10
377.76792528497953
 20
250.02625632113001
 30
0.0
  0
VERTEX
  5
2EC5E
  8
0
 10
378.21709619668331
 20
250.37235436879561
 30
0.0
  0
VERTEX
  5
2EC5F
  8
0
 10
378.63795320995018
 20
250.7360591967954
 30
0.0
  0
VERTEX
  5
2EC60
  8
0
 10
379.02951168347721
 20
251.11400502060951
 30
0.0
  0
VERTEX
  5
2EC61
  8
0
 10
379.40148705323969
 20
251.51446285296149
 30
0.0
  0
VERTEX
  5
2EC62
  8
0
 10
379.5813767096559
 20
251.72486935957841
 30
0.0
  0
VERTEX
  5
2EC63
  8
0
 10
379.75665786724039
 20
251.9418100191269
 30
0.0
  0
VERTEX
  5
2EC64
  8
0
 10
380.09191928414049
 20
252.3944914479043
 30
0.0
  0
VERTEX
  5
2EC65
  8
0
 10
380.40456880194648
 20
252.8708619894669
 30
0.0
  0
VERTEX
  5
2EC66
  8
0
 10
380.5516650256186
 20
253.11739837369171
 30
0.0
  0
SEQEND
  5
2EC67
  8
0
  0
POLYLINE
  5
214D2
  8
0
 66
     1
 10
0.0
 20
0.0
 30
0.0
  0
VERTEX
  5
2EC68
  8
0
 10
380.5516650256186
 20
253.11739837369171
 30
0.0
  0
VERTEX
  5
2EC69
  8
0
 10
380.64421543951443
 20
253.27770039282129
 30
0.0
  0
VERTEX
  5
2EC6A
  8
0
 10
380.82715304807499
 20
253.59455762546349
 30
0.0
  0
VERTEX
  5
2EC6B
  8
0
 10
381.00716538616348
 20
253.90634814102211
 30
0.0
  0
VERTEX
  5
2EC6C
  8
0
 10
381.09605939662958
 20
254.0603170836375
 30
0.0
  0
VERTEX
  5
2EC6D
  8
0
 10
381.18420397052751
 20
254.21298796404059
 30
0.0
  0
VERTEX
  5
2EC6E
  8
0
 10
381.3582211188442
 20
254.51439450631281
 30
0.0
  0
VERTEX
  5
2EC6F
  8
0
 10
381.529169962563
 20
254.81048658912911
 30
0.0
  0
VERTEX
  5
2EC70
  8
0
 10
381.6970044595293
 20
255.10118446513749
 30
0.0
  0
VERTEX
  5
2EC71
  8
0
 10
381.8616794063841
 20
255.38640983982441
 30
0.0
  0
VERTEX
  5
2EC72
  8
0
 10
382.02315045073959
 20
255.6660858925988
 30
0.0
  0
VERTEX
  5
2EC73
  8
0
 10
382.1026708849908
 20
255.8038193249613
 30
0.0
  0
VERTEX
  5
2EC74
  8
0
 10
382.18137410312448
 20
255.94013729748809
 30
0.0
  0
VERTEX
  5
2EC75
  8
0
 10
382.33630774869698
 20
256.20849024342169
 30
0.0
  0
VERTEX
  5
2EC76
  8
0
 10
382.48790965872257
 20
256.47107245411098
 30
0.0
  0
VERTEX
  5
2EC77
  8
0
 10
382.63613900181309
 20
256.72781320751619
 30
0.0
  0
VERTEX
  5
2EC78
  8
0
 10
382.78095585492309
 20
256.97864335489521
 30
0.0
  0
VERTEX
  5
2EC79
  8
0
 10
382.92232121410399
 20
257.22349533942628
 30
0.0
  0
VERTEX
  5
2EC7A
  8
0
 10
382.99169764864251
 20
257.3436588488949
 30
0.0
  0
VERTEX
  5
2EC7B
  8
0
 10
383.06019700500752
 20
257.46230321440538
 30
0.0
  0
VERTEX
  5
2EC7C
  8
0
 10
383.19454609314141
 20
257.69500266100391
 30
0.0
  0
VERTEX
  5
2EC7D
  8
0
 10
383.32533229387059
 20
257.92153100559523
 30
0.0
  0
VERTEX
  5
2EC7E
  8
0
 10
383.38937826589012
 20
258.03246188315279
 30
0.0
  0
SEQEND
  5
2EC7F
  8
0
  0
LINE
  5
214D3
  8
0
 10
383.38937826589012
 20
258.03246188315279
 30
0.0
 11
386.0066511917334
 21
262.56571156798873
 31
0.0
  0
POLYLINE
  5
214D4
  8
0
 66
     1
 10
0.0
 20
0.0
 30
0.0
  0
VERTEX
  5
2EC80
  8
0
 10
386.0066511917334
 20
262.56571156798873
 30
0.0
  0
VERTEX
  5
2EC81
  8
0
 10
386.07206194471269
 20
262.67733253482589
 30
0.0
  0
VERTEX
  5
2EC82
  8
0
 10
386.20718802635997
 20
262.89798920907009
 30
0.0
  0
VERTEX
  5
2EC83
  8
0
 10
386.34797775550459
 20
263.11507600737332
 30
0.0
  0
VERTEX
  5
2EC84
  8
0
 10
386.42046717913558
 20
263.22223518945611
 30
0.0
  0
SEQEND
  5
2EC85
  8
0
  0
POLYLINE
  5
214D5
  8
0
 66
     1
 10
0.0
 20
0.0
 30
0.0
  0
VERTEX
  5
2EC86
  8
0
 10
386.42046717913558
 20
263.22223518945611
 30
0.0
  0
VERTEX
  5
2EC87
  8
0
 10
386.58888026568172
 20
263.46024400768789
 30
0.0
  0
VERTEX
  5
2EC88
  8
0
 10
386.95890207394859
 20
263.93647975972272
 30
0.0
  0
VERTEX
  5
2EC89
  8
0
 10
387.37278437782709
 20
264.40645721448442
 30
0.0
  0
VERTEX
  5
2EC8A
  8
0
 10
387.5958374177124
 20
264.63677937985449
 30
0.0
  0
SEQEND
  5
2EC8B
  8
0
  0
POLYLINE
  5
214D6
  8
0
 66
     1
 10
0.0
 20
0.0
 30
0.0
  0
VERTEX
  5
2EC8C
  8
0
 10
387.5958374177124
 20
264.63677937985449
 30
0.0
  0
VERTEX
  5
2EC8D
  8
0
 10
387.71679696296383
 20
264.75773892510551
 30
0.0
  0
VERTEX
  5
2EC8E
  8
0
 10
387.96587891863157
 20
265.00682088077338
 30
0.0
  0
VERTEX
  5
2EC8F
  8
0
 10
388.22423937863317
 20
265.26518134077469
 30
0.0
  0
VERTEX
  5
2EC90
  8
0
 10
388.35679421811392
 20
265.39773618025538
 30
0.0
  0
VERTEX
  5
2EC91
  8
0
 10
388.4915414136949
 20
265.53248337583682
 30
0.0
  0
VERTEX
  5
2EC92
  8
0
 10
388.7674364337866
 20
265.80837839592817
 30
0.0
  0
VERTEX
  5
2EC93
  8
0
 10
389.05156464272
 20
266.09250660486123
 30
0.0
  0
VERTEX
  5
2EC94
  8
0
 10
389.34355550736058
 20
266.38449746950209
 30
0.0
  0
VERTEX
  5
2EC95
  8
0
 10
389.64302824084223
 20
266.6839702029838
 30
0.0
  0
VERTEX
  5
2EC96
  8
0
 10
389.94959229915281
 20
266.99053426129473
 30
0.0
  0
VERTEX
  5
2EC97
  8
0
 10
390.10540898723349
 20
267.14635094937512
 30
0.0
  0
VERTEX
  5
2EC98
  8
0
 10
390.2628478904453
 20
267.30378985258722
 30
0.0
  0
VERTEX
  5
2EC99
  8
0
 10
390.5823864964085
 20
267.62332845855047
 30
0.0
  0
VERTEX
  5
2EC9A
  8
0
 10
390.90779140501758
 20
267.94873336715858
 30
0.0
  0
VERTEX
  5
2EC9B
  8
0
 10
391.23863825397069
 20
268.27958021611272
 30
0.0
  0
VERTEX
  5
2EC9C
  8
0
 10
391.57449558410212
 20
268.61543754624381
 30
0.0
  0
VERTEX
  5
2EC9D
  8
0
 10
391.9149254020507
 20
268.95586736419227
 30
0.0
  0
VERTEX
  5
2EC9E
  8
0
 10
392.08671647474017
 20
269.12765843688157
 30
0.0
  0
VERTEX
  5
2EC9F
  8
0
 10
392.2594837514489
 20
269.30042571359081
 30
0.0
  0
VERTEX
  5
2ECA0
  8
0
 10
392.60772129188939
 20
269.64866325403091
 30
0.0
  0
VERTEX
  5
2ECA1
  8
0
 10
392.95918388491151
 20
270.00012584705291
 30
0.0
  0
VERTEX
  5
2ECA2
  8
0
 10
393.13598149153592
 20
270.17692345367777
 30
0.0
  0
SEQEND
  5
2ECA3
  8
0
  0
POLYLINE
  5
214D7
  8
0
 66
     1
 10
0.0
 20
0.0
 30
0.0
  0
VERTEX
  5
2ECA4
  8
0
 10
393.13598149153592
 20
270.17692345367777
 30
0.0
  0
VERTEX
  5
2ECA5
  8
0
 10
393.19956869141163
 20
270.24108767954749
 30
0.0
  0
VERTEX
  5
2ECA6
  8
0
 10
393.32559503330498
 20
270.37176364562038
 30
0.0
  0
VERTEX
  5
2ECA7
  8
0
 10
393.44997918213971
 20
270.50552824938683
 30
0.0
  0
VERTEX
  5
2ECA8
  8
0
 10
393.51151416971072
 20
270.57355187771918
 30
0.0
  0
VERTEX
  5
2ECA9
  8
0
 10
393.57258943800008
 20
270.6423266731054
 30
0.0
  0
VERTEX
  5
2ECAA
  8
0
 10
393.69329707023422
 20
270.78209868627982
 30
0.0
  0
VERTEX
  5
2ECAB
  8
0
 10
393.81197694177928
 20
270.92477920102368
 30
0.0
  0
VERTEX
  5
2ECAC
  8
0
 10
393.92850804494941
 20
271.07029884374418
 30
0.0
  0
VERTEX
  5
2ECAD
  8
0
 10
394.04277395386009
 20
271.21858454136958
 30
0.0
  0
VERTEX
  5
2ECAE
  8
0
 10
394.1546631986281
 20
271.36956012105202
 30
0.0
  0
VERTEX
  5
2ECAF
  8
0
 10
394.209683168249
 20
271.44603211557302
 30
0.0
  0
VERTEX
  5
2ECB0
  8
0
 10
394.2640695662426
 20
271.52314692288292
 30
0.0
  0
VERTEX
  5
2ECB1
  8
0
 10
394.3708925061938
 20
271.67926468459609
 30
0.0
  0
VERTEX
  5
2ECB2
  8
0
 10
394.47503767080951
 20
271.83783281558323
 30
0.0
  0
VERTEX
  5
2ECB3
  8
0
 10
394.576412744153
 20
271.99876430576018
 30
0.0
  0
VERTEX
  5
2ECB4
  8
0
 10
394.67492895544848
 20
272.16196757793841
 30
0.0
  0
VERTEX
  5
2ECB5
  8
0
 10
394.77050187960072
 20
272.3273475989854
 30
0.0
  0
VERTEX
  5
2ECB6
  8
0
 10
394.81715948622991
 20
272.41082336050198
 30
0.0
  0
VERTEX
  5
2ECB7
  8
0
 10
394.86305172485601
 20
272.4948063398478
 30
0.0
  0
VERTEX
  5
2ECB8
  8
0
 10
394.95250357196772
 20
272.66424324603582
 30
0.0
  0
VERTEX
  5
2ECB9
  8
0
 10
395.0387875682743
 20
272.83555572137539
 30
0.0
  0
VERTEX
  5
2ECBA
  8
0
 10
395.08072121698001
 20
272.92188280062959
 30
0.0
  0
SEQEND
  5
2ECBB
  8
0
  0
ARC
  5
214D8
  8
0
 10
386.0649136796705
 20
277.24799126554348
 30
0.0
 40
10.0
 50
334.3666345136736
 51
0.0000008537736463
  0
LINE
  5
214D9
  8
0
 10
396.0649136796705
 20
277.24799126554348
 30
0.0
 11
396.0649136796705
 21
328.8306513012476
 31
0.0
  0
ARC
  5
214DA
  8
0
 10
416.06491367967072
 20
328.8306513012476
 30
0.0
 40
20.00000000000027
 50
150.0
 51
180.0
  0
LINE
  5
214DB
  8
0
 10
398.7444056039817
 20
338.8306513012476
 30
0.0
 11
408.1475634104807
 21
355.11739837369169
 31
0.0
  0
ARC
  5
214DC
  8
0
 10
409.87961421804988
 20
354.11739837369169
 30
0.0
 40
2.0000000000002771
 50
116.8660177646176
 51
150.0
  0
LINE
  5
214F1
  8
0
 10
313.66491367967052
 20
358.11739837369169
 30
0.0
 11
413.66491367967041
 21
358.11739837369169
 31
0.0
  0
LINE
  5
214FD
  8
1
 10
285.91672624745661
 20
259.61739837369169
 30
0.0
 11
441.4131011118842
 21
259.61739837369169
 31
0.0
  0
LINE
  5
214FE
  8
1
 10
363.66491367967052
 20
252.8344334155727
 30
0.0
 11
363.66491367967052
 21
266.4003633318116
 31
0.0
  0
CIRCLE
  5
21513
  8
0
 10
363.66491367967052
 20
259.61739837369169
 30
0.0
 40
6.2583333333333391
  0
ARC
  5
21515
  8
0
 10
363.66491367967052
 20
259.61739837369169
 30
0.0
 40
15.999999999999989
 50
222.7358197056345
 51
317.26407290236278
  0
ARC
  5
21520
  8
0
 10
363.66491367967052
 20
259.61739837369169
 30
0.0
 40
62.5
 50
121.2249877309918
 51
58.775012269008201
  0
LINE
  5
2152E
  8
0
 10
409.05401301777829
 20
237.47965546084291
 30
0.0
 11
381.19139758250481
 21
251.06916101130631
 31
0.0
  0
ARC
  5
2153C
  8
0
 10
363.66491367967052
 20
259.61739837369169
 30
0.0
 40
19.499999999999989
 50
186.35580210641211
 51
353.64419789358789
  0
LINE
  5
21553
  8
0
 10
363.66491367967052
 20
240.11739837369171
 30
0.0
 11
363.66491367967052
 21
209.11739837369171
 31
0.0
  0
LINE
  5
21555
  8
0
 10
321.79851626564073
 20
231.37815674841929
 30
0.0
 11
347.49868101484662
 21
248.7131367560132
 31
0.0
  0
ARC
  5
2155A
  8
0
 10
363.66491367967052
 20
259.61739837369169
 30
0.0
 40
50.5
 50
129.91004788308149
 51
50.089952116918532
  0
LINE
  5
2155C
  8
0
 10
407.39919657078451
 20
284.86739837369169
 30
0.0
 11
396.06491367967038
 21
278.32354709543603
 31
0.0
  0
LINE
  5
2155F
  8
0
 10
319.93063078855619
 20
284.86739837369169
 30
0.0
 11
331.26491367967049
 21
278.32354709543603
 31
0.0
  0
ARC
  5
21562
  8
0
 10
363.66491367967058
 20
259.61739837369259
 30
0.0
 40
46.439712300844128
 50
30.000000000000021
 51
45.758935540258108
  0
ARC
  5
21563
  8
0
 10
363.66491367967052
 20
259.61739837369169
 30
0.0
 40
46.439712300844313
 50
150.0
 51
214.00000000000571
  0
ARC
  5
21566
  8
0
 10
363.66491367967052
 20
259.61739837369169
 30
0.0
 40
46.439712300844363
 50
270.0
 51
334.00000000000517
  0
LINE
  5
2156C
  8
1
 10
363.66491367967052
 20
181.8692109414778
 30
0.0
 11
363.66491367967052
 21
373.36558580590548
 31
0.0
  0
LINE
  5
21588
  8
0
 10
538.06080472905285
 20
356.11739837369169
 30
0.0
 11
538.06080472905285
 21
272.92188280062868
 31
0.0
  0
LINE
  5
21589
  8
0
 10
538.06080472905285
 20
356.11739837369169
 30
0.0
 11
619.06080472905285
 21
356.11739837369169
 31
0.0
  0
LINE
  5
2158A
  8
0
 10
556.06080472905285
 20
356.11739837369169
 30
0.0
 11
556.06080472905285
 21
248.11739837369171
 31
0.0
  0
LINE
  5
2158D
  8
0
 10
619.06080472905285
 20
356.11739837369169
 30
0.0
 11
619.06080472905285
 21
272.92188280062868
 31
0.0
  0
LINE
  5
21590
  8
0
 10
601.06080472905296
 20
356.11739837369169
 30
0.0
 11
601.06080472905296
 21
248.11739837369171
 31
0.0
  0
POLYLINE
  5
21592
  8
0
 66
     1
 10
0.0
 20
0.0
 30
0.0
  0
VERTEX
  5
2ECBC
  8
0
 10
620.86988151539128
 20
270.17692345367692
 30
0.0
  0
VERTEX
  5
2ECBD
  8
0
 10
620.88227433270936
 20
270.24108767954658
 30
0.0
  0
VERTEX
  5
2ECBE
  8
0
 10
620.90557654354313
 20
270.37176364561952
 30
0.0
  0
VERTEX
  5
2ECBF
  8
0
 10
620.92694279902776
 20
270.50552824938592
 30
0.0
  0
VERTEX
  5
2ECC0
  8
0
 10
620.93691677999698
 20
270.57355187771827
 30
0.0
  0
VERTEX
  5
2ECC1
  8
0
 10
620.94642754894812
 20
270.64232667310438
 30
0.0
  0
VERTEX
  5
2ECC2
  8
0
 10
620.96408975156066
 20
270.78209868627891
 30
0.0
  0
VERTEX
  5
2ECC3
  8
0
 10
620.97999259722769
 20
270.92477920102277
 30
0.0
  0
VERTEX
  5
2ECC4
  8
0
 10
620.99420318105308
 20
271.07029884374327
 30
0.0
  0
VERTEX
  5
2ECC5
  8
0
 10
621.00679213498609
 20
271.21858454136873
 30
0.0
  0
VERTEX
  5
2ECC6
  8
0
 10
621.01783322889401
 20
271.36956012105111
 30
0.0
  0
VERTEX
  5
2ECC7
  8
0
 10
621.02279713608004
 20
271.44603211557211
 30
0.0
  0
VERTEX
  5
2ECC8
  8
0
 10
621.02740294917544
 20
271.52314692288201
 30
0.0
  0
VERTEX
  5
2ECC9
  8
0
 10
621.03558007496144
 20
271.67926468459518
 30
0.0
  0
VERTEX
  5
2ECCA
  8
0
 10
621.04244524761998
 20
271.83783281558323
 30
0.0
  0
VERTEX
  5
2ECCB
  8
0
 10
621.04808028168657
 20
271.99876430575932
 30
0.0
  0
VERTEX
  5
2ECCC
  8
0
 10
621.05256796886613
 20
272.16196757793841
 30
0.0
  0
VERTEX
  5
2ECCD
  8
0
 10
621.05599176895953
 20
272.32734759898449
 30
0.0
  0
VERTEX
  5
2ECCE
  8
0
 10
621.05733088637805
 20
272.41082336050022
 30
0.0
  0
VERTEX
  5
2ECCF
  8
0
 10
621.05843544798824
 20
272.49480633984689
 30
0.0
  0
VERTEX
  5
2ECD0
  8
0
 10
621.05998270704242
 20
272.6642432460348
 30
0.0
  0
VERTEX
  5
2ECD1
  8
0
 10
621.06071680712182
 20
272.83555572137448
 30
0.0
  0
VERTEX
  5
2ECD2
  8
0
 10
621.06080472905285
 20
272.92188280062868
 30
0.0
  0
SEQEND
  5
2ECD3
  8
0
  0
POLYLINE
  5
21594
  8
0
 66
     1
 10
0.0
 20
0.0
 30
0.0
  0
VERTEX
  5
2ECD4
  8
0
 10
617.69228378816661
 20
264.63677937985273
 30
0.0
  0
VERTEX
  5
2ECD5
  8
0
 10
617.82635123921114
 20
264.7577389251046
 30
0.0
  0
VERTEX
  5
2ECD6
  8
0
 10
618.08782536867216
 20
265.00682088077241
 30
0.0
  0
VERTEX
  5
2ECD7
  8
0
 10
618.34013552249962
 20
265.26518134077378
 30
0.0
  0
VERTEX
  5
2ECD8
  8
0
 10
618.46275080518194
 20
265.39773618025453
 30
0.0
  0
VERTEX
  5
2ECD9
  8
0
 10
618.58295266165715
 20
265.53248337583591
 30
0.0
  0
VERTEX
  5
2ECDA
  8
0
 10
618.81596012699936
 20
265.80837839592732
 30
0.0
  0
VERTEX
  5
2ECDB
  8
0
 10
619.03885405223082
 20
266.09250660486032
 30
0.0
  0
VERTEX
  5
2ECDC
  8
0
 10
619.25134376017706
 20
266.38449746950118
 30
0.0
  0
VERTEX
  5
2ECDD
  8
0
 10
619.45315214186076
 20
266.68397020298289
 30
0.0
  0
VERTEX
  5
2ECDE
  8
0
 10
619.64401601787927
 20
266.9905342612937
 30
0.0
  0
VERTEX
  5
2ECDF
  8
0
 10
619.73526541641195
 20
267.14635094937421
 30
0.0
  0
VERTEX
  5
2ECE0
  8
0
 10
619.82368648161957
 20
267.30378985258631
 30
0.0
  0
VERTEX
  5
2ECE1
  8
0
 10
619.99192922385782
 20
267.62332845854871
 30
0.0
  0
VERTEX
  5
2ECE2
  8
0
 10
620.14852483832328
 20
267.94873336715858
 30
0.0
  0
VERTEX
  5
2ECE3
  8
0
 10
620.29326910782822
 20
268.2795802161109
 30
0.0
  0
VERTEX
  5
2ECE4
  8
0
 10
620.42597327058763
 20
268.6154375462429
 30
0.0
  0
VERTEX
  5
2ECE5
  8
0
 10
620.54646426638499
 20
268.95586736419142
 30
0.0
  0
VERTEX
  5
2ECE6
  8
0
 10
620.60208009471808
 20
269.12765843688072
 30
0.0
  0
VERTEX
  5
2ECE7
  8
0
 10
620.65458496226063
 20
269.3004257135899
 30
0.0
  0
VERTEX
  5
2ECE8
  8
0
 10
620.75019435743013
 20
269.64866325403
 30
0.0
  0
VERTEX
  5
2ECE9
  8
0
 10
620.83316776716413
 20
270.000125847052
 30
0.0
  0
VERTEX
  5
2ECEA
  8
0
 10
620.86988151539128
 20
270.17692345367692
 30
0.0
  0
SEQEND
  5
2ECEB
  8
0
  0
LINE
  5
2159E
  8
0
 10
601.06080472905296
 20
248.11739837369171
 30
0.0
 11
603.18085892719705
 21
248.11739837369171
 31
0.0
  0
POLYLINE
  5
2159F
  8
0
 66
     1
 10
0.0
 20
0.0
 30
0.0
  0
VERTEX
  5
2ECEC
  8
0
 10
601.16704915792855
 20
248.11739837369171
 30
0.0
  0
VERTEX
  5
2ECED
  8
0
 10
601.20223681090874
 20
248.1217494149796
 30
0.0
  0
VERTEX
  5
2ECEE
  8
0
 10
601.2884552720061
 20
248.1569127282128
 30
0.0
  0
VERTEX
  5
2ECEF
  8
0
 10
601.39576804509272
 20
248.22784538723499
 30
0.0
  0
VERTEX
  5
2ECF0
  8
0
 10
601.45721399175295
 20
248.2767762378044
 30
0.0
  0
VERTEX
  5
2ECF1
  8
0
 10
601.52373462042306
 20
248.33464611156521
 30
0.0
  0
VERTEX
  5
2ECF2
  8
0
 10
601.67149561946906
 20
248.47691911582839
 30
0.0
  0
VERTEX
  5
2ECF3
  8
0
 10
601.8377730145337
 20
248.65379895306981
 30
0.0
  0
VERTEX
  5
2ECF4
  8
0
 10
602.02088239626698
 20
248.86396445496391
 30
0.0
  0
VERTEX
  5
2ECF5
  8
0
 10
602.21887088225503
 20
249.10579580055401
 30
0.0
  0
VERTEX
  5
2ECF6
  8
0
 10
602.42958796150765
 20
249.3774756404782
 30
0.0
  0
VERTEX
  5
2ECF7
  8
0
 10
602.53893293011777
 20
249.52380552432439
 30
0.0
  0
VERTEX
  5
2ECF8
  8
0
 10
602.65048384552586
 20
249.67671119725401
 30
0.0
  0
VERTEX
  5
2ECF9
  8
0
 10
602.87877970905527
 20
250.00089224564911
 30
0.0
  0
VERTEX
  5
2ECFA
  8
0
 10
603.11153571436398
 20
250.347131169101
 30
0.0
  0
VERTEX
  5
2ECFB
  8
0
 10
603.34566836230567
 20
250.71221368156151
 30
0.0
  0
VERTEX
  5
2ECFC
  8
0
 10
603.57809582954371
 20
251.09272874876569
 30
0.0
  0
VERTEX
  5
2ECFD
  8
0
 10
603.81204052539931
 20
251.4961243748057
 30
0.0
  0
VERTEX
  5
2ECFE
  8
0
 10
603.93009702880636
 20
251.70841832366111
 30
0.0
  0
VERTEX
  5
2ECFF
  8
0
 10
604.04830211429555
 20
251.92751830386439
 30
0.0
  0
VERTEX
  5
2ED00
  8
0
 10
604.28335008822387
 20
252.38528252615831
 30
0.0
  0
VERTEX
  5
2ED01
  8
0
 10
604.51346722932601
 20
252.86761947839841
 30
0.0
  0
VERTEX
  5
2ED02
  8
0
 10
604.62547667541048
 20
253.11739837369171
 30
0.0
  0
SEQEND
  5
2ED03
  8
0
  0
POLYLINE
  5
215A0
  8
0
 66
     1
 10
0.0
 20
0.0
 30
0.0
  0
VERTEX
  5
2ED04
  8
0
 10
607.23855371776403
 20
253.11739837369171
 30
0.0
  0
VERTEX
  5
2ED05
  8
0
 10
607.10279626675344
 20
252.87086198946599
 30
0.0
  0
VERTEX
  5
2ED06
  8
0
 10
606.82558232409701
 20
252.39449144790339
 30
0.0
  0
VERTEX
  5
2ED07
  8
0
 10
606.54445273863564
 20
251.94181001912511
 30
0.0
  0
VERTEX
  5
2ED08
  8
0
 10
606.40373959006683
 20
251.7248693595775
 30
0.0
  0
VERTEX
  5
2ED09
  8
0
 10
606.26359806638879
 20
251.51446285296061
 30
0.0
  0
VERTEX
  5
2ED0A
  8
0
 10
605.9869240581761
 20
251.1140050206086
 30
0.0
  0
VERTEX
  5
2ED0B
  8
0
 10
605.7137444108688
 20
250.7360591967936
 30
0.0
  0
VERTEX
  5
2ED0C
  8
0
 10
605.43948025748432
 20
250.3723543687947
 30
0.0
  0
VERTEX
  5
2ED0D
  8
0
 10
605.16753328028017
 20
250.02625632112901
 30
0.0
  0
VERTEX
  5
2ED0E
  8
0
 10
604.90138749332914
 20
249.70111815914521
 30
0.0
  0
VERTEX
  5
2ED0F
  8
0
 10
604.77152822015194
 20
249.54737327566269
 30
0.0
  0
VERTEX
  5
2ED10
  8
0
 10
604.64434211892547
 20
249.39999376496331
 30
0.0
  0
VERTEX
  5
2ED11
  8
0
 10
604.39950225240489
 20
249.12568297047159
 30
0.0
  0
VERTEX
  5
2ED12
  8
0
 10
604.16971409261237
 20
248.88069221459861
 30
0.0
  0
VERTEX
  5
2ED13
  8
0
 10
603.95737310221466
 20
248.6670660262908
 30
0.0
  0
VERTEX
  5
2ED14
  8
0
 10
603.76466078195801
 20
248.4866612698988
 30
0.0
  0
VERTEX
  5
2ED15
  8
0
 10
603.5934813941999
 20
248.34105639208519
 30
0.0
  0
VERTEX
  5
2ED16
  8
0
 10
603.5164411876159
 20
248.2816742068317
 30
0.0
  0
VERTEX
  5
2ED17
  8
0
 10
603.5041707928566
 20
248.2726582048208
 30
0.0
  0
VERTEX
  5
2ED18
  8
0
 10
603.48012356024731
 20
248.25538488609351
 30
0.0
  0
VERTEX
  5
2ED19
  8
0
 10
603.45673797311224
 20
248.23912537048449
 30
0.0
  0
VERTEX
  5
2ED1A
  8
0
 10
603.44529455916154
 20
248.23137653892809
 30
0.0
  0
VERTEX
  5
2ED1B
  8
0
 10
603.4340180298758
 20
248.2238820122293
 30
0.0
  0
VERTEX
  5
2ED1C
  8
0
 10
603.41196739071813
 20
248.20965679252461
 30
0.0
  0
VERTEX
  5
2ED1D
  8
0
 10
603.39058936464323
 20
248.19645130379291
 30
0.0
  0
VERTEX
  5
2ED1E
  8
0
 10
603.36988689754241
 20
248.18426673538761
 30
0.0
  0
VERTEX
  5
2ED1F
  8
0
 10
603.34986256129332
 20
248.17310386075769
 30
0.0
  0
VERTEX
  5
2ED20
  8
0
 10
603.3305185439342
 20
248.1629630261414
 30
0.0
  0
VERTEX
  5
2ED21
  8
0
 10
603.32110223147674
 20
248.15827586279011
 30
0.0
  0
VERTEX
  5
2ED22
  8
0
 10
603.31185664095153
 20
248.1538441408174
 30
0.0
  0
VERTEX
  5
2ED23
  8
0
 10
603.29387824771436
 20
248.14574666898079
 30
0.0
  0
VERTEX
  5
2ED24
  8
0
 10
603.27658435309263
 20
248.1386696232621
 30
0.0
  0
VERTEX
  5
2ED25
  8
0
 10
603.25997553428624
 20
248.13261155996139
 30
0.0
  0
VERTEX
  5
2ED26
  8
0
 10
603.24405195289967
 20
248.12757057602809
 30
0.0
  0
VERTEX
  5
2ED27
  8
0
 10
603.22881335228544
 20
248.12354430782941
 30
0.0
  0
VERTEX
  5
2ED28
  8
0
 10
603.22145072483715
 20
248.1219108276637
 30
0.0
  0
VERTEX
  5
2ED29
  8
0
 10
603.21425905618059
 20
248.12052993175081
 30
0.0
  0
VERTEX
  5
2ED2A
  8
0
 10
603.20038796866265
 20
248.1185241666754
 30
0.0
  0
VERTEX
  5
2ED2B
  8
0
 10
603.18719857543954
 20
248.1175232783753
 30
0.0
  0
VERTEX
  5
2ED2C
  8
0
 10
603.18085892719705
 20
248.11739837369171
 30
0.0
  0
SEQEND
  5
2ED2D
  8
0
  0
POLYLINE
  5
215A2
  8
0
 66
     1
 10
0.0
 20
0.0
 30
0.0
  0
VERTEX
  5
2ED2E
  8
0
 10
604.62547667541048
 20
253.11739837369171
 30
0.0
  0
VERTEX
  5
2ED2F
  8
0
 10
604.74322590521297
 20
253.38282602853729
 30
0.0
  0
VERTEX
  5
2ED30
  8
0
 10
604.98376518239172
 20
253.90684400245661
 30
0.0
  0
VERTEX
  5
2ED31
  8
0
 10
605.23092742840231
 20
254.4215329774988
 30
0.0
  0
VERTEX
  5
2ED32
  8
0
 10
605.35695461202147
 20
254.67530045035801
 30
0.0
  0
VERTEX
  5
2ED33
  8
0
 10
605.48459207588201
 20
254.92664188500751
 30
0.0
  0
VERTEX
  5
2ED34
  8
0
 10
605.74463538555415
 20
255.42192432955019
 30
0.0
  0
VERTEX
  5
2ED35
  8
0
 10
606.01093050658892
 20
255.90713870910619
 30
0.0
  0
VERTEX
  5
2ED36
  8
0
 10
606.28334753848162
 20
256.3820483329219
 30
0.0
  0
VERTEX
  5
2ED37
  8
0
 10
606.56175359441954
 20
256.84642153697132
 30
0.0
  0
VERTEX
  5
2ED38
  8
0
 10
606.84601286610484
 20
257.3000317969645
 30
0.0
  0
VERTEX
  5
2ED39
  8
0
 10
606.99029423519073
 20
257.52273146674088
 30
0.0
  0
VERTEX
  5
2ED3A
  8
0
 10
607.13598669000271
 20
257.74265783884402
 30
0.0
  0
VERTEX
  5
2ED3B
  8
0
 10
607.43153361498219
 20
258.17408374672868
 30
0.0
  0
VERTEX
  5
2ED3C
  8
0
 10
607.73250947131737
 20
258.59409906823288
 30
0.0
  0
VERTEX
  5
2ED3D
  8
0
 10
608.03876744101365
 20
259.00249891713162
 30
0.0
  0
VERTEX
  5
2ED3E
  8
0
 10
608.3501581294272
 20
259.39908407330398
 30
0.0
  0
VERTEX
  5
2ED3F
  8
0
 10
608.66652963814045
 20
259.78366107991133
 30
0.0
  0
VERTEX
  5
2ED40
  8
0
 10
608.82653506543863
 20
259.97138767104849
 30
0.0
  0
VERTEX
  5
2ED41
  8
0
 10
608.9877276390589
 20
260.15604233777231
 30
0.0
  0
VERTEX
  5
2ED42
  8
0
 10
609.31359544969359
 20
260.51604619686981
 30
0.0
  0
VERTEX
  5
2ED43
  8
0
 10
609.64397410959191
 20
260.86349704496121
 30
0.0
  0
VERTEX
  5
2ED44
  8
0
 10
609.81080472905285
 20
261.03246188315279
 30
0.0
  0
SEQEND
  5
2ED45
  8
0
  0
LINE
  5
215A3
  8
0
 10
609.81080472905285
 20
261.03246188315279
 30
0.0
 11
611.34405441388822
 21
262.56571156798782
 31
0.0
  0
LINE
  5
215A4
  8
0
 10
615.34405441388822
 20
262.56571156798782
 30
0.0
 11
610.81080472905285
 21
258.03246188315279
 31
0.0
  0
POLYLINE
  5
215A5
  8
0
 66
     1
 10
0.0
 20
0.0
 30
0.0
  0
VERTEX
  5
2ED46
  8
0
 10
610.81080472905285
 20
258.03246188315279
 30
0.0
  0
VERTEX
  5
2ED47
  8
0
 10
610.70091753421252
 20
257.92153100559432
 30
0.0
  0
VERTEX
  5
2ED48
  8
0
 10
610.48273822971146
 20
257.69500266100289
 30
0.0
  0
VERTEX
  5
2ED49
  8
0
 10
610.26673461462303
 20
257.46230321440453
 30
0.0
  0
VERTEX
  5
2ED4A
  8
0
 10
610.15956689420591
 20
257.34365884889388
 30
0.0
  0
VERTEX
  5
2ED4B
  8
0
 10
610.05296486583597
 20
257.22349533942543
 30
0.0
  0
VERTEX
  5
2ED4C
  8
0
 10
609.84148655858587
 20
256.9786433548943
 30
0.0
  0
VERTEX
  5
2ED4D
  8
0
 10
609.63235665094726
 20
256.72781320751528
 30
0.0
  0
VERTEX
  5
2ED4E
  8
0
 10
609.42563146849318
 20
256.47107245411007
 30
0.0
  0
VERTEX
  5
2ED4F
  8
0
 10
609.22136668912503
 20
256.20849024342169
 30
0.0
  0
VERTEX
  5
2ED50
  8
0
 10
609.01961732807695
 20
255.94013729748809
 30
0.0
  0
VERTEX
  5
2ED51
  8
0
 10
608.91970293683505
 20
255.8038193249613
 30
0.0
  0
VERTEX
  5
2ED52
  8
0
 10
608.82043772309771
 20
255.66608589259801
 30
0.0
  0
VERTEX
  5
2ED53
  8
0
 10
608.62388151981622
 20
255.38640983982259
 30
0.0
  0
VERTEX
  5
2ED54
  8
0
 10
608.43000165729268
 20
255.10118446513661
 30
0.0
  0
VERTEX
  5
2ED55
  8
0
 10
608.23885035376134
 20
254.8104865891282
 30
0.0
  0
VERTEX
  5
2ED56
  8
0
 10
608.0504790925645
 20
254.5143945063119
 30
0.0
  0
VERTEX
  5
2ED57
  8
0
 10
607.8649386082883
 20
254.21298796403971
 30
0.0
  0
VERTEX
  5
2ED58
  8
0
 10
607.77324555394841
 20
254.06031708363659
 30
0.0
  0
VERTEX
  5
2ED59
  8
0
 10
607.68227887309718
 20
253.9063481410212
 30
0.0
  0
VERTEX
  5
2ED5A
  8
0
 10
607.50254908327474
 20
253.59455762546261
 30
0.0
  0
VERTEX
  5
2ED5B
  8
0
 10
607.32579764597415
 20
253.27770039282041
 30
0.0
  0
VERTEX
  5
2ED5C
  8
0
 10
607.23855371776403
 20
253.11739837369171
 30
0.0
  0
SEQEND
  5
2ED5D
  8
0
  0
POLYLINE
  5
215A7
  8
0
 66
     1
 10
0.0
 20
0.0
 30
0.0
  0
VERTEX
  5
2ED5E
  8
0
 10
611.34405441388833
 20
262.56571156798782
 30
0.0
  0
VERTEX
  5
2ED5F
  8
0
 10
611.40742963889022
 20
262.62855794563262
 30
0.0
  0
VERTEX
  5
2ED60
  8
0
 10
611.53654645389531
 20
262.75344414959272
 30
0.0
  0
VERTEX
  5
2ED61
  8
0
 10
611.66879559206302
 20
262.87723296059721
 30
0.0
  0
VERTEX
  5
2ED62
  8
0
 10
611.73608606571941
 20
262.9387076514559
 30
0.0
  0
VERTEX
  5
2ED63
  8
0
 10
611.80414907792021
 20
262.99989819283752
 30
0.0
  0
VERTEX
  5
2ED64
  8
0
 10
611.94257827931222
 20
263.12141389818322
 30
0.0
  0
VERTEX
  5
2ED65
  8
0
 10
612.08405391345946
 20
263.2417543716719
 30
0.0
  0
VERTEX
  5
2ED66
  8
0
 10
612.22854605315138
 20
263.36089415694192
 30
0.0
  0
VERTEX
  5
2ED67
  8
0
 10
612.37602413307775
 20
263.47880805162367
 30
0.0
  0
VERTEX
  5
2ED68
  8
0
 10
612.52645695629394
 20
263.59547111266511
 30
0.0
  0
VERTEX
  5
2ED69
  8
0
 10
612.60277147649936
 20
263.65332585807482
 30
0.0
  0
VERTEX
  5
2ED6A
  8
0
 10
612.67981270082021
 20
263.71085866161229
 30
0.0
  0
VERTEX
  5
2ED6B
  8
0
 10
612.83605892637365
 20
263.8249462898284
 30
0.0
  0
VERTEX
  5
2ED6C
  8
0
 10
612.99516258122981
 20
263.93770986365598
 30
0.0
  0
VERTEX
  5
2ED6D
  8
0
 10
613.1570900092147
 20
264.04912552952192
 30
0.0
  0
VERTEX
  5
2ED6E
  8
0
 10
613.32180695682428
 20
264.15916971898878
 30
0.0
  0
VERTEX
  5
2ED6F
  8
0
 10
613.48927858047045
 20
264.26781915372982
 30
0.0
  0
VERTEX
  5
2ED70
  8
0
 10
613.57403634764626
 20
264.32161364414418
 30
0.0
  0
VERTEX
  5
2ED71
  8
0
 10
613.65946945385156
 20
264.37505085046359
 30
0.0
  0
VERTEX
  5
2ED72
  8
0
 10
613.83234357544575
 20
264.48084212581028
 30
0.0
  0
VERTEX
  5
2ED73
  8
0
 10
614.00786437612794
 20
264.58517060109079
 30
0.0
  0
VERTEX
  5
2ED74
  8
0
 10
614.09660569997243
 20
264.63677937985273
 30
0.0
  0
SEQEND
  5
2ED75
  8
0
  0
POLYLINE
  5
215A8
  8
0
 66
     1
 10
0.0
 20
0.0
 30
0.0
  0
VERTEX
  5
2ED76
  8
0
 10
617.69228378816661
 20
264.63677937985273
 30
0.0
  0
VERTEX
  5
2ED77
  8
0
 10
617.43165315635315
 20
264.4064572144834
 30
0.0
  0
VERTEX
  5
2ED78
  8
0
 10
616.89484739326656
 20
263.93647975971999
 30
0.0
  0
VERTEX
  5
2ED79
  8
0
 10
616.3417740773674
 20
263.46024400768601
 30
0.0
  0
VERTEX
  5
2ED7A
  8
0
 10
616.06080472905285
 20
263.2222351894552
 30
0.0
  0
SEQEND
  5
2ED7B
  8
0
  0
POLYLINE
  5
215A9
  8
0
 66
     1
 10
0.0
 20
0.0
 30
0.0
  0
VERTEX
  5
2ED7C
  8
0
 10
616.06080472905296
 20
263.2222351894552
 30
0.0
  0
VERTEX
  5
2ED7D
  8
0
 10
615.93524936431265
 20
263.11507600737241
 30
0.0
  0
VERTEX
  5
2ED7E
  8
0
 10
615.69139440025037
 20
262.89798920906929
 30
0.0
  0
VERTEX
  5
2ED7F
  8
0
 10
615.45734916140964
 20
262.67733253482493
 30
0.0
  0
VERTEX
  5
2ED80
  8
0
 10
615.34405441388833
 20
262.56571156798782
 30
0.0
  0
SEQEND
  5
2ED81
  8
0
  0
LINE
  5
215AB
  8
0
 10
614.09660569997243
 20
264.63677937985273
 30
0.0
 11
615.06080472905296
 21
265.19345994884497
 31
0.0
  0
POLYLINE
  5
215AC
  8
0
 66
     1
 10
0.0
 20
0.0
 30
0.0
  0
VERTEX
  5
2ED82
  8
0
 10
615.06080472905285
 20
265.19345994884497
 30
0.0
  0
VERTEX
  5
2ED83
  8
0
 10
615.21407692741775
 20
265.28424187819928
 30
0.0
  0
VERTEX
  5
2ED84
  8
0
 10
615.51436827811165
 20
265.4759298324916
 30
0.0
  0
VERTEX
  5
2ED85
  8
0
 10
615.80582771354989
 20
265.6807970202417
 30
0.0
  0
VERTEX
  5
2ED86
  8
0
 10
615.94806412332241
 20
265.7880468651083
 30
0.0
  0
VERTEX
  5
2ED87
  8
0
 10
616.08787723703222
 20
265.89843716687301
 30
0.0
  0
VERTEX
  5
2ED88
  8
0
 10
616.35995751276812
 20
266.12841866760209
 30
0.0
  0
VERTEX
  5
2ED89
  8
0
 10
616.62152897510134
 20
266.37028544335948
 30
0.0
  0
VERTEX
  5
2ED8A
  8
0
 10
616.87207289852984
 20
266.62355784524152
 30
0.0
  0
VERTEX
  5
2ED8B
  8
0
 10
617.111092426396
 20
266.887733605714
 30
0.0
  0
VERTEX
  5
2ED8C
  8
0
 10
617.33811355620901
 20
267.16228883465828
 30
0.0
  0
VERTEX
  5
2ED8D
  8
0
 10
617.4469830775414
 20
267.30328937655031
 30
0.0
  0
VERTEX
  5
2ED8E
  8
0
 10
617.55268607964524
 20
267.44667905831011
 30
0.0
  0
VERTEX
  5
2ED8F
  8
0
 10
617.75438447536169
 20
267.74034029900758
 30
0.0
  0
VERTEX
  5
2ED90
  8
0
 10
617.94280875285199
 20
268.04269019362351
 30
0.0
  0
VERTEX
  5
2ED91
  8
0
 10
618.11758524567301
 20
268.35312914845957
 30
0.0
  0
VERTEX
  5
2ED92
  8
0
 10
618.27836735246683
 20
268.67104152830137
 30
0.0
  0
VERTEX
  5
2ED93
  8
0
 10
618.42483622431052
 20
268.99579687730051
 30
0.0
  0
VERTEX
  5
2ED94
  8
0
 10
618.49261130215143
 20
269.160539902381
 30
0.0
  0
VERTEX
  5
2ED95
  8
0
 10
618.55670139702863
 20
269.32675116923019
 30
0.0
  0
VERTEX
  5
2ED96
  8
0
 10
618.67370136721627
 20
269.66324808466652
 30
0.0
  0
VERTEX
  5
2ED97
  8
0
 10
618.77560411083073
 20
270.00462031254392
 30
0.0
  0
VERTEX
  5
2ED98
  8
0
 10
618.82082969037106
 20
270.17692345367692
 30
0.0
  0
SEQEND
  5
2ED99
  8
0
  0
POLYLINE
  5
215AD
  8
0
 66
     1
 10
0.0
 20
0.0
 30
0.0
  0
VERTEX
  5
2ED9A
  8
0
 10
620.86988151539128
 20
270.17692345367692
 30
0.0
  0
VERTEX
  5
2ED9B
  8
0
 10
620.83316776716413
 20
270.000125847052
 30
0.0
  0
VERTEX
  5
2ED9C
  8
0
 10
620.75019435743013
 20
269.64866325403
 30
0.0
  0
VERTEX
  5
2ED9D
  8
0
 10
620.65458496226051
 20
269.3004257135899
 30
0.0
  0
VERTEX
  5
2ED9E
  8
0
 10
620.60208009471808
 20
269.12765843688072
 30
0.0
  0
VERTEX
  5
2ED9F
  8
0
 10
620.54646426638499
 20
268.95586736419142
 30
0.0
  0
VERTEX
  5
2EDA0
  8
0
 10
620.42597327058763
 20
268.6154375462429
 30
0.0
  0
VERTEX
  5
2EDA1
  8
0
 10
620.29326910782822
 20
268.2795802161109
 30
0.0
  0
VERTEX
  5
2EDA2
  8
0
 10
620.14852483832328
 20
267.94873336715858
 30
0.0
  0
VERTEX
  5
2EDA3
  8
0
 10
619.99192922385782
 20
267.62332845854871
 30
0.0
  0
VERTEX
  5
2EDA4
  8
0
 10
619.82368648161957
 20
267.30378985258631
 30
0.0
  0
VERTEX
  5
2EDA5
  8
0
 10
619.73526541641195
 20
267.14635094937421
 30
0.0
  0
VERTEX
  5
2EDA6
  8
0
 10
619.64401601787927
 20
266.9905342612937
 30
0.0
  0
VERTEX
  5
2EDA7
  8
0
 10
619.45315214186076
 20
266.68397020298289
 30
0.0
  0
VERTEX
  5
2EDA8
  8
0
 10
619.25134376017706
 20
266.38449746950118
 30
0.0
  0
VERTEX
  5
2EDA9
  8
0
 10
619.03885405223082
 20
266.09250660486032
 30
0.0
  0
VERTEX
  5
2EDAA
  8
0
 10
618.81596012699936
 20
265.80837839592732
 30
0.0
  0
VERTEX
  5
2EDAB
  8
0
 10
618.58295266165703
 20
265.53248337583591
 30
0.0
  0
VERTEX
  5
2EDAC
  8
0
 10
618.46275080518194
 20
265.39773618025453
 30
0.0
  0
VERTEX
  5
2EDAD
  8
0
 10
618.34013552249962
 20
265.26518134077378
 30
0.0
  0
VERTEX
  5
2EDAE
  8
0
 10
618.08782536867216
 20
265.00682088077241
 30
0.0
  0
VERTEX
  5
2EDAF
  8
0
 10
617.82635123921114
 20
264.7577389251046
 30
0.0
  0
VERTEX
  5
2EDB0
  8
0
 10
617.69228378816661
 20
264.63677937985273
 30
0.0
  0
SEQEND
  5
2EDB1
  8
0
  0
POLYLINE
  5
215AF
  8
0
 66
     1
 10
0.0
 20
0.0
 30
0.0
  0
VERTEX
  5
2EDB2
  8
0
 10
618.82082969037106
 20
270.17692345367692
 30
0.0
  0
VERTEX
  5
2EDB3
  8
0
 10
618.83703034492521
 20
270.24336846501859
 30
0.0
  0
VERTEX
  5
2EDB4
  8
0
 10
618.86699149426215
 20
270.37689403005521
 30
0.0
  0
VERTEX
  5
2EDB5
  8
0
 10
618.8938418921789
 20
270.51084301449009
 30
0.0
  0
VERTEX
  5
2EDB6
  8
0
 10
618.90618390971167
 20
270.5779629432036
 30
0.0
  0
VERTEX
  5
2EDB7
  8
0
 10
618.9179536288384
 20
270.64581744232328
 30
0.0
  0
VERTEX
  5
2EDB8
  8
0
 10
618.93984866545293
 20
270.7839194992593
 30
0.0
  0
VERTEX
  5
2EDB9
  8
0
 10
618.95960688451385
 20
270.9251595091327
 30
0.0
  0
VERTEX
  5
2EDBA
  8
0
 10
618.97730021277914
 20
271.0694683666361
 30
0.0
  0
VERTEX
  5
2EDBB
  8
0
 10
618.99300604632799
 20
271.21677104059557
 30
0.0
  0
VERTEX
  5
2EDBC
  8
0
 10
619.00680682325844
 20
271.36698730336872
 30
0.0
  0
VERTEX
  5
2EDBD
  8
0
 10
619.01301983650035
 20
271.4431617191367
 30
0.0
  0
VERTEX
  5
2EDBE
  8
0
 10
619.01878953360767
 20
271.52003246519052
 30
0.0
  0
VERTEX
  5
2EDBF
  8
0
 10
619.02904518201979
 20
271.67581811319002
 30
0.0
  0
VERTEX
  5
2EDC0
  8
0
 10
619.03766821681097
 20
271.8342528558332
 30
0.0
  0
VERTEX
  5
2EDC1
  8
0
 10
619.04475593804818
 20
271.99524309176559
 30
0.0
  0
VERTEX
  5
2EDC2
  8
0
 10
619.05040791442696
 20
272.15869448402191
 30
0.0
  0
VERTEX
  5
2EDC3
  8
0
 10
619.0547252166798
 20
272.32450679341127
 30
0.0
  0
VERTEX
  5
2EDC4
  8
0
 10
619.05641525823501
 20
272.408265352623
 30
0.0
  0
VERTEX
  5
2EDC5
  8
0
 10
619.05781000506488
 20
272.49257414467138
 30
0.0
  0
VERTEX
  5
2EDC6
  8
0
 10
619.05976510191283
 20
272.66278708274598
 30
0.0
  0
VERTEX
  5
2EDC7
  8
0
 10
619.06069347529285
 20
272.83503315478902
 30
0.0
  0
VERTEX
  5
2EDC8
  8
0
 10
619.06080472905296
 20
272.92188280062868
 30
0.0
  0
SEQEND
  5
2EDC9
  8
0
  0
POLYLINE
  5
215B0
  8
0
 66
     1
 10
0.0
 20
0.0
 30
0.0
  0
VERTEX
  5
2EDCA
  8
0
 10
621.06080472905285
 20
272.92188280062868
 30
0.0
  0
VERTEX
  5
2EDCB
  8
0
 10
621.06071680712182
 20
272.83555572137448
 30
0.0
  0
VERTEX
  5
2EDCC
  8
0
 10
621.05998270704242
 20
272.6642432460348
 30
0.0
  0
VERTEX
  5
2EDCD
  8
0
 10
621.05843544798824
 20
272.49480633984689
 30
0.0
  0
VERTEX
  5
2EDCE
  8
0
 10
621.05733088637805
 20
272.41082336050022
 30
0.0
  0
VERTEX
  5
2EDCF
  8
0
 10
621.05599176895953
 20
272.32734759898449
 30
0.0
  0
VERTEX
  5
2EDD0
  8
0
 10
621.05256796886613
 20
272.16196757793841
 30
0.0
  0
VERTEX
  5
2EDD1
  8
0
 10
621.04808028168657
 20
271.99876430575932
 30
0.0
  0
VERTEX
  5
2EDD2
  8
0
 10
621.04244524761998
 20
271.83783281558323
 30
0.0
  0
VERTEX
  5
2EDD3
  8
0
 10
621.03558007496144
 20
271.67926468459518
 30
0.0
  0
VERTEX
  5
2EDD4
  8
0
 10
621.02740294917544
 20
271.52314692288201
 30
0.0
  0
VERTEX
  5
2EDD5
  8
0
 10
621.02279713607993
 20
271.44603211557211
 30
0.0
  0
VERTEX
  5
2EDD6
  8
0
 10
621.01783322889401
 20
271.36956012105111
 30
0.0
  0
VERTEX
  5
2EDD7
  8
0
 10
621.00679213498609
 20
271.21858454136873
 30
0.0
  0
VERTEX
  5
2EDD8
  8
0
 10
620.99420318105308
 20
271.07029884374327
 30
0.0
  0
VERTEX
  5
2EDD9
  8
0
 10
620.97999259722769
 20
270.92477920102277
 30
0.0
  0
VERTEX
  5
2EDDA
  8
0
 10
620.96408975156066
 20
270.78209868627891
 30
0.0
  0
VERTEX
  5
2EDDB
  8
0
 10
620.94642754894812
 20
270.64232667310438
 30
0.0
  0
VERTEX
  5
2EDDC
  8
0
 10
620.93691677999698
 20
270.57355187771827
 30
0.0
  0
VERTEX
  5
2EDDD
  8
0
 10
620.92694279902776
 20
270.50552824938592
 30
0.0
  0
VERTEX
  5
2EDDE
  8
0
 10
620.90557654354313
 20
270.37176364561952
 30
0.0
  0
VERTEX
  5
2EDDF
  8
0
 10
620.88227433270936
 20
270.24108767954658
 30
0.0
  0
VERTEX
  5
2EDE0
  8
0
 10
620.86988151539128
 20
270.17692345367692
 30
0.0
  0
SEQEND
  5
2EDE1
  8
0
  0
LINE
  5
215B6
  8
0
 10
621.06080472905285
 20
358.11739837369169
 30
0.0
 11
621.06080472905285
 21
272.92188280062868
 31
0.0
  0
POLYLINE
  5
215B7
  8
0
 66
     1
 10
0.0
 20
0.0
 30
0.0
  0
VERTEX
  5
2EDE2
  8
0
 10
536.06080472905285
 20
272.92188280062868
 30
0.0
  0
VERTEX
  5
2EDE3
  8
0
 10
536.06089265098421
 20
272.83555572137448
 30
0.0
  0
VERTEX
  5
2EDE4
  8
0
 10
536.06162675106361
 20
272.6642432460348
 30
0.0
  0
VERTEX
  5
2EDE5
  8
0
 10
536.06317401011779
 20
272.49480633984689
 30
0.0
  0
VERTEX
  5
2EDE6
  8
0
 10
536.06427857172798
 20
272.41082336050022
 30
0.0
  0
VERTEX
  5
2EDE7
  8
0
 10
536.06561768914628
 20
272.32734759898449
 30
0.0
  0
VERTEX
  5
2EDE8
  8
0
 10
536.06904148923991
 20
272.16196757793841
 30
0.0
  0
VERTEX
  5
2EDE9
  8
0
 10
536.07352917641924
 20
271.99876430575932
 30
0.0
  0
VERTEX
  5
2EDEA
  8
0
 10
536.07916421048594
 20
271.83783281558323
 30
0.0
  0
VERTEX
  5
2EDEB
  8
0
 10
536.08602938314448
 20
271.67926468459518
 30
0.0
  0
VERTEX
  5
2EDEC
  8
0
 10
536.0942065089306
 20
271.52314692288201
 30
0.0
  0
VERTEX
  5
2EDED
  8
0
 10
536.09881232202611
 20
271.44603211557211
 30
0.0
  0
VERTEX
  5
2EDEE
  8
0
 10
536.10377622921203
 20
271.36956012105111
 30
0.0
  0
VERTEX
  5
2EDEF
  8
0
 10
536.11481732311984
 20
271.21858454136873
 30
0.0
  0
VERTEX
  5
2EDF0
  8
0
 10
536.12740627705284
 20
271.07029884374327
 30
0.0
  0
VERTEX
  5
2EDF1
  8
0
 10
536.14161686087823
 20
270.92477920102277
 30
0.0
  0
VERTEX
  5
2EDF2
  8
0
 10
536.15751970654526
 20
270.78209868627891
 30
0.0
  0
VERTEX
  5
2EDF3
  8
0
 10
536.17518190915791
 20
270.64232667310438
 30
0.0
  0
VERTEX
  5
2EDF4
  8
0
 10
536.18469267810895
 20
270.57355187771827
 30
0.0
  0
VERTEX
  5
2EDF5
  8
0
 10
536.19466665907828
 20
270.50552824938592
 30
0.0
  0
VERTEX
  5
2EDF6
  8
0
 10
536.2160329145629
 20
270.37176364561952
 30
0.0
  0
VERTEX
  5
2EDF7
  8
0
 10
536.23933512539645
 20
270.24108767954658
 30
0.0
  0
VERTEX
  5
2EDF8
  8
0
 10
536.25172794271475
 20
270.17692345367692
 30
0.0
  0
SEQEND
  5
2EDF9
  8
0
  0
POLYLINE
  5
215BA
  8
0
 66
     1
 10
0.0
 20
0.0
 30
0.0
  0
VERTEX
  5
2EDFA
  8
0
 10
536.25172794271475
 20
270.17692345367692
 30
0.0
  0
VERTEX
  5
2EDFB
  8
0
 10
536.28844169094191
 20
270.000125847052
 30
0.0
  0
VERTEX
  5
2EDFC
  8
0
 10
536.37141510067579
 20
269.64866325403
 30
0.0
  0
VERTEX
  5
2EDFD
  8
0
 10
536.46702449584529
 20
269.3004257135899
 30
0.0
  0
VERTEX
  5
2EDFE
  8
0
 10
536.51952936338796
 20
269.12765843688072
 30
0.0
  0
VERTEX
  5
2EDFF
  8
0
 10
536.57514519172105
 20
268.95586736419142
 30
0.0
  0
VERTEX
  5
2EE00
  8
0
 10
536.6956361875184
 20
268.6154375462429
 30
0.0
  0
VERTEX
  5
2EE01
  8
0
 10
536.82834035027781
 20
268.2795802161109
 30
0.0
  0
VERTEX
  5
2EE02
  8
0
 10
536.97308461978275
 20
267.94873336715858
 30
0.0
  0
VERTEX
  5
2EE03
  8
0
 10
537.12968023424833
 20
267.62332845854871
 30
0.0
  0
VERTEX
  5
2EE04
  8
0
 10
537.29792297648635
 20
267.30378985258631
 30
0.0
  0
VERTEX
  5
2EE05
  8
0
 10
537.38634404169409
 20
267.14635094937421
 30
0.0
  0
VERTEX
  5
2EE06
  8
0
 10
537.47759344022666
 20
266.9905342612937
 30
0.0
  0
VERTEX
  5
2EE07
  8
0
 10
537.66845731624505
 20
266.68397020298289
 30
0.0
  0
VERTEX
  5
2EE08
  8
0
 10
537.87026569792897
 20
266.38449746950118
 30
0.0
  0
VERTEX
  5
2EE09
  8
0
 10
538.08275540587522
 20
266.09250660486032
 30
0.0
  0
VERTEX
  5
2EE0A
  8
0
 10
538.30564933110645
 20
265.80837839592732
 30
0.0
  0
VERTEX
  5
2EE0B
  8
0
 10
538.538656796449
 20
265.53248337583591
 30
0.0
  0
VERTEX
  5
2EE0C
  8
0
 10
538.65885865292398
 20
265.39773618025453
 30
0.0
  0
VERTEX
  5
2EE0D
  8
0
 10
538.7814739356063
 20
265.26518134077378
 30
0.0
  0
VERTEX
  5
2EE0E
  8
0
 10
539.03378408943377
 20
265.00682088077241
 30
0.0
  0
VERTEX
  5
2EE0F
  8
0
 10
539.29525821889479
 20
264.7577389251046
 30
0.0
  0
VERTEX
  5
2EE10
  8
0
 10
539.42932566993943
 20
264.63677937985273
 30
0.0
  0
SEQEND
  5
2EE11
  8
0
  0
LINE
  5
215C8
  8
0
 10
553.94075053090876
 20
248.11739837369171
 30
0.0
 11
556.06080472905285
 21
248.11739837369171
 31
0.0
  0
POLYLINE
  5
215C9
  8
0
 66
     1
 10
0.0
 20
0.0
 30
0.0
  0
VERTEX
  5
2EE12
  8
0
 10
553.94075053090876
 20
248.11739837369171
 30
0.0
  0
VERTEX
  5
2EE13
  8
0
 10
553.93441088266638
 20
248.1175232783753
 30
0.0
  0
VERTEX
  5
2EE14
  8
0
 10
553.92122148944338
 20
248.1185241666754
 30
0.0
  0
VERTEX
  5
2EE15
  8
0
 10
553.90735040192544
 20
248.12052993175081
 30
0.0
  0
VERTEX
  5
2EE16
  8
0
 10
553.90015873326877
 20
248.1219108276637
 30
0.0
  0
VERTEX
  5
2EE17
  8
0
 10
553.89279610582048
 20
248.12354430782941
 30
0.0
  0
VERTEX
  5
2EE18
  8
0
 10
553.87755750520625
 20
248.12757057602809
 30
0.0
  0
VERTEX
  5
2EE19
  8
0
 10
553.86163392381968
 20
248.13261155996139
 30
0.0
  0
VERTEX
  5
2EE1A
  8
0
 10
553.84502510501341
 20
248.1386696232621
 30
0.0
  0
VERTEX
  5
2EE1B
  8
0
 10
553.82773121039145
 20
248.14574666898079
 30
0.0
  0
VERTEX
  5
2EE1C
  8
0
 10
553.8097528171545
 20
248.1538441408174
 30
0.0
  0
VERTEX
  5
2EE1D
  8
0
 10
553.80050722662907
 20
248.15827586279011
 30
0.0
  0
VERTEX
  5
2EE1E
  8
0
 10
553.79109091417172
 20
248.1629630261414
 30
0.0
  0
VERTEX
  5
2EE1F
  8
0
 10
553.77174689681283
 20
248.17310386075769
 30
0.0
  0
VERTEX
  5
2EE20
  8
0
 10
553.75172256056362
 20
248.18426673538761
 30
0.0
  0
VERTEX
  5
2EE21
  8
0
 10
553.73102009346269
 20
248.19645130379291
 30
0.0
  0
VERTEX
  5
2EE22
  8
0
 10
553.70964206738779
 20
248.20965679252461
 30
0.0
  0
VERTEX
  5
2EE23
  8
0
 10
553.68759142823023
 20
248.2238820122293
 30
0.0
  0
VERTEX
  5
2EE24
  8
0
 10
553.67631489894427
 20
248.23137653892809
 30
0.0
  0
VERTEX
  5
2EE25
  8
0
 10
553.66487148499368
 20
248.23912537048449
 30
0.0
  0
VERTEX
  5
2EE26
  8
0
 10
553.64148589785873
 20
248.25538488609351
 30
0.0
  0
VERTEX
  5
2EE27
  8
0
 10
553.61743866524932
 20
248.2726582048208
 30
0.0
  0
VERTEX
  5
2EE28
  8
0
 10
553.60516827048991
 20
248.2816742068317
 30
0.0
  0
VERTEX
  5
2EE29
  8
0
 10
553.52812806390625
 20
248.34105639208519
 30
0.0
  0
VERTEX
  5
2EE2A
  8
0
 10
553.35694867614791
 20
248.4866612698988
 30
0.0
  0
VERTEX
  5
2EE2B
  8
0
 10
553.16423635589115
 20
248.6670660262908
 30
0.0
  0
VERTEX
  5
2EE2C
  8
0
 10
552.95189536549367
 20
248.88069221459861
 30
0.0
  0
VERTEX
  5
2EE2D
  8
0
 10
552.72210720570092
 20
249.12568297047159
 30
0.0
  0
VERTEX
  5
2EE2E
  8
0
 10
552.47726733918046
 20
249.39999376496331
 30
0.0
  0
VERTEX
  5
2EE2F
  8
0
 10
552.35008123795399
 20
249.54737327566269
 30
0.0
  0
VERTEX
  5
2EE30
  8
0
 10
552.22022196477667
 20
249.70111815914521
 30
0.0
  0
VERTEX
  5
2EE31
  8
0
 10
551.95407617782575
 20
250.02625632112901
 30
0.0
  0
VERTEX
  5
2EE32
  8
0
 10
551.68212920062172
 20
250.3723543687947
 30
0.0
  0
VERTEX
  5
2EE33
  8
0
 10
551.40786504723724
 20
250.7360591967936
 30
0.0
  0
VERTEX
  5
2EE34
  8
0
 10
551.13468539992994
 20
251.1140050206086
 30
0.0
  0
VERTEX
  5
2EE35
  8
0
 10
550.85801139171713
 20
251.51446285296061
 30
0.0
  0
VERTEX
  5
2EE36
  8
0
 10
550.7178698680392
 20
251.7248693595775
 30
0.0
  0
VERTEX
  5
2EE37
  8
0
 10
550.57715671947028
 20
251.94181001912511
 30
0.0
  0
VERTEX
  5
2EE38
  8
0
 10
550.29602713400902
 20
252.39449144790339
 30
0.0
  0
VERTEX
  5
2EE39
  8
0
 10
550.01881319135236
 20
252.87086198946599
 30
0.0
  0
VERTEX
  5
2EE3A
  8
0
 10
549.883055740342
 20
253.11739837369171
 30
0.0
  0
SEQEND
  5
2EE3B
  8
0
  0
POLYLINE
  5
215CA
  8
0
 66
     1
 10
0.0
 20
0.0
 30
0.0
  0
VERTEX
  5
2EE3C
  8
0
 10
552.49613278269544
 20
253.11739837369171
 30
0.0
  0
VERTEX
  5
2EE3D
  8
0
 10
552.60814222878003
 20
252.86761947839841
 30
0.0
  0
VERTEX
  5
2EE3E
  8
0
 10
552.83825936988205
 20
252.38528252615831
 30
0.0
  0
VERTEX
  5
2EE3F
  8
0
 10
553.07330734381048
 20
251.92751830386439
 30
0.0
  0
VERTEX
  5
2EE40
  8
0
 10
553.19151242929956
 20
251.70841832366111
 30
0.0
  0
VERTEX
  5
2EE41
  8
0
 10
553.30956893270672
 20
251.4961243748057
 30
0.0
  0
VERTEX
  5
2EE42
  8
0
 10
553.54351362856232
 20
251.09272874876569
 30
0.0
  0
VERTEX
  5
2EE43
  8
0
 10
553.77594109580014
 20
250.71221368156151
 30
0.0
  0
VERTEX
  5
2EE44
  8
0
 10
554.01007374374194
 20
250.347131169101
 30
0.0
  0
VERTEX
  5
2EE45
  8
0
 10
554.24282974905066
 20
250.00089224564911
 30
0.0
  0
VERTEX
  5
2EE46
  8
0
 10
554.47112561258007
 20
249.67671119725401
 30
0.0
  0
VERTEX
  5
2EE47
  8
0
 10
554.58267652798816
 20
249.52380552432439
 30
0.0
  0
VERTEX
  5
2EE48
  8
0
 10
554.6920214965985
 20
249.3774756404782
 30
0.0
  0
VERTEX
  5
2EE49
  8
0
 10
554.90273857585112
 20
249.10579580055401
 30
0.0
  0
VERTEX
  5
2EE4A
  8
0
 10
555.10072706183894
 20
248.86396445496391
 30
0.0
  0
VERTEX
  5
2EE4B
  8
0
 10
555.28383644357245
 20
248.65379895306981
 30
0.0
  0
VERTEX
  5
2EE4C
  8
0
 10
555.45011383863698
 20
248.47691911582839
 30
0.0
  0
VERTEX
  5
2EE4D
  8
0
 10
555.59787483768275
 20
248.33464611156521
 30
0.0
  0
VERTEX
  5
2EE4E
  8
0
 10
555.6643954663532
 20
248.2767762378044
 30
0.0
  0
VERTEX
  5
2EE4F
  8
0
 10
555.7258414130132
 20
248.22784538723499
 30
0.0
  0
VERTEX
  5
2EE50
  8
0
 10
555.83315418609993
 20
248.1569127282128
 30
0.0
  0
VERTEX
  5
2EE51
  8
0
 10
555.91937264719706
 20
248.1217494149796
 30
0.0
  0
VERTEX
  5
2EE52
  8
0
 10
555.95456030017738
 20
248.11739837369171
 30
0.0
  0
SEQEND
  5
2EE53
  8
0
  0
POLYLINE
  5
215CB
  8
0
 66
     1
 10
0.0
 20
0.0
 30
0.0
  0
VERTEX
  5
2EE54
  8
0
 10
547.31080472905285
 20
261.03246188315279
 30
0.0
  0
VERTEX
  5
2EE55
  8
0
 10
547.47763534851413
 20
260.86349704496121
 30
0.0
  0
VERTEX
  5
2EE56
  8
0
 10
547.80801400841233
 20
260.51604619686981
 30
0.0
  0
VERTEX
  5
2EE57
  8
0
 10
548.13388181904702
 20
260.15604233777231
 30
0.0
  0
VERTEX
  5
2EE58
  8
0
 10
548.29507439266729
 20
259.97138767104849
 30
0.0
  0
VERTEX
  5
2EE59
  8
0
 10
548.45507981996548
 20
259.78366107991133
 30
0.0
  0
VERTEX
  5
2EE5A
  8
0
 10
548.77145132867872
 20
259.39908407330398
 30
0.0
  0
VERTEX
  5
2EE5B
  8
0
 10
549.08284201709239
 20
259.00249891713162
 30
0.0
  0
VERTEX
  5
2EE5C
  8
0
 10
549.38909998678855
 20
258.59409906823288
 30
0.0
  0
VERTEX
  5
2EE5D
  8
0
 10
549.69007584312385
 20
258.17408374672868
 30
0.0
  0
VERTEX
  5
2EE5E
  8
0
 10
549.98562276810321
 20
257.74265783884402
 30
0.0
  0
VERTEX
  5
2EE5F
  8
0
 10
550.13131522291542
 20
257.52273146674088
 30
0.0
  0
VERTEX
  5
2EE60
  8
0
 10
550.27559659200119
 20
257.3000317969645
 30
0.0
  0
VERTEX
  5
2EE61
  8
0
 10
550.55985586368638
 20
256.84642153697132
 30
0.0
  0
VERTEX
  5
2EE62
  8
0
 10
550.83826191962453
 20
256.3820483329219
 30
0.0
  0
VERTEX
  5
2EE63
  8
0
 10
551.11067895151712
 20
255.90713870910619
 30
0.0
  0
VERTEX
  5
2EE64
  8
0
 10
551.37697407255177
 20
255.42192432955019
 30
0.0
  0
VERTEX
  5
2EE65
  8
0
 10
551.63701738222403
 20
254.92664188500751
 30
0.0
  0
VERTEX
  5
2EE66
  8
0
 10
551.76465484608445
 20
254.67530045035801
 30
0.0
  0
VERTEX
  5
2EE67
  8
0
 10
551.89068202970384
 20
254.4215329774988
 30
0.0
  0
VERTEX
  5
2EE68
  8
0
 10
552.13784427571431
 20
253.90684400245661
 30
0.0
  0
VERTEX
  5
2EE69
  8
0
 10
552.37838355289296
 20
253.38282602853729
 30
0.0
  0
VERTEX
  5
2EE6A
  8
0
 10
552.49613278269544
 20
253.11739837369171
 30
0.0
  0
SEQEND
  5
2EE6B
  8
0
  0
POLYLINE
  5
215CD
  8
0
 66
     1
 10
0.0
 20
0.0
 30
0.0
  0
VERTEX
  5
2EE6C
  8
0
 10
549.883055740342
 20
253.11739837369171
 30
0.0
  0
VERTEX
  5
2EE6D
  8
0
 10
549.79581181213177
 20
253.27770039282041
 30
0.0
  0
VERTEX
  5
2EE6E
  8
0
 10
549.61906037483118
 20
253.59455762546261
 30
0.0
  0
VERTEX
  5
2EE6F
  8
0
 10
549.43933058500875
 20
253.9063481410212
 30
0.0
  0
VERTEX
  5
2EE70
  8
0
 10
549.34836390415762
 20
254.06031708363659
 30
0.0
  0
VERTEX
  5
2EE71
  8
0
 10
549.25667084981774
 20
254.21298796403971
 30
0.0
  0
VERTEX
  5
2EE72
  8
0
 10
549.07113036554142
 20
254.5143945063119
 30
0.0
  0
VERTEX
  5
2EE73
  8
0
 10
548.88275910434459
 20
254.8104865891282
 30
0.0
  0
VERTEX
  5
2EE74
  8
0
 10
548.69160780081324
 20
255.10118446513661
 30
0.0
  0
VERTEX
  5
2EE75
  8
0
 10
548.4977279382897
 20
255.38640983982259
 30
0.0
  0
VERTEX
  5
2EE76
  8
0
 10
548.30117173500832
 20
255.66608589259801
 30
0.0
  0
VERTEX
  5
2EE77
  8
0
 10
548.20190652127087
 20
255.8038193249613
 30
0.0
  0
VERTEX
  5
2EE78
  8
0
 10
548.10199213002898
 20
255.94013729748809
 30
0.0
  0
VERTEX
  5
2EE79
  8
0
 10
547.90024276898089
 20
256.20849024342169
 30
0.0
  0
VERTEX
  5
2EE7A
  8
0
 10
547.69597798961286
 20
256.47107245411007
 30
0.0
  0
VERTEX
  5
2EE7B
  8
0
 10
547.48925280715855
 20
256.72781320751528
 30
0.0
  0
VERTEX
  5
2EE7C
  8
0
 10
547.28012289951994
 20
256.9786433548943
 30
0.0
  0
VERTEX
  5
2EE7D
  8
0
 10
547.06864459226995
 20
257.22349533942543
 30
0.0
  0
VERTEX
  5
2EE7E
  8
0
 10
546.96204256390013
 20
257.3436588488949
 30
0.0
  0
VERTEX
  5
2EE7F
  8
0
 10
546.85487484348289
 20
257.46230321440453
 30
0.0
  0
VERTEX
  5
2EE80
  8
0
 10
546.63887122839435
 20
257.69500266100289
 30
0.0
  0
VERTEX
  5
2EE81
  8
0
 10
546.42069192389329
 20
257.92153100559432
 30
0.0
  0
VERTEX
  5
2EE82
  8
0
 10
546.31080472905285
 20
258.03246188315279
 30
0.0
  0
SEQEND
  5
2EE83
  8
0
  0
LINE
  5
215CE
  8
0
 10
546.31080472905285
 20
258.03246188315279
 30
0.0
 11
541.77755504421759
 21
262.56571156798782
 31
0.0
  0
LINE
  5
215CF
  8
0
 10
545.77755504421759
 20
262.56571156798782
 30
0.0
 11
547.31080472905285
 21
261.03246188315279
 31
0.0
  0
POLYLINE
  5
215D1
  8
0
 66
     1
 10
0.0
 20
0.0
 30
0.0
  0
VERTEX
  5
2EE84
  8
0
 10
541.77755504421759
 20
262.56571156798782
 30
0.0
  0
VERTEX
  5
2EE85
  8
0
 10
541.66426029669617
 20
262.67733253482493
 30
0.0
  0
VERTEX
  5
2EE86
  8
0
 10
541.43021505785555
 20
262.89798920906929
 30
0.0
  0
VERTEX
  5
2EE87
  8
0
 10
541.18636009379327
 20
263.11507600737241
 30
0.0
  0
VERTEX
  5
2EE88
  8
0
 10
541.06080472905285
 20
263.2222351894552
 30
0.0
  0
SEQEND
  5
2EE89
  8
0
  0
POLYLINE
  5
215D2
  8
0
 66
     1
 10
0.0
 20
0.0
 30
0.0
  0
VERTEX
  5
2EE8A
  8
0
 10
541.06080472905285
 20
263.2222351894552
 30
0.0
  0
VERTEX
  5
2EE8B
  8
0
 10
540.77983538073704
 20
263.46024400768692
 30
0.0
  0
VERTEX
  5
2EE8C
  8
0
 10
540.22676206483709
 20
263.93647975972181
 30
0.0
  0
VERTEX
  5
2EE8D
  8
0
 10
539.68995630175311
 20
264.4064572144834
 30
0.0
  0
VERTEX
  5
2EE8E
  8
0
 10
539.42932566993954
 20
264.63677937985273
 30
0.0
  0
SEQEND
  5
2EE8F
  8
0
  0
POLYLINE
  5
215D3
  8
0
 66
     1
 10
0.0
 20
0.0
 30
0.0
  0
VERTEX
  5
2EE90
  8
0
 10
543.02500375813361
 20
264.63677937985273
 30
0.0
  0
VERTEX
  5
2EE91
  8
0
 10
543.1137450819781
 20
264.58517060109079
 30
0.0
  0
VERTEX
  5
2EE92
  8
0
 10
543.28926588266017
 20
264.48084212581028
 30
0.0
  0
VERTEX
  5
2EE93
  8
0
 10
543.46214000425448
 20
264.37505085046359
 30
0.0
  0
VERTEX
  5
2EE94
  8
0
 10
543.54757311045967
 20
264.32161364414418
 30
0.0
  0
VERTEX
  5
2EE95
  8
0
 10
543.63233087763535
 20
264.26781915372982
 30
0.0
  0
VERTEX
  5
2EE96
  8
0
 10
543.79980250128165
 20
264.15916971898878
 30
0.0
  0
VERTEX
  5
2EE97
  8
0
 10
543.96451944889134
 20
264.04912552952192
 30
0.0
  0
VERTEX
  5
2EE98
  8
0
 10
544.12644687687634
 20
263.93770986365598
 30
0.0
  0
VERTEX
  5
2EE99
  8
0
 10
544.28555053173227
 20
263.8249462898284
 30
0.0
  0
VERTEX
  5
2EE9A
  8
0
 10
544.44179675728583
 20
263.71085866161229
 30
0.0
  0
VERTEX
  5
2EE9B
  8
0
 10
544.51883798160679
 20
263.65332585807482
 30
0.0
  0
VERTEX
  5
2EE9C
  8
0
 10
544.59515250181221
 20
263.59547111266511
 30
0.0
  0
VERTEX
  5
2EE9D
  8
0
 10
544.74558532502817
 20
263.47880805162367
 30
0.0
  0
VERTEX
  5
2EE9E
  8
0
 10
544.89306340495466
 20
263.36089415694192
 30
0.0
  0
VERTEX
  5
2EE9F
  8
0
 10
545.03755554464658
 20
263.2417543716719
 30
0.0
  0
VERTEX
  5
2EEA0
  8
0
 10
545.17903117879382
 20
263.12141389818322
 30
0.0
  0
VERTEX
  5
2EEA1
  8
0
 10
545.31746038018582
 20
262.99989819283752
 30
0.0
  0
VERTEX
  5
2EEA2
  8
0
 10
545.38552339238663
 20
262.9387076514559
 30
0.0
  0
VERTEX
  5
2EEA3
  8
0
 10
545.45281386604302
 20
262.87723296059721
 30
0.0
  0
VERTEX
  5
2EEA4
  8
0
 10
545.58506300421072
 20
262.75344414959272
 30
0.0
  0
VERTEX
  5
2EEA5
  8
0
 10
545.71417981921581
 20
262.62855794563262
 30
0.0
  0
VERTEX
  5
2EEA6
  8
0
 10
545.77755504421759
 20
262.56571156798782
 30
0.0
  0
SEQEND
  5
2EEA7
  8
0
  0
LINE
  5
215D4
  8
0
 10
542.06080472905285
 20
265.19345994884497
 30
0.0
 11
543.02500375813361
 21
264.63677937985273
 31
0.0
  0
POLYLINE
  5
215D6
  8
0
 66
     1
 10
0.0
 20
0.0
 30
0.0
  0
VERTEX
  5
2EEA8
  8
0
 10
539.42932566993954
 20
264.63677937985273
 30
0.0
  0
VERTEX
  5
2EEA9
  8
0
 10
539.29525821889479
 20
264.7577389251046
 30
0.0
  0
VERTEX
  5
2EEAA
  8
0
 10
539.03378408943377
 20
265.00682088077241
 30
0.0
  0
VERTEX
  5
2EEAB
  8
0
 10
538.7814739356063
 20
265.26518134077378
 30
0.0
  0
VERTEX
  5
2EEAC
  8
0
 10
538.65885865292398
 20
265.39773618025453
 30
0.0
  0
VERTEX
  5
2EEAD
  8
0
 10
538.538656796449
 20
265.53248337583591
 30
0.0
  0
VERTEX
  5
2EEAE
  8
0
 10
538.30564933110645
 20
265.80837839592732
 30
0.0
  0
VERTEX
  5
2EEAF
  8
0
 10
538.08275540587522
 20
266.09250660486032
 30
0.0
  0
VERTEX
  5
2EEB0
  8
0
 10
537.87026569792897
 20
266.38449746950118
 30
0.0
  0
VERTEX
  5
2EEB1
  8
0
 10
537.66845731624505
 20
266.68397020298289
 30
0.0
  0
VERTEX
  5
2EEB2
  8
0
 10
537.47759344022666
 20
266.9905342612937
 30
0.0
  0
VERTEX
  5
2EEB3
  8
0
 10
537.38634404169409
 20
267.14635094937421
 30
0.0
  0
VERTEX
  5
2EEB4
  8
0
 10
537.29792297648635
 20
267.30378985258631
 30
0.0
  0
VERTEX
  5
2EEB5
  8
0
 10
537.12968023424833
 20
267.62332845854871
 30
0.0
  0
VERTEX
  5
2EEB6
  8
0
 10
536.97308461978275
 20
267.94873336715858
 30
0.0
  0
VERTEX
  5
2EEB7
  8
0
 10
536.82834035027781
 20
268.2795802161109
 30
0.0
  0
VERTEX
  5
2EEB8
  8
0
 10
536.6956361875184
 20
268.6154375462429
 30
0.0
  0
VERTEX
  5
2EEB9
  8
0
 10
536.57514519172105
 20
268.95586736419142
 30
0.0
  0
VERTEX
  5
2EEBA
  8
0
 10
536.51952936338796
 20
269.12765843688072
 30
0.0
  0
VERTEX
  5
2EEBB
  8
0
 10
536.46702449584529
 20
269.3004257135899
 30
0.0
  0
VERTEX
  5
2EEBC
  8
0
 10
536.37141510067579
 20
269.64866325403
 30
0.0
  0
VERTEX
  5
2EEBD
  8
0
 10
536.28844169094191
 20
270.000125847052
 30
0.0
  0
VERTEX
  5
2EEBE
  8
0
 10
536.25172794271475
 20
270.17692345367692
 30
0.0
  0
SEQEND
  5
2EEBF
  8
0
  0
POLYLINE
  5
215D7
  8
0
 66
     1
 10
0.0
 20
0.0
 30
0.0
  0
VERTEX
  5
2EEC0
  8
0
 10
538.30077976773487
 20
270.17692345367692
 30
0.0
  0
VERTEX
  5
2EEC1
  8
0
 10
538.3460053472752
 20
270.00462031254392
 30
0.0
  0
VERTEX
  5
2EEC2
  8
0
 10
538.44790809088965
 20
269.66324808466652
 30
0.0
  0
VERTEX
  5
2EEC3
  8
0
 10
538.56490806107729
 20
269.32675116923019
 30
0.0
  0
VERTEX
  5
2EEC4
  8
0
 10
538.6289981559546
 20
269.160539902381
 30
0.0
  0
VERTEX
  5
2EEC5
  8
0
 10
538.69677323379551
 20
268.99579687730051
 30
0.0
  0
VERTEX
  5
2EEC6
  8
0
 10
538.84324210563909
 20
268.67104152830137
 30
0.0
  0
VERTEX
  5
2EEC7
  8
0
 10
539.00402421243302
 20
268.35312914845957
 30
0.0
  0
VERTEX
  5
2EEC8
  8
0
 10
539.17880070525405
 20
268.04269019362351
 30
0.0
  0
VERTEX
  5
2EEC9
  8
0
 10
539.36722498274435
 20
267.74034029900758
 30
0.0
  0
VERTEX
  5
2EECA
  8
0
 10
539.56892337846068
 20
267.44667905831011
 30
0.0
  0
VERTEX
  5
2EECB
  8
0
 10
539.67462638056452
 20
267.30328937655031
 30
0.0
  0
VERTEX
  5
2EECC
  8
0
 10
539.78349590189703
 20
267.16228883465828
 30
0.0
  0
VERTEX
  5
2EECD
  8
0
 10
540.01051703171004
 20
266.887733605714
 30
0.0
  0
VERTEX
  5
2EECE
  8
0
 10
540.24953655957609
 20
266.62355784524152
 30
0.0
  0
VERTEX
  5
2EECF
  8
0
 10
540.50008048300469
 20
266.37028544335948
 30
0.0
  0
VERTEX
  5
2EED0
  8
0
 10
540.7616519453378
 20
266.12841866760209
 30
0.0
  0
VERTEX
  5
2EED1
  8
0
 10
541.03373222107371
 20
265.89843716687301
 30
0.0
  0
VERTEX
  5
2EED2
  8
0
 10
541.17354533478363
 20
265.7880468651083
 30
0.0
  0
VERTEX
  5
2EED3
  8
0
 10
541.31578174455603
 20
265.6807970202417
 30
0.0
  0
VERTEX
  5
2EED4
  8
0
 10
541.60724117999405
 20
265.4759298324916
 30
0.0
  0
VERTEX
  5
2EED5
  8
0
 10
541.90753253068794
 20
265.28424187820019
 30
0.0
  0
VERTEX
  5
2EED6
  8
0
 10
542.06080472905285
 20
265.19345994884497
 30
0.0
  0
SEQEND
  5
2EED7
  8
0
  0
POLYLINE
  5
215D8
  8
0
 66
     1
 10
0.0
 20
0.0
 30
0.0
  0
VERTEX
  5
2EED8
  8
0
 10
538.06080472905285
 20
272.92188280062868
 30
0.0
  0
VERTEX
  5
2EED9
  8
0
 10
538.06091598281307
 20
272.83503315478902
 30
0.0
  0
VERTEX
  5
2EEDA
  8
0
 10
538.06184435619321
 20
272.66278708274598
 30
0.0
  0
VERTEX
  5
2EEDB
  8
0
 10
538.06379945304104
 20
272.49257414467138
 30
0.0
  0
VERTEX
  5
2EEDC
  8
0
 10
538.06519419987103
 20
272.408265352623
 30
0.0
  0
VERTEX
  5
2EEDD
  8
0
 10
538.06688424142612
 20
272.32450679341127
 30
0.0
  0
VERTEX
  5
2EEDE
  8
0
 10
538.07120154367885
 20
272.15869448402191
 30
0.0
  0
VERTEX
  5
2EEDF
  8
0
 10
538.07685352005785
 20
271.99524309176559
 30
0.0
  0
VERTEX
  5
2EEE0
  8
0
 10
538.08394124129495
 20
271.8342528558332
 30
0.0
  0
VERTEX
  5
2EEE1
  8
0
 10
538.09256427608625
 20
271.675818113189
 30
0.0
  0
VERTEX
  5
2EEE2
  8
0
 10
538.10281992449825
 20
271.52003246519052
 30
0.0
  0
VERTEX
  5
2EEE3
  8
0
 10
538.10858962160557
 20
271.4431617191367
 30
0.0
  0
VERTEX
  5
2EEE4
  8
0
 10
538.11480263484748
 20
271.36698730336872
 30
0.0
  0
VERTEX
  5
2EEE5
  8
0
 10
538.12860341177793
 20
271.21677104059557
 30
0.0
  0
VERTEX
  5
2EEE6
  8
0
 10
538.14430924532689
 20
271.06946836663519
 30
0.0
  0
VERTEX
  5
2EEE7
  8
0
 10
538.16200257359208
 20
270.9251595091327
 30
0.0
  0
VERTEX
  5
2EEE8
  8
0
 10
538.18176079265311
 20
270.7839194992585
 30
0.0
  0
VERTEX
  5
2EEE9
  8
0
 10
538.20365582926763
 20
270.64581744232328
 30
0.0
  0
VERTEX
  5
2EEEA
  8
0
 10
538.21542554839425
 20
270.57796294320269
 30
0.0
  0
VERTEX
  5
2EEEB
  8
0
 10
538.22776756592714
 20
270.51084301449009
 30
0.0
  0
VERTEX
  5
2EEEC
  8
0
 10
538.25461796384377
 20
270.37689403005521
 30
0.0
  0
VERTEX
  5
2EEED
  8
0
 10
538.28457911318083
 20
270.24336846501859
 30
0.0
  0
VERTEX
  5
2EEEE
  8
0
 10
538.30077976773487
 20
270.17692345367692
 30
0.0
  0
SEQEND
  5
2EEEF
  8
0
  0
POLYLINE
  5
215DA
  8
0
 66
     1
 10
0.0
 20
0.0
 30
0.0
  0
VERTEX
  5
2EEF0
  8
0
 10
536.25172794271475
 20
270.17692345367692
 30
0.0
  0
VERTEX
  5
2EEF1
  8
0
 10
536.23933512539645
 20
270.24108767954658
 30
0.0
  0
VERTEX
  5
2EEF2
  8
0
 10
536.2160329145629
 20
270.37176364561952
 30
0.0
  0
VERTEX
  5
2EEF3
  8
0
 10
536.19466665907828
 20
270.50552824938592
 30
0.0
  0
VERTEX
  5
2EEF4
  8
0
 10
536.18469267810895
 20
270.57355187771827
 30
0.0
  0
VERTEX
  5
2EEF5
  8
0
 10
536.17518190915791
 20
270.64232667310438
 30
0.0
  0
VERTEX
  5
2EEF6
  8
0
 10
536.15751970654526
 20
270.78209868627891
 30
0.0
  0
VERTEX
  5
2EEF7
  8
0
 10
536.14161686087823
 20
270.92477920102277
 30
0.0
  0
VERTEX
  5
2EEF8
  8
0
 10
536.12740627705284
 20
271.07029884374327
 30
0.0
  0
VERTEX
  5
2EEF9
  8
0
 10
536.11481732311984
 20
271.21858454136873
 30
0.0
  0
VERTEX
  5
2EEFA
  8
0
 10
536.10377622921203
 20
271.36956012105111
 30
0.0
  0
VERTEX
  5
2EEFB
  8
0
 10
536.09881232202611
 20
271.44603211557211
 30
0.0
  0
VERTEX
  5
2EEFC
  8
0
 10
536.0942065089306
 20
271.52314692288201
 30
0.0
  0
VERTEX
  5
2EEFD
  8
0
 10
536.08602938314448
 20
271.67926468459518
 30
0.0
  0
VERTEX
  5
2EEFE
  8
0
 10
536.07916421048594
 20
271.83783281558323
 30
0.0
  0
VERTEX
  5
2EEFF
  8
0
 10
536.07352917641924
 20
271.99876430575932
 30
0.0
  0
VERTEX
  5
2EF00
  8
0
 10
536.06904148923991
 20
272.16196757793841
 30
0.0
  0
VERTEX
  5
2EF01
  8
0
 10
536.06561768914628
 20
272.32734759898449
 30
0.0
  0
VERTEX
  5
2EF02
  8
0
 10
536.06427857172798
 20
272.41082336050022
 30
0.0
  0
VERTEX
  5
2EF03
  8
0
 10
536.06317401011779
 20
272.49480633984689
 30
0.0
  0
VERTEX
  5
2EF04
  8
0
 10
536.06162675106361
 20
272.6642432460348
 30
0.0
  0
VERTEX
  5
2EF05
  8
0
 10
536.06089265098421
 20
272.83555572137448
 30
0.0
  0
VERTEX
  5
2EF06
  8
0
 10
536.06080472905285
 20
272.92188280062868
 30
0.0
  0
SEQEND
  5
2EF07
  8
0
  0
LINE
  5
215DF
  8
0
 10
536.06080472905285
 20
272.92188280062868
 30
0.0
 11
536.06080472905285
 21
358.11739837369169
 31
0.0
  0
LINE
  5
215E6
  8
0
 10
585.56690520914185
 20
349.11739837369169
 30
0.0
 11
571.55470424896419
 21
349.11739837369169
 31
0.0
  0
POLYLINE
  5
215EC
  8
0
 66
     1
 10
0.0
 20
0.0
 30
0.0
  0
VERTEX
  5
2EF08
  8
0
 10
585.56690520914185
 20
349.11739837369169
 30
0.0
  0
VERTEX
  5
2EF09
  8
0
 10
585.67718206751624
 20
349.11913608871242
 30
0.0
  0
VERTEX
  5
2EF0A
  8
0
 10
585.89729788213469
 20
349.1330274574957
 30
0.0
  0
VERTEX
  5
2EF0B
  8
0
 10
586.11610172924179
 20
349.16075503335202
 30
0.0
  0
VERTEX
  5
2EF0C
  8
0
 10
586.22473984954206
 20
349.17977512704419
 30
0.0
  0
VERTEX
  5
2EF0D
  8
0
 10
586.33272475319336
 20
349.2022087119085
 30
0.0
  0
VERTEX
  5
2EF0E
  8
0
 10
586.54630675825024
 20
349.25722388333998
 30
0.0
  0
VERTEX
  5
2EF0F
  8
0
 10
586.75599962435831
 20
349.32558208603223
 30
0.0
  0
VERTEX
  5
2EF10
  8
0
 10
586.96097067497794
 20
349.4070118740683
 30
0.0
  0
VERTEX
  5
2EF11
  8
0
 10
587.16040598358745
 20
349.50118989513248
 30
0.0
  0
VERTEX
  5
2EF12
  8
0
 10
587.35351360573134
 20
349.60774217451581
 30
0.0
  0
VERTEX
  5
2EF13
  8
0
 10
587.44745383835561
 20
349.66552831334587
 30
0.0
  0
VERTEX
  5
2EF14
  8
0
 10
587.53952672377955
 20
349.72624560014452
 30
0.0
  0
VERTEX
  5
2EF15
  8
0
 10
587.71770669191051
 20
349.85622960273213
 30
0.0
  0
VERTEX
  5
2EF16
  8
0
 10
587.88734596922313
 20
349.99717802437863
 30
0.0
  0
VERTEX
  5
2EF17
  8
0
 10
588.04777092933716
 20
350.14853116819808
 30
0.0
  0
VERTEX
  5
2EF18
  8
0
 10
588.19834453531826
 20
350.30968802084129
 30
0.0
  0
VERTEX
  5
2EF19
  8
0
 10
588.33846886930849
 20
350.48000863907509
 30
0.0
  0
VERTEX
  5
2EF1A
  8
0
 10
588.40443699423747
 20
350.56839535549619
 30
0.0
  0
VERTEX
  5
2EF1B
  8
0
 10
588.46758750682056
 20
350.65881669095961
 30
0.0
  0
VERTEX
  5
2EF1C
  8
0
 10
588.53761845634403
 20
350.76675988849269
 30
0.0
  0
VERTEX
  5
2EF1D
  8
0
 10
588.55689386096788
 20
350.79806666618151
 30
0.0
  0
VERTEX
  5
2EF1E
  8
0
 10
588.57583935254979
 20
350.82957418752721
 30
0.0
  0
VERTEX
  5
2EF1F
  8
0
 10
588.58518772626212
 20
350.84540214151548
 30
0.0
  0
VERTEX
  5
2EF20
  8
0
 10
588.59445284065885
 20
350.8612789760154
 30
0.0
  0
VERTEX
  5
2EF21
  8
0
 10
588.61273227149718
 20
350.89317753336309
 30
0.0
  0
VERTEX
  5
2EF22
  8
0
 10
588.63067562812637
 20
350.92526633990838
 30
0.0
  0
VERTEX
  5
2EF23
  8
0
 10
588.64828093069048
 20
350.95754185499749
 30
0.0
  0
VERTEX
  5
2EF24
  8
0
 10
588.66554623663365
 20
350.99000051737488
 30
0.0
  0
VERTEX
  5
2EF25
  8
0
 10
588.68246964091566
 20
351.0226387455769
 30
0.0
  0
VERTEX
  5
2EF26
  8
0
 10
588.69080254491848
 20
351.0390240722254
 30
0.0
  0
VERTEX
  5
2EF27
  8
0
 10
588.69904927622122
 20
351.0554529383262
 30
0.0
  0
VERTEX
  5
2EF28
  8
0
 10
588.71528331316586
 20
351.08843947493011
 30
0.0
  0
VERTEX
  5
2EF29
  8
0
 10
588.73116996049839
 20
351.12159471567969
 30
0.0
  0
VERTEX
  5
2EF2A
  8
0
 10
588.73898246376996
 20
351.13823445759863
 30
0.0
  0
SEQEND
  5
2EF2B
  8
0
  0
LINE
  5
215ED
  8
0
 10
588.73898246376996
 20
351.13823445759863
 30
0.0
 11
590.01055219735883
 21
353.86512455119009
 31
0.0
  0
POLYLINE
  5
215EE
  8
0
 66
     1
 10
0.0
 20
0.0
 30
0.0
  0
VERTEX
  5
2EF2C
  8
0
 10
590.01055219735883
 20
353.86512455119009
 30
0.0
  0
VERTEX
  5
2EF2D
  8
0
 10
590.12547732230905
 20
354.11158227698621
 30
0.0
  0
VERTEX
  5
2EF2E
  8
0
 10
590.34687760489169
 20
354.58637671518773
 30
0.0
  0
VERTEX
  5
2EF2F
  8
0
 10
590.55660650378684
 20
355.0361417902995
 30
0.0
  0
VERTEX
  5
2EF30
  8
0
 10
590.65694843970925
 20
355.25132576630222
 30
0.0
  0
SEQEND
  5
2EF31
  8
0
  0
POLYLINE
  5
215EF
  8
0
 66
     1
 10
0.0
 20
0.0
 30
0.0
  0
VERTEX
  5
2EF32
  8
0
 10
590.65694843970925
 20
355.25132576630222
 30
0.0
  0
VERTEX
  5
2EF33
  8
0
 10
590.6637347542495
 20
355.26568022148331
 30
0.0
  0
VERTEX
  5
2EF34
  8
0
 10
590.67772391649419
 20
355.29409568256409
 30
0.0
  0
VERTEX
  5
2EF35
  8
0
 10
590.69223990679632
 20
355.32207790778011
 30
0.0
  0
VERTEX
  5
2EF36
  8
0
 10
590.69968398972117
 20
355.33589144752392
 30
0.0
  0
VERTEX
  5
2EF37
  8
0
 10
590.70724564919453
 20
355.34957894410309
 30
0.0
  0
VERTEX
  5
2EF38
  8
0
 10
590.72270132144729
 20
355.37655418369559
 30
0.0
  0
VERTEX
  5
2EF39
  8
0
 10
590.73856488626905
 20
355.40296285733069
 30
0.0
  0
VERTEX
  5
2EF3A
  8
0
 10
590.75479262126464
 20
355.42876837943368
 30
0.0
  0
VERTEX
  5
2EF3B
  8
0
 10
590.77133964166637
 20
355.45393857196268
 30
0.0
  0
VERTEX
  5
2EF3C
  8
0
 10
590.78816067670141
 20
355.47844616817662
 30
0.0
  0
VERTEX
  5
2EF3D
  8
0
 10
590.79666042452345
 20
355.49044515350312
 30
0.0
  0
VERTEX
  5
2EF3E
  8
0
 10
590.80521220423134
 20
355.5022710245276
 30
0.0
  0
VERTEX
  5
2EF3F
  8
0
 10
590.8224486122009
 20
355.52539392283421
 30
0.0
  0
VERTEX
  5
2EF40
  8
0
 10
590.83982278070107
 20
355.5477973377819
 30
0.0
  0
VERTEX
  5
2EF41
  8
0
 10
590.85728686691732
 20
355.56946627229439
 30
0.0
  0
VERTEX
  5
2EF42
  8
0
 10
590.87479267576578
 20
355.59038840982612
 30
0.0
  0
VERTEX
  5
2EF43
  8
0
 10
590.89229199361398
 20
355.61055417080303
 30
0.0
  0
VERTEX
  5
2EF44
  8
0
 10
590.90102422034352
 20
355.62035116134302
 30
0.0
  0
VERTEX
  5
2EF45
  8
0
 10
590.90973688500094
 20
355.62995669317303
 30
0.0
  0
VERTEX
  5
2EF46
  8
0
 10
590.92707995362593
 20
355.64859175422322
 30
0.0
  0
VERTEX
  5
2EF47
  8
0
 10
590.94427456988421
 20
355.6664576482853
 30
0.0
  0
VERTEX
  5
2EF48
  8
0
 10
590.9528018953481
 20
355.67510227549519
 30
0.0
  0
VERTEX
  5
2EF49
  8
0
 10
590.96127506800735
 20
355.68355503267691
 30
0.0
  0
VERTEX
  5
2EF4A
  8
0
 10
590.97805658652385
 20
355.69990562030398
 30
0.0
  0
VERTEX
  5
2EF4B
  8
0
 10
590.99478008217034
 20
355.7157025507131
 30
0.0
  0
VERTEX
  5
2EF4C
  8
0
 10
591.00313556235506
 20
355.72341585560298
 30
0.0
  0
VERTEX
  5
2EF4D
  8
0
 10
591.01148585413728
 20
355.73100836796579
 30
0.0
  0
VERTEX
  5
2EF4E
  8
0
 10
591.02816799653408
 20
355.74583867113051
 30
0.0
  0
VERTEX
  5
2EF4F
  8
0
 10
591.04482098286405
 20
355.76020830893231
 30
0.0
  0
VERTEX
  5
2EF50
  8
0
 10
591.0614396079601
 20
355.77413141144461
 30
0.0
  0
VERTEX
  5
2EF51
  8
0
 10
591.07801893706335
 20
355.7876214239223
 30
0.0
  0
VERTEX
  5
2EF52
  8
0
 10
591.09455426160184
 20
355.80069114213438
 30
0.0
  0
VERTEX
  5
2EF53
  8
0
 10
591.10280400310967
 20
355.80707222088591
 30
0.0
  0
VERTEX
  5
2EF54
  8
0
 10
591.11104106120263
 20
355.8133527486134
 30
0.0
  0
VERTEX
  5
2EF55
  8
0
 10
591.12747497145938
 20
355.82561784929112
 30
0.0
  0
VERTEX
  5
2EF56
  8
0
 10
591.1438517569718
 20
355.83749751009333
 30
0.0
  0
VERTEX
  5
2EF57
  8
0
 10
591.20066180894196
 20
355.87618933829799
 30
0.0
  0
VERTEX
  5
2EF58
  8
0
 10
591.29582898743536
 20
355.9329829703675
 30
0.0
  0
VERTEX
  5
2EF59
  8
0
 10
591.38755850880489
 20
355.9792154138122
 30
0.0
  0
VERTEX
  5
2EF5A
  8
0
 10
591.47519439974712
 20
356.0163571092744
 30
0.0
  0
VERTEX
  5
2EF5B
  8
0
 10
591.51728409573525
 20
356.0319206293089
 30
0.0
  0
VERTEX
  5
2EF5C
  8
0
 10
591.55813016302204
 20
356.04567687622148
 30
0.0
  0
VERTEX
  5
2EF5D
  8
0
 10
591.63584421179496
 20
356.06831862970472
 30
0.0
  0
VERTEX
  5
2EF5E
  8
0
 10
591.70788212579225
 20
356.08532564594498
 30
0.0
  0
VERTEX
  5
2EF5F
  8
0
 10
591.7738522030279
 20
356.09765701892411
 30
0.0
  0
VERTEX
  5
2EF60
  8
0
 10
591.83341537292642
 20
356.10619416977897
 30
0.0
  0
VERTEX
  5
2EF61
  8
0
 10
591.88629538243731
 20
356.11174443635542
 30
0.0
  0
VERTEX
  5
2EF62
  8
0
 10
591.91016277428605
 20
356.11363080933552
 30
0.0
  0
VERTEX
  5
2EF63
  8
0
 10
591.93228805619378
 20
356.11503767550488
 30
0.0
  0
VERTEX
  5
2EF64
  8
0
 10
591.97125676622545
 20
356.11671861120521
 30
0.0
  0
VERTEX
  5
2EF65
  8
0
 10
592.00313361893302
 20
356.11733961737809
 30
0.0
  0
VERTEX
  5
2EF66
  8
0
 10
592.01641012026425
 20
356.11739837369169
 30
0.0
  0
SEQEND
  5
2EF67
  8
0
  0
POLYLINE
  5
215F0
  8
0
 66
     1
 10
0.0
 20
0.0
 30
0.0
  0
VERTEX
  5
2EF68
  8
0
 10
568.38262699433585
 20
351.13823445759863
 30
0.0
  0
VERTEX
  5
2EF69
  8
0
 10
568.39043949760753
 20
351.12159471567969
 30
0.0
  0
VERTEX
  5
2EF6A
  8
0
 10
568.40632614494018
 20
351.08843947493011
 30
0.0
  0
VERTEX
  5
2EF6B
  8
0
 10
568.42256018188482
 20
351.0554529383262
 30
0.0
  0
VERTEX
  5
2EF6C
  8
0
 10
568.43080691318755
 20
351.0390240722254
 30
0.0
  0
VERTEX
  5
2EF6D
  8
0
 10
568.43913981719015
 20
351.0226387455769
 30
0.0
  0
VERTEX
  5
2EF6E
  8
0
 10
568.45606322147216
 20
350.99000051737488
 30
0.0
  0
VERTEX
  5
2EF6F
  8
0
 10
568.47332852741545
 20
350.95754185499749
 30
0.0
  0
VERTEX
  5
2EF70
  8
0
 10
568.49093382997955
 20
350.92526633990838
 30
0.0
  0
VERTEX
  5
2EF71
  8
0
 10
568.50887718660874
 20
350.89317753336309
 30
0.0
  0
VERTEX
  5
2EF72
  8
0
 10
568.52715661744708
 20
350.8612789760154
 30
0.0
  0
VERTEX
  5
2EF73
  8
0
 10
568.53642173184369
 20
350.84540214151548
 30
0.0
  0
VERTEX
  5
2EF74
  8
0
 10
568.54577010555613
 20
350.82957418752721
 30
0.0
  0
VERTEX
  5
2EF75
  8
0
 10
568.56471559713805
 20
350.79806666618151
 30
0.0
  0
VERTEX
  5
2EF76
  8
0
 10
568.58399100176189
 20
350.76675988849269
 30
0.0
  0
VERTEX
  5
2EF77
  8
0
 10
568.65402195128536
 20
350.65881669095961
 30
0.0
  0
VERTEX
  5
2EF78
  8
0
 10
568.71717246386845
 20
350.56839535549619
 30
0.0
  0
VERTEX
  5
2EF79
  8
0
 10
568.78314058879755
 20
350.48000863907509
 30
0.0
  0
VERTEX
  5
2EF7A
  8
0
 10
568.92326492278778
 20
350.30968802084129
 30
0.0
  0
VERTEX
  5
2EF7B
  8
0
 10
569.07383852876865
 20
350.14853116819808
 30
0.0
  0
VERTEX
  5
2EF7C
  8
0
 10
569.23426348888268
 20
349.99717802437863
 30
0.0
  0
VERTEX
  5
2EF7D
  8
0
 10
569.40390276619564
 20
349.85622960273213
 30
0.0
  0
VERTEX
  5
2EF7E
  8
0
 10
569.58208273432626
 20
349.72624560014452
 30
0.0
  0
VERTEX
  5
2EF7F
  8
0
 10
569.67415561975031
 20
349.66552831334587
 30
0.0
  0
VERTEX
  5
2EF80
  8
0
 10
569.76809585237459
 20
349.60774217451581
 30
0.0
  0
VERTEX
  5
2EF81
  8
0
 10
569.96120347451836
 20
349.50118989513248
 30
0.0
  0
VERTEX
  5
2EF82
  8
0
 10
570.16063878312787
 20
349.4070118740683
 30
0.0
  0
VERTEX
  5
2EF83
  8
0
 10
570.36560983374761
 20
349.32558208603223
 30
0.0
  0
VERTEX
  5
2EF84
  8
0
 10
570.57530269985557
 20
349.25722388333998
 30
0.0
  0
VERTEX
  5
2EF85
  8
0
 10
570.78888470491245
 20
349.2022087119085
 30
0.0
  0
VERTEX
  5
2EF86
  8
0
 10
570.89686960856375
 20
349.17977512704419
 30
0.0
  0
VERTEX
  5
2EF87
  8
0
 10
571.00550772886413
 20
349.16075503335202
 30
0.0
  0
VERTEX
  5
2EF88
  8
0
 10
571.22431157597134
 20
349.1330274574957
 30
0.0
  0
VERTEX
  5
2EF89
  8
0
 10
571.44442739058957
 20
349.11913608871242
 30
0.0
  0
VERTEX
  5
2EF8A
  8
0
 10
571.55470424896419
 20
349.11739837369169
 30
0.0
  0
SEQEND
  5
2EF8B
  8
0
  0
LINE
  5
215F1
  8
0
 10
567.1110572607472
 20
353.86512455119009
 30
0.0
 11
568.38262699433585
 21
351.13823445759863
 31
0.0
  0
POLYLINE
  5
215F2
  8
0
 66
     1
 10
0.0
 20
0.0
 30
0.0
  0
VERTEX
  5
2EF8C
  8
0
 10
566.46466101839667
 20
355.25132576630222
 30
0.0
  0
VERTEX
  5
2EF8D
  8
0
 10
566.5650029543192
 20
355.0361417902995
 30
0.0
  0
VERTEX
  5
2EF8E
  8
0
 10
566.77473185321423
 20
354.58637671518773
 30
0.0
  0
VERTEX
  5
2EF8F
  8
0
 10
566.99613213579676
 20
354.11158227698621
 30
0.0
  0
VERTEX
  5
2EF90
  8
0
 10
567.1110572607472
 20
353.86512455119009
 30
0.0
  0
SEQEND
  5
2EF91
  8
0
  0
POLYLINE
  5
215F3
  8
0
 66
     1
 10
0.0
 20
0.0
 30
0.0
  0
VERTEX
  5
2EF92
  8
0
 10
565.10519933784167
 20
356.11739837369169
 30
0.0
  0
VERTEX
  5
2EF93
  8
0
 10
565.11847583917302
 20
356.11733961737809
 30
0.0
  0
VERTEX
  5
2EF94
  8
0
 10
565.15035269188058
 20
356.11671861120521
 30
0.0
  0
VERTEX
  5
2EF95
  8
0
 10
565.18932140191214
 20
356.11503767550488
 30
0.0
  0
VERTEX
  5
2EF96
  8
0
 10
565.21144668381964
 20
356.11363080933552
 30
0.0
  0
VERTEX
  5
2EF97
  8
0
 10
565.23531407566861
 20
356.11174443635542
 30
0.0
  0
VERTEX
  5
2EF98
  8
0
 10
565.28819408517961
 20
356.10619416977897
 30
0.0
  0
VERTEX
  5
2EF99
  8
0
 10
565.34775725507802
 20
356.09765701892411
 30
0.0
  0
VERTEX
  5
2EF9A
  8
0
 10
565.41372733231367
 20
356.08532564594498
 30
0.0
  0
VERTEX
  5
2EF9B
  8
0
 10
565.48576524631096
 20
356.06831862970472
 30
0.0
  0
VERTEX
  5
2EF9C
  8
0
 10
565.56347929508399
 20
356.04567687622148
 30
0.0
  0
VERTEX
  5
2EF9D
  8
0
 10
565.60432536237079
 20
356.0319206293089
 30
0.0
  0
VERTEX
  5
2EF9E
  8
0
 10
565.6464150583588
 20
356.0163571092744
 30
0.0
  0
VERTEX
  5
2EF9F
  8
0
 10
565.73405094930104
 20
355.9792154138122
 30
0.0
  0
VERTEX
  5
2EFA0
  8
0
 10
565.82578047067045
 20
355.9329829703675
 30
0.0
  0
VERTEX
  5
2EFA1
  8
0
 10
565.92094764916385
 20
355.87618933829799
 30
0.0
  0
VERTEX
  5
2EFA2
  8
0
 10
565.97775770113424
 20
355.83749751009333
 30
0.0
  0
VERTEX
  5
2EFA3
  8
0
 10
565.99413448664654
 20
355.82561784929112
 30
0.0
  0
VERTEX
  5
2EFA4
  8
0
 10
566.0105683969033
 20
355.8133527486134
 30
0.0
  0
VERTEX
  5
2EFA5
  8
0
 10
566.01880545499625
 20
355.80707222088591
 30
0.0
  0
VERTEX
  5
2EFA6
  8
0
 10
566.02705519650419
 20
355.80069114213438
 30
0.0
  0
VERTEX
  5
2EFA7
  8
0
 10
566.04359052104257
 20
355.7876214239223
 30
0.0
  0
VERTEX
  5
2EFA8
  8
0
 10
566.06016985014583
 20
355.77413141144461
 30
0.0
  0
VERTEX
  5
2EFA9
  8
0
 10
566.07678847524187
 20
355.76020830893231
 30
0.0
  0
VERTEX
  5
2EFAA
  8
0
 10
566.09344146157196
 20
355.74583867113051
 30
0.0
  0
VERTEX
  5
2EFAB
  8
0
 10
566.11012360396865
 20
355.73100836796579
 30
0.0
  0
VERTEX
  5
2EFAC
  8
0
 10
566.11847389575075
 20
355.72341585560298
 30
0.0
  0
VERTEX
  5
2EFAD
  8
0
 10
566.12682937593559
 20
355.7157025507131
 30
0.0
  0
VERTEX
  5
2EFAE
  8
0
 10
566.14355287158185
 20
355.69990562030398
 30
0.0
  0
VERTEX
  5
2EFAF
  8
0
 10
566.16033439009846
 20
355.68355503267691
 30
0.0
  0
VERTEX
  5
2EFB0
  8
0
 10
566.16880756275793
 20
355.67510227549519
 30
0.0
  0
VERTEX
  5
2EFB1
  8
0
 10
566.17733488822182
 20
355.6664576482853
 30
0.0
  0
VERTEX
  5
2EFB2
  8
0
 10
566.1945295044801
 20
355.64859175422322
 30
0.0
  0
VERTEX
  5
2EFB3
  8
0
 10
566.21187257310498
 20
355.62995669317303
 30
0.0
  0
VERTEX
  5
2EFB4
  8
0
 10
566.22058523776229
 20
355.62035116134302
 30
0.0
  0
VERTEX
  5
2EFB5
  8
0
 10
566.22931746449194
 20
355.61055417080303
 30
0.0
  0
VERTEX
  5
2EFB6
  8
0
 10
566.24681678234015
 20
355.59038840982612
 30
0.0
  0
VERTEX
  5
2EFB7
  8
0
 10
566.26432259118872
 20
355.56946627229439
 30
0.0
  0
VERTEX
  5
2EFB8
  8
0
 10
566.28178667740485
 20
355.5477973377819
 30
0.0
  0
VERTEX
  5
2EFB9
  8
0
 10
566.29916084590491
 20
355.52539392283421
 30
0.0
  0
VERTEX
  5
2EFBA
  8
0
 10
566.3163972538747
 20
355.5022710245276
 30
0.0
  0
VERTEX
  5
2EFBB
  8
0
 10
566.32494903358247
 20
355.49044515350312
 30
0.0
  0
VERTEX
  5
2EFBC
  8
0
 10
566.33344878140451
 20
355.47844616817662
 30
0.0
  0
VERTEX
  5
2EFBD
  8
0
 10
566.35026981643955
 20
355.45393857196268
 30
0.0
  0
VERTEX
  5
2EFBE
  8
0
 10
566.36681683684117
 20
355.42876837943368
 30
0.0
  0
VERTEX
  5
2EFBF
  8
0
 10
566.38304457183688
 20
355.40296285733069
 30
0.0
  0
VERTEX
  5
2EFC0
  8
0
 10
566.39890813665863
 20
355.37655418369559
 30
0.0
  0
VERTEX
  5
2EFC1
  8
0
 10
566.4143638089115
 20
355.34957894410309
 30
0.0
  0
VERTEX
  5
2EFC2
  8
0
 10
566.42192546838464
 20
355.33589144752392
 30
0.0
  0
VERTEX
  5
2EFC3
  8
0
 10
566.42936955130972
 20
355.32207790778011
 30
0.0
  0
VERTEX
  5
2EFC4
  8
0
 10
566.44388554161185
 20
355.29409568256409
 30
0.0
  0
VERTEX
  5
2EFC5
  8
0
 10
566.45787470385653
 20
355.26568022148331
 30
0.0
  0
VERTEX
  5
2EFC6
  8
0
 10
566.46466101839667
 20
355.25132576630222
 30
0.0
  0
SEQEND
  5
2EFC7
  8
0
  0
LINE
  5
215F4
  8
0
 10
536.06080472905285
 20
358.11739837369169
 30
0.0
 11
621.06080472905285
 21
358.11739837369169
 31
0.0
  0
LINE
  5
21605
  8
0
 10
611.06080472905285
 20
255.61739837369171
 30
0.0
 11
613.29380472905291
 21
255.61739837369171
 31
0.0
  0
LINE
  5
21607
  8
0
 10
613.29380472905291
 20
255.61739837369171
 30
0.0
 11
614.06080472905296
 21
256.38439837369151
 31
0.0
  0
LINE
  5
21609
  8
0
 10
601.06080472905296
 20
263.61739837369169
 30
0.0
 11
598.56080472905285
 21
263.61739837369169
 31
0.0
  0
LINE
  5
2160A
  8
0
 10
598.56080472905285
 20
255.61739837369171
 30
0.0
 11
601.06080472905296
 21
255.61739837369171
 31
0.0
  0
LINE
  5
2160D
  8
0
 10
608.56080472905285
 20
253.8023983736912
 30
0.0
 11
611.06080472905285
 21
253.8023983736912
 31
0.0
  0
LINE
  5
2160E
  8
0
 10
558.56080472905285
 20
263.61739837369169
 30
0.0
 11
556.06080472905285
 21
263.61739837369169
 31
0.0
  0
LINE
  5
21611
  8
0
 10
556.06080472905285
 20
255.61739837369171
 30
0.0
 11
558.56080472905285
 21
255.61739837369171
 31
0.0
  0
LINE
  5
21612
  8
0
 10
598.56080472905285
 20
265.61739837369169
 30
0.0
 11
596.06080472905285
 21
265.61739837369169
 31
0.0
  0
LINE
  5
21614
  8
0
 10
561.06080472905285
 20
265.61739837369169
 30
0.0
 11
558.56080472905285
 21
265.61739837369169
 31
0.0
  0
LINE
  5
21615
  8
0
 10
558.56080472905285
 20
253.61739837369171
 30
0.0
 11
561.06080472905285
 21
253.61739837369171
 31
0.0
  0
LINE
  5
21617
  8
0
 10
596.06080472905285
 20
253.61739837369171
 30
0.0
 11
598.56080472905285
 21
253.61739837369171
 31
0.0
  0
LINE
  5
21618
  8
0
 10
613.29380472905291
 20
255.61739837369171
 30
0.0
 11
613.29380472905291
 21
260.51643699345908
 31
0.0
  0
LINE
  5
2161A
  8
0
 10
614.06080472905296
 20
256.38439837369151
 30
0.0
 11
614.06080472905296
 21
261.28446326962421
 31
0.0
  0
LINE
  5
2161C
  8
0
 10
548.76080472905301
 20
253.3590650403585
 30
0.0
 11
548.76080472905301
 21
254.9933641923426
 31
0.0
  0
LINE
  5
2162E
  8
0
 10
548.76080472905301
 20
253.3590650403585
 30
0.0
 11
549.75119444369489
 21
253.3590650403585
 31
0.0
  0
POLYLINE
  5
21630
  8
0
 66
     1
 10
0.0
 20
0.0
 30
0.0
  0
VERTEX
  5
2EFC8
  8
0
 10
549.0202244384684
 20
253.3590650403585
 30
0.0
  0
VERTEX
  5
2EFC9
  8
0
 10
548.98001627752774
 20
253.6278172036491
 30
0.0
  0
VERTEX
  5
2EFCA
  8
0
 10
548.91061282499345
 20
254.14667065234971
 30
0.0
  0
VERTEX
  5
2EFCB
  8
0
 10
548.85505025933924
 20
254.64577627483499
 30
0.0
  0
VERTEX
  5
2EFCC
  8
0
 10
548.83221924543352
 20
254.88971468669479
 30
0.0
  0
SEQEND
  5
2EFCD
  8
0
  0
LINE
  5
21639
  8
0
 10
611.06080472905285
 20
253.8023983736912
 30
0.0
 11
611.06080472905285
 21
258.28091759932801
 31
0.0
  0
LINE
  5
2163A
  8
0
 10
608.56080472905285
 20
253.3590650403585
 30
0.0
 11
608.56080472905285
 21
255.29021607226599
 31
0.0
  0
POLYLINE
  5
2164B
  8
0
 66
     1
 10
0.0
 20
0.0
 30
0.0
  0
VERTEX
  5
2EFCE
  8
0
 10
608.51632842115441
 20
255.23169884709571
 30
0.0
  0
VERTEX
  5
2EFCF
  8
0
 10
608.49324825432313
 20
254.93436850573841
 30
0.0
  0
VERTEX
  5
2EFD0
  8
0
 10
608.43228011757992
 20
254.32597192203869
 30
0.0
  0
VERTEX
  5
2EFD1
  8
0
 10
608.35056731141322
 20
253.69049922298839
 30
0.0
  0
VERTEX
  5
2EFD2
  8
0
 10
608.30138501963745
 20
253.3590650403585
 30
0.0
  0
SEQEND
  5
2EFD3
  8
0
  0
LINE
  5
2164D
  8
0
 10
607.37041501441115
 20
253.3590650403585
 30
0.0
 11
608.56080472905285
 21
253.3590650403585
 31
0.0
  0
LINE
  5
21655
  8
0
 10
558.56080472905285
 20
253.61739837369171
 30
0.0
 11
558.56080472905285
 21
265.61739837369169
 31
0.0
  0
LINE
  5
21656
  8
0
 10
598.56080472905285
 20
253.61739837369171
 30
0.0
 11
598.56080472905285
 21
265.61739837369169
 31
0.0
  0
LINE
  5
2165C
  8
1
 10
534.03759160783727
 20
259.61739837369169
 30
0.0
 11
623.08401785026854
 21
259.61739837369169
 31
0.0
  0
LINE
  5
2165D
  8
0
 10
592.53479210451883
 20
322.11739837369169
 30
0.0
 11
564.58681735358709
 21
322.11739837369169
 31
0.0
  0
LINE
  5
2165E
  8
0
 10
564.58681735358709
 20
197.11739837369171
 30
0.0
 11
592.53479210451883
 21
197.11739837369171
 31
0.0
  0
ARC
  5
2165F
  8
0
 10
592.53479210451883
 20
199.6173983736916
 30
0.0
 40
2.499999999999992
 50
270.0
 51
345.00000000000551
  0
ARC
  5
21660
  8
0
 10
592.53479210451883
 20
319.61739837369169
 30
0.0
 40
2.499999999999992
 50
14.99999999999447
 51
90.0
  0
LINE
  5
21661
  8
0
 10
596.06080472905285
 20
316.11739837369169
 30
0.0
 11
594.94960667024145
 21
320.2644459864477
 31
0.0
  0
LINE
  5
21662
  8
0
 10
594.94960667024145
 20
198.97035076093471
 30
0.0
 11
596.06080472905285
 21
203.11739837369171
 31
0.0
  0
LINE
  5
2166A
  8
0
 10
596.05330472905302
 20
243.60239837369139
 30
0.0
 11
596.06080472905285
 21
243.60239837369139
 31
0.0
  0
LINE
  5
2166C
  8
0
 10
596.05330472905302
 20
243.61739837369171
 30
0.0
 11
596.06080472905285
 21
243.61739837369171
 31
0.0
  0
LINE
  5
21673
  8
0
 10
562.17200278786436
 20
320.2644459864477
 30
0.0
 11
561.06080472905285
 21
316.11739837369169
 31
0.0
  0
LINE
  5
21674
  8
0
 10
561.06080472905285
 20
203.11739837369171
 30
0.0
 11
562.17200278786436
 21
198.97035076093471
 31
0.0
  0
ARC
  5
21675
  8
0
 10
564.58681735358709
 20
199.6173983736916
 30
0.0
 40
2.4999999999999778
 50
194.9999999999944
 51
270.0
  0
ARC
  5
21676
  8
0
 10
564.58681735358709
 20
319.61739837369169
 30
0.0
 40
2.4999999999999778
 50
90.0
 51
165.00000000000551
  0
LINE
  5
21689
  8
0
 10
592.53479210451883
 20
197.11739837369171
 30
0.0
 11
592.53479210451883
 21
322.11739837369169
 31
0.0
  0
LINE
  5
2168B
  8
0
 10
596.06080472905285
 20
203.11739837369171
 30
0.0
 11
596.06080472905285
 21
316.11739837369169
 31
0.0
  0
LINE
  5
2168E
  8
0
 10
561.06080472905285
 20
203.11739837369171
 30
0.0
 11
561.06080472905285
 21
316.11739837369169
 31
0.0
  0
LINE
  5
2168F
  8
0
 10
564.58681735358709
 20
197.11739837369171
 30
0.0
 11
564.58681735358709
 21
322.11739837369169
 31
0.0
  0
LINE
  5
218F0
  8
0
 10
388.66491367967052
 20
518.98072921460243
 30
0.0
 11
338.66491367967052
 21
518.98072921460243
 31
0.0
  0
LINE
  5
218F1
  8
0
 10
388.66491367967052
 20
501.70132385008492
 30
0.0
 11
338.66491367967052
 21
501.70132385008492
 31
0.0
  0
LINE
  5
218F4
  8
0
 10
390.30461636192922
 20
503.34102653234362
 30
0.0
 11
390.30461636192922
 21
517.34102653234356
 31
0.0
  0
LINE
  5
218F5
  8
0
 10
337.0252109974117
 20
503.34102653234362
 30
0.0
 11
337.0252109974117
 21
517.34102653234356
 31
0.0
  0
ARC
  5
218F8
  8
0
 10
338.66491367967052
 20
517.34102653234356
 30
0.0
 40
1.6397026822587399
 50
90.0
 51
180.0
  0
LINE
  5
218FB
  8
0
 10
395.08072121698001
 20
467.84102653234362
 30
0.0
 11
408.97580281212572
 21
467.84102653234362
 31
0.0
  0
ARC
  5
218FC
  8
0
 10
395.08072121698001
 20
477.84102653234368
 30
0.0
 40
10.00000000000003
 50
210.0
 51
270.0
  0
LINE
  5
218FD
  8
0
 10
383.38937826589012
 20
478.09102653234362
 30
0.0
 11
386.42046717913558
 21
472.84102653234368
 31
0.0
  0
ARC
  5
218FE
  8
0
 10
369.96598450723121
 20
470.34102653234362
 30
0.0
 40
15.5
 50
30.000000000000021
 51
90.0
  0
LINE
  5
218FF
  8
0
 10
357.36384285210971
 20
485.84102653234368
 30
0.0
 11
369.96598450723133
 21
485.84102653234368
 31
0.0
  0
ARC
  5
21900
  8
0
 10
357.3638428521096
 20
470.34102653234362
 30
0.0
 40
15.49999999999998
 50
90.0
 51
150.0
  0
LINE
  5
21901
  8
0
 10
340.90936018020528
 20
472.84102653234368
 30
0.0
 11
343.94044909345092
 21
478.09102653234362
 31
0.0
  0
ARC
  5
21902
  8
0
 10
332.24910614236092
 20
477.84102653234368
 30
0.0
 40
10.00000000000003
 50
270.0
 51
330.0
  0
LINE
  5
21903
  8
0
 10
318.35402454721509
 20
467.84102653234362
 30
0.0
 11
332.24910614236092
 21
467.84102653234362
 31
0.0
  0
LINE
  5
21904
  8
0
 10
313.66491367967052
 20
485.34102653234368
 30
0.0
 11
318.35402454721509
 21
467.84102653234362
 31
0.0
  0
LINE
  5
21905
  8
0
 10
313.66491367967052
 20
535.34102653234368
 30
0.0
 11
313.66491367967052
 21
485.34102653234368
 31
0.0
  0
LINE
  5
21906
  8
0
 10
318.35402454721509
 20
552.84102653234368
 30
0.0
 11
313.66491367967052
 21
535.34102653234368
 31
0.0
  0
LINE
  5
21907
  8
0
 10
332.24910614236092
 20
552.84102653234368
 30
0.0
 11
318.35402454721509
 21
552.84102653234368
 31
0.0
  0
ARC
  5
21908
  8
0
 10
332.24910614236092
 20
542.84102653234356
 30
0.0
 40
10.00000000000005
 50
30.000000000000021
 51
90.0
  0
LINE
  5
21909
  8
0
 10
343.94044909345092
 20
542.59102653234368
 30
0.0
 11
340.90936018020528
 21
547.84102653234368
 31
0.0
  0
ARC
  5
2190A
  8
0
 10
357.36384285210971
 20
550.34102653234356
 30
0.0
 40
15.49999999999997
 50
210.0
 51
270.0
  0
LINE
  5
2190B
  8
0
 10
369.96598450723133
 20
534.84102653234356
 30
0.0
 11
357.36384285210971
 21
534.84102653234356
 31
0.0
  0
ARC
  5
2190C
  8
0
 10
369.96598450723133
 20
550.34102653234356
 30
0.0
 40
15.49999999999998
 50
270.0
 51
330.0
  0
LINE
  5
2190D
  8
0
 10
386.42046717913558
 20
547.84102653234368
 30
0.0
 11
383.38937826589012
 21
542.59102653234368
 31
0.0
  0
ARC
  5
2190E
  8
0
 10
395.08072121698001
 20
542.84102653234356
 30
0.0
 40
10.00000000000003
 50
90.0
 51
150.0
  0
LINE
  5
2190F
  8
0
 10
408.97580281212572
 20
552.84102653234368
 30
0.0
 11
395.08072121698001
 21
552.84102653234368
 31
0.0
  0
LINE
  5
21910
  8
0
 10
413.66491367967041
 20
535.34102653234368
 30
0.0
 11
408.97580281212572
 21
552.84102653234368
 31
0.0
  0
LINE
  5
21911
  8
0
 10
413.66491367967041
 20
485.34102653234368
 30
0.0
 11
413.66491367967041
 21
535.34102653234368
 31
0.0
  0
LINE
  5
21912
  8
0
 10
408.97580281212572
 20
467.84102653234362
 30
0.0
 11
413.66491367967041
 21
485.34102653234368
 31
0.0
  0
ARC
  5
21913
  8
0
 10
323.66491367967041
 20
540.34102653234368
 30
0.0
 40
4.4999999999999876
 50
18.434948822914251
 51
198.43494882291421
  0
LINE
  5
21914
  8
0
 10
319.39583883844313
 20
538.91800158526712
 30
0.0
 11
321.89583883844313
 21
531.41800158526712
 31
0.0
  0
ARC
  5
21915
  8
0
 10
326.16491367967052
 20
532.84102653234356
 30
0.0
 40
4.4999999999999938
 50
198.43494882291421
 51
18.434948822914251
  0
LINE
  5
21916
  8
0
 10
330.43398852089769
 20
534.26405147941932
 30
0.0
 11
327.93398852089769
 21
541.76405147941932
 31
0.0
  0
ARC
  5
21917
  8
0
 10
323.66491367967041
 20
480.34102653234362
 30
0.0
 40
4.5000000000000018
 50
161.56505117708571
 51
341.56505117708571
  0
LINE
  5
21918
  8
0
 10
327.93398852089769
 20
478.91800158526712
 30
0.0
 11
330.43398852089769
 21
486.41800158526712
 31
0.0
  0
ARC
  5
21919
  8
0
 10
326.16491367967052
 20
487.84102653234362
 30
0.0
 40
4.5000000000000018
 50
341.56505117708571
 51
161.56505117708571
  0
LINE
  5
2191A
  8
0
 10
321.89583883844313
 20
489.26405147941932
 30
0.0
 11
319.39583883844313
 21
481.76405147941921
 31
0.0
  0
ARC
  5
2191B
  8
0
 10
401.16491367967041
 20
532.84102653234356
 30
0.0
 40
4.4999999999999973
 50
161.56505117708571
 51
341.56505117708571
  0
LINE
  5
2191C
  8
0
 10
405.43398852089769
 20
531.41800158526712
 30
0.0
 11
407.93398852089769
 21
538.91800158526712
 31
0.0
  0
ARC
  5
2191D
  8
0
 10
403.66491367967041
 20
540.34102653234368
 30
0.0
 40
4.5000000000000009
 50
341.56505117708571
 51
161.56505117708571
  0
LINE
  5
2191E
  8
0
 10
399.39583883844313
 20
541.76405147941932
 30
0.0
 11
396.89583883844313
 21
534.26405147941932
 31
0.0
  0
ARC
  5
2191F
  8
0
 10
401.16491367967041
 20
487.84102653234362
 30
0.0
 40
4.5000000000000027
 50
18.434948822914251
 51
198.43494882291421
  0
LINE
  5
21920
  8
0
 10
396.89583883844313
 20
486.41800158526712
 30
0.0
 11
399.39583883844313
 21
478.91800158526712
 31
0.0
  0
ARC
  5
21921
  8
0
 10
403.66491367967041
 20
480.34102653234362
 30
0.0
 40
4.5000000000000027
 50
198.43494882291421
 51
18.434948822914251
  0
LINE
  5
21922
  8
0
 10
407.93398852089769
 20
481.76405147941921
 30
0.0
 11
405.43398852089769
 21
489.26405147941932
 31
0.0
  0
LINE
  5
21923
  8
0
 10
395.39465959249668
 20
517.34102653234356
 30
0.0
 11
395.39465959249668
 21
503.34102653234362
 31
0.0
  0
LINE
  5
21924
  8
0
 10
338.66491367967052
 20
524.07077244516938
 30
0.0
 11
388.66491367967052
 21
524.07077244516938
 31
0.0
  0
ARC
  5
21925
  8
0
 10
338.66491367967052
 20
517.34102653234356
 30
0.0
 40
6.7297459128262069
 50
90.0
 51
180.0
  0
LINE
  5
21926
  8
0
 10
331.93516776684419
 20
517.34102653234356
 30
0.0
 11
331.93516776684419
 21
503.34102653234362
 31
0.0
  0
LINE
  5
21927
  8
0
 10
338.66491367967052
 20
496.61128061951689
 30
0.0
 11
388.66491367967052
 21
496.61128061951689
 31
0.0
  0
ARC
  5
21928
  8
0
 10
338.66491367967052
 20
503.34102653234362
 30
0.0
 40
1.639702682258757
 50
180.0
 51
270.0
  0
ARC
  5
2192B
  8
0
 10
338.66491367967052
 20
503.34102653234362
 30
0.0
 40
6.7297459128262211
 50
179.99999914622629
 51
270.0
  0
ARC
  5
21933
  8
0
 10
388.66491367967041
 20
517.34102653234356
 30
0.0
 40
6.729745912826214
 50
0.0
 51
90.0
  0
ARC
  5
21935
  8
0
 10
388.66491367967052
 20
517.34102653234356
 30
0.0
 40
1.6397026822587391
 50
0.0
 51
90.0
  0
ARC
  5
2193B
  8
0
 10
388.66491367967052
 20
503.34102653234362
 30
0.0
 40
1.6397026822587519
 50
270.0
 51
0.0
  0
ARC
  5
2193D
  8
0
 10
388.66491367967052
 20
503.34102653234362
 30
0.0
 40
6.729745912826222
 50
270.0
 51
0.0
  0
LINE
  5
2193F
  8
1
 10
316.80641839665628
 20
540.34102653234368
 30
0.0
 11
330.52340896268458
 21
540.34102653234368
 31
0.0
  0
LINE
  5
21940
  8
1
 10
323.66491367967041
 20
533.48253124932944
 30
0.0
 11
323.66491367967041
 21
547.199521815357
 31
0.0
  0
LINE
  5
21941
  8
1
 10
319.30641839665628
 20
532.84102653234356
 30
0.0
 11
333.02340896268458
 21
532.84102653234356
 31
0.0
  0
LINE
  5
21942
  8
1
 10
326.16491367967052
 20
525.98253124932944
 30
0.0
 11
326.16491367967052
 21
539.699521815357
 31
0.0
  0
LINE
  5
21943
  8
1
 10
316.80641839665623
 20
480.34102653234362
 30
0.0
 11
330.52340896268458
 21
480.34102653234362
 31
0.0
  0
LINE
  5
21944
  8
1
 10
323.66491367967041
 20
473.48253124932938
 30
0.0
 11
323.66491367967041
 21
487.19952181535689
 31
0.0
  0
LINE
  5
21945
  8
1
 10
319.30641839665628
 20
487.84102653234362
 30
0.0
 11
333.02340896268458
 21
487.84102653234362
 31
0.0
  0
LINE
  5
21946
  8
1
 10
326.16491367967052
 20
480.98253124932938
 30
0.0
 11
326.16491367967052
 21
494.699521815357
 31
0.0
  0
LINE
  5
21947
  8
1
 10
394.30641839665628
 20
532.84102653234356
 30
0.0
 11
408.02340896268458
 21
532.84102653234356
 31
0.0
  0
LINE
  5
21948
  8
1
 10
401.16491367967041
 20
525.98253124932944
 30
0.0
 11
401.16491367967041
 21
539.699521815357
 31
0.0
  0
LINE
  5
21949
  8
1
 10
396.80641839665628
 20
540.34102653234368
 30
0.0
 11
410.52340896268453
 21
540.34102653234368
 31
0.0
  0
LINE
  5
2194A
  8
1
 10
403.66491367967041
 20
533.48253124932944
 30
0.0
 11
403.66491367967041
 21
547.199521815357
 31
0.0
  0
LINE
  5
2194B
  8
1
 10
394.30641839665628
 20
487.84102653234362
 30
0.0
 11
408.02340896268458
 21
487.84102653234362
 31
0.0
  0
LINE
  5
2194C
  8
1
 10
401.16491367967041
 20
480.98253124932938
 30
0.0
 11
401.16491367967041
 21
494.699521815357
 31
0.0
  0
LINE
  5
2194D
  8
1
 10
396.80641839665628
 20
480.34102653234362
 30
0.0
 11
410.52340896268458
 21
480.34102653234362
 31
0.0
  0
LINE
  5
2194E
  8
1
 10
403.66491367967041
 20
473.48253124932938
 30
0.0
 11
403.66491367967041
 21
487.19952181535689
 31
0.0
  0
LINE
  5
2194F
  8
0
 10
357.84991367967041
 20
485.84102653234368
 30
0.0
 11
357.84991367967041
 21
485.24102653234331
 31
0.0
  0
LINE
  5
21950
  8
0
 10
369.47991367967052
 20
485.24102653234331
 30
0.0
 11
369.47991367967052
 21
485.84102653234368
 31
0.0
  0
LINE
  5
21951
  8
0
 10
359.66491367967052
 20
545.07402653234385
 30
0.0
 11
359.66491367967052
 21
542.84102653234356
 31
0.0
  0
LINE
  5
21952
  8
0
 10
367.66491367967052
 20
542.84102653234356
 30
0.0
 11
367.66491367967052
 21
545.07402653234385
 31
0.0
  0
LINE
  5
21953
  8
0
 10
360.4319136796704
 20
545.84102653234356
 30
0.0
 11
359.66491367967052
 21
545.07402653234385
 31
0.0
  0
LINE
  5
21954
  8
0
 10
367.66491367967052
 20
545.07402653234385
 30
0.0
 11
366.89791367967052
 21
545.84102653234356
 31
0.0
  0
LINE
  5
21955
  8
0
 10
369.92324701300379
 20
480.54102653234349
 30
0.0
 11
370.89141454902727
 21
480.80044624175929
 31
0.0
  0
LINE
  5
21956
  8
0
 10
356.43841281031359
 20
480.80044624175929
 30
0.0
 11
357.40658034633708
 21
480.54102653234349
 31
0.0
  0
LINE
  5
21957
  8
0
 10
370.89141454902727
 20
484.98160682292843
 30
0.0
 11
369.92324701300379
 21
485.24102653234331
 31
0.0
  0
LINE
  5
21958
  8
0
 10
357.40658034633708
 20
485.24102653234331
 30
0.0
 11
356.43841281031359
 21
484.98160682292843
 31
0.0
  0
LINE
  5
2195B
  8
0
 10
357.84991367967041
 20
542.84102653234356
 30
0.0
 11
357.84991367967041
 21
540.34102653234368
 31
0.0
  0
LINE
  5
2195C
  8
0
 10
369.47991367967052
 20
540.34102653234368
 30
0.0
 11
369.47991367967052
 21
542.84102653234356
 31
0.0
  0
LINE
  5
2195D
  8
0
 10
369.92324701300379
 20
534.84102653234356
 30
0.0
 11
370.89141454902727
 21
535.10044624175862
 31
0.0
  0
LINE
  5
2195E
  8
0
 10
356.43841281031359
 20
535.10044624175862
 30
0.0
 11
357.40658034633708
 21
534.84102653234356
 31
0.0
  0
LINE
  5
2195F
  8
0
 10
370.89141454902727
 20
540.08160682292782
 30
0.0
 11
369.92324701300379
 21
540.34102653234368
 31
0.0
  0
LINE
  5
21960
  8
0
 10
357.40658034633708
 20
540.34102653234368
 30
0.0
 11
356.43841281031359
 21
540.08160682292782
 31
0.0
  0
LINE
  5
21965
  8
0
 10
367.66491367967052
 20
545.07402653234385
 30
0.0
 11
359.66491367967052
 21
545.07402653234385
 31
0.0
  0
LINE
  5
21966
  8
0
 10
366.89791367967052
 20
545.84102653234356
 30
0.0
 11
360.4319136796704
 21
545.84102653234356
 31
0.0
  0
LINE
  5
21967
  8
0
 10
369.92324701300379
 20
480.54102653234349
 30
0.0
 11
357.40658034633708
 21
480.54102653234349
 31
0.0
  0
LINE
  5
21968
  8
0
 10
369.92324701300379
 20
485.24102653234331
 30
0.0
 11
357.40658034633708
 21
485.24102653234331
 31
0.0
  0
POLYLINE
  5
21969
  8
0
 66
     1
 10
0.0
 20
0.0
 30
0.0
  0
VERTEX
  5
2EFD4
  8
0
 10
360.05166324499203
 20
480.80044624175929
 30
0.0
  0
VERTEX
  5
2EFD5
  8
0
 10
359.72708934931978
 20
480.71960158850021
 30
0.0
  0
VERTEX
  5
2EFD6
  8
0
 10
359.11752877054801
 20
480.60499124974729
 30
0.0
  0
VERTEX
  5
2EFD7
  8
0
 10
358.5351205989723
 20
480.54821666596303
 30
0.0
  0
VERTEX
  5
2EFD8
  8
0
 10
358.24503802765281
 20
480.54102653234349
 30
0.0
  0
SEQEND
  5
2EFD9
  8
0
  0
POLYLINE
  5
2196A
  8
0
 66
     1
 10
0.0
 20
0.0
 30
0.0
  0
VERTEX
  5
2EFDA
  8
0
 10
358.24503802765281
 20
480.54102653234349
 30
0.0
  0
VERTEX
  5
2EFDB
  8
0
 10
357.95495545633338
 20
480.54821666596303
 30
0.0
  0
VERTEX
  5
2EFDC
  8
0
 10
357.37254728475779
 20
480.60499124974729
 30
0.0
  0
VERTEX
  5
2EFDD
  8
0
 10
356.76298670598578
 20
480.71960158850021
 30
0.0
  0
VERTEX
  5
2EFDE
  8
0
 10
356.43841281031359
 20
480.80044624175929
 30
0.0
  0
SEQEND
  5
2EFDF
  8
0
  0
POLYLINE
  5
2196B
  8
0
 66
     1
 10
0.0
 20
0.0
 30
0.0
  0
VERTEX
  5
2EFE0
  8
0
 10
356.43841281031359
 20
484.98160682292843
 30
0.0
  0
VERTEX
  5
2EFE1
  8
0
 10
356.76298670598578
 20
485.06245147618569
 30
0.0
  0
VERTEX
  5
2EFE2
  8
0
 10
357.37254728475767
 20
485.1770618149385
 30
0.0
  0
VERTEX
  5
2EFE3
  8
0
 10
357.95495545633338
 20
485.23383639872372
 30
0.0
  0
VERTEX
  5
2EFE4
  8
0
 10
358.24503802765281
 20
485.24102653234331
 30
0.0
  0
SEQEND
  5
2EFE5
  8
0
  0
POLYLINE
  5
2196C
  8
0
 66
     1
 10
0.0
 20
0.0
 30
0.0
  0
VERTEX
  5
2EFE6
  8
0
 10
358.24503802765281
 20
485.24102653234331
 30
0.0
  0
VERTEX
  5
2EFE7
  8
0
 10
358.5351205989723
 20
485.23383639872372
 30
0.0
  0
VERTEX
  5
2EFE8
  8
0
 10
359.11752877054801
 20
485.1770618149385
 30
0.0
  0
VERTEX
  5
2EFE9
  8
0
 10
359.72708934931978
 20
485.06245147618569
 30
0.0
  0
VERTEX
  5
2EFEA
  8
0
 10
360.05166324499203
 20
484.98160682292843
 30
0.0
  0
SEQEND
  5
2EFEB
  8
0
  0
LINE
  5
2196D
  8
0
 10
356.43841281031359
 20
480.80044624175929
 30
0.0
 11
356.43841281031359
 21
484.98160682292843
 31
0.0
  0
POLYLINE
  5
21976
  8
0
 66
     1
 10
0.0
 20
0.0
 30
0.0
  0
VERTEX
  5
2EFEC
  8
0
 10
369.08478933168811
 20
485.24102653234331
 30
0.0
  0
VERTEX
  5
2EFED
  8
0
 10
369.3748719030076
 20
485.23383639872372
 30
0.0
  0
VERTEX
  5
2EFEE
  8
0
 10
369.9572800745832
 20
485.1770618149385
 30
0.0
  0
VERTEX
  5
2EFEF
  8
0
 10
370.56684065335509
 20
485.06245147618569
 30
0.0
  0
VERTEX
  5
2EFF0
  8
0
 10
370.89141454902727
 20
484.98160682292843
 30
0.0
  0
SEQEND
  5
2EFF1
  8
0
  0
POLYLINE
  5
21977
  8
0
 66
     1
 10
0.0
 20
0.0
 30
0.0
  0
VERTEX
  5
2EFF2
  8
0
 10
370.89141454902727
 20
480.80044624175929
 30
0.0
  0
VERTEX
  5
2EFF3
  8
0
 10
370.56684065335509
 20
480.71960158850021
 30
0.0
  0
VERTEX
  5
2EFF4
  8
0
 10
369.9572800745832
 20
480.60499124974729
 30
0.0
  0
VERTEX
  5
2EFF5
  8
0
 10
369.3748719030076
 20
480.54821666596303
 30
0.0
  0
VERTEX
  5
2EFF6
  8
0
 10
369.08478933168811
 20
480.54102653234349
 30
0.0
  0
SEQEND
  5
2EFF7
  8
0
  0
POLYLINE
  5
21978
  8
0
 66
     1
 10
0.0
 20
0.0
 30
0.0
  0
VERTEX
  5
2EFF8
  8
0
 10
369.08478933168811
 20
480.54102653234349
 30
0.0
  0
VERTEX
  5
2EFF9
  8
0
 10
368.79470676036863
 20
480.54821666596303
 30
0.0
  0
VERTEX
  5
2EFFA
  8
0
 10
368.21229858879292
 20
480.60499124974729
 30
0.0
  0
VERTEX
  5
2EFFB
  8
0
 10
367.60273801002103
 20
480.71960158850021
 30
0.0
  0
VERTEX
  5
2EFFC
  8
0
 10
367.2781641143489
 20
480.80044624175929
 30
0.0
  0
SEQEND
  5
2EFFD
  8
0
  0
POLYLINE
  5
21979
  8
0
 66
     1
 10
0.0
 20
0.0
 30
0.0
  0
VERTEX
  5
2EFFE
  8
0
 10
367.2781641143489
 20
484.98160682292843
 30
0.0
  0
VERTEX
  5
2EFFF
  8
0
 10
367.60273801002103
 20
485.06245147618569
 30
0.0
  0
VERTEX
  5
2F000
  8
0
 10
368.21229858879292
 20
485.1770618149385
 30
0.0
  0
VERTEX
  5
2F001
  8
0
 10
368.79470676036863
 20
485.23383639872372
 30
0.0
  0
VERTEX
  5
2F002
  8
0
 10
369.08478933168811
 20
485.24102653234331
 30
0.0
  0
SEQEND
  5
2F003
  8
0
  0
LINE
  5
2197D
  8
0
 10
370.89141454902727
 20
480.80044624175929
 30
0.0
 11
370.89141454902727
 21
484.98160682292843
 31
0.0
  0
POLYLINE
  5
2197F
  8
0
 66
     1
 10
0.0
 20
0.0
 30
0.0
  0
VERTEX
  5
2F004
  8
0
 10
363.66491367967052
 20
485.24102653234331
 30
0.0
  0
VERTEX
  5
2F005
  8
0
 10
364.24507882230938
 20
485.23383639872372
 30
0.0
  0
VERTEX
  5
2F006
  8
0
 10
365.40989516546068
 20
485.1770618149385
 30
0.0
  0
VERTEX
  5
2F007
  8
0
 10
366.62901632300452
 20
485.06245147618569
 30
0.0
  0
VERTEX
  5
2F008
  8
0
 10
367.2781641143489
 20
484.98160682292843
 30
0.0
  0
SEQEND
  5
2F009
  8
0
  0
LINE
  5
21980
  8
0
 10
367.2781641143489
 20
480.80044624175929
 30
0.0
 11
367.2781641143489
 21
484.98160682292843
 31
0.0
  0
POLYLINE
  5
21981
  8
0
 66
     1
 10
0.0
 20
0.0
 30
0.0
  0
VERTEX
  5
2F00A
  8
0
 10
367.2781641143489
 20
480.80044624175929
 30
0.0
  0
VERTEX
  5
2F00B
  8
0
 10
366.62901632300452
 20
480.71960158850021
 30
0.0
  0
VERTEX
  5
2F00C
  8
0
 10
365.40989516546068
 20
480.60499124974729
 30
0.0
  0
VERTEX
  5
2F00D
  8
0
 10
364.24507882230938
 20
480.54821666596303
 30
0.0
  0
VERTEX
  5
2F00E
  8
0
 10
363.66491367967052
 20
480.54102653234349
 30
0.0
  0
SEQEND
  5
2F00F
  8
0
  0
POLYLINE
  5
21982
  8
0
 66
     1
 10
0.0
 20
0.0
 30
0.0
  0
VERTEX
  5
2F010
  8
0
 10
363.66491367967052
 20
480.54102653234349
 30
0.0
  0
VERTEX
  5
2F011
  8
0
 10
363.08474853703149
 20
480.54821666596303
 30
0.0
  0
VERTEX
  5
2F012
  8
0
 10
361.91993219388019
 20
480.60499124974729
 30
0.0
  0
VERTEX
  5
2F013
  8
0
 10
360.70081103633652
 20
480.71960158850021
 30
0.0
  0
VERTEX
  5
2F014
  8
0
 10
360.05166324499203
 20
480.80044624175929
 30
0.0
  0
SEQEND
  5
2F015
  8
0
  0
LINE
  5
21983
  8
0
 10
360.05166324499203
 20
480.80044624175929
 30
0.0
 11
360.05166324499203
 21
484.98160682292843
 31
0.0
  0
POLYLINE
  5
21984
  8
0
 66
     1
 10
0.0
 20
0.0
 30
0.0
  0
VERTEX
  5
2F016
  8
0
 10
360.05166324499203
 20
484.98160682292843
 30
0.0
  0
VERTEX
  5
2F017
  8
0
 10
360.70081103633652
 20
485.06245147618569
 30
0.0
  0
VERTEX
  5
2F018
  8
0
 10
361.91993219388019
 20
485.1770618149385
 30
0.0
  0
VERTEX
  5
2F019
  8
0
 10
363.08474853703149
 20
485.23383639872372
 30
0.0
  0
VERTEX
  5
2F01A
  8
0
 10
363.66491367967052
 20
485.24102653234331
 30
0.0
  0
SEQEND
  5
2F01B
  8
0
  0
LINE
  5
21985
  8
0
 10
369.47991367967052
 20
542.84102653234356
 30
0.0
 11
357.84991367967041
 21
542.84102653234356
 31
0.0
  0
LINE
  5
21986
  8
0
 10
369.92324701300379
 20
540.34102653234368
 30
0.0
 11
357.40658034633708
 21
540.34102653234368
 31
0.0
  0
POLYLINE
  5
21987
  8
0
 66
     1
 10
0.0
 20
0.0
 30
0.0
  0
VERTEX
  5
2F01C
  8
0
 10
360.05166324499203
 20
535.10044624175862
 30
0.0
  0
VERTEX
  5
2F01D
  8
0
 10
359.72708934931978
 20
535.01960158850125
 30
0.0
  0
VERTEX
  5
2F01E
  8
0
 10
359.11752877054801
 20
534.90499124974747
 30
0.0
  0
VERTEX
  5
2F01F
  8
0
 10
358.5351205989723
 20
534.84821666596315
 30
0.0
  0
VERTEX
  5
2F020
  8
0
 10
358.24503802765281
 20
534.84102653234356
 30
0.0
  0
SEQEND
  5
2F021
  8
0
  0
POLYLINE
  5
21988
  8
0
 66
     1
 10
0.0
 20
0.0
 30
0.0
  0
VERTEX
  5
2F022
  8
0
 10
358.24503802765281
 20
534.84102653234356
 30
0.0
  0
VERTEX
  5
2F023
  8
0
 10
357.95495545633338
 20
534.84821666596315
 30
0.0
  0
VERTEX
  5
2F024
  8
0
 10
357.37254728475779
 20
534.90499124974747
 30
0.0
  0
VERTEX
  5
2F025
  8
0
 10
356.76298670598578
 20
535.01960158850125
 30
0.0
  0
VERTEX
  5
2F026
  8
0
 10
356.43841281031359
 20
535.10044624175862
 30
0.0
  0
SEQEND
  5
2F027
  8
0
  0
POLYLINE
  5
21989
  8
0
 66
     1
 10
0.0
 20
0.0
 30
0.0
  0
VERTEX
  5
2F028
  8
0
 10
356.43841281031359
 20
540.08160682292782
 30
0.0
  0
VERTEX
  5
2F029
  8
0
 10
356.76298670598578
 20
540.16245147618611
 30
0.0
  0
VERTEX
  5
2F02A
  8
0
 10
357.37254728475779
 20
540.27706181493875
 30
0.0
  0
VERTEX
  5
2F02B
  8
0
 10
357.95495545633338
 20
540.33383639872318
 30
0.0
  0
VERTEX
  5
2F02C
  8
0
 10
358.24503802765281
 20
540.34102653234368
 30
0.0
  0
SEQEND
  5
2F02D
  8
0
  0
POLYLINE
  5
2198A
  8
0
 66
     1
 10
0.0
 20
0.0
 30
0.0
  0
VERTEX
  5
2F02E
  8
0
 10
358.24503802765281
 20
540.34102653234368
 30
0.0
  0
VERTEX
  5
2F02F
  8
0
 10
358.5351205989723
 20
540.33383639872318
 30
0.0
  0
VERTEX
  5
2F030
  8
0
 10
359.11752877054801
 20
540.27706181493875
 30
0.0
  0
VERTEX
  5
2F031
  8
0
 10
359.72708934931978
 20
540.16245147618611
 30
0.0
  0
VERTEX
  5
2F032
  8
0
 10
360.05166324499203
 20
540.08160682292782
 30
0.0
  0
SEQEND
  5
2F033
  8
0
  0
LINE
  5
2198B
  8
0
 10
356.43841281031359
 20
535.10044624175862
 30
0.0
 11
356.43841281031359
 21
540.08160682292782
 31
0.0
  0
POLYLINE
  5
21994
  8
0
 66
     1
 10
0.0
 20
0.0
 30
0.0
  0
VERTEX
  5
2F034
  8
0
 10
369.08478933168811
 20
540.34102653234368
 30
0.0
  0
VERTEX
  5
2F035
  8
0
 10
369.3748719030076
 20
540.33383639872318
 30
0.0
  0
VERTEX
  5
2F036
  8
0
 10
369.9572800745832
 20
540.27706181493875
 30
0.0
  0
VERTEX
  5
2F037
  8
0
 10
370.56684065335509
 20
540.16245147618611
 30
0.0
  0
VERTEX
  5
2F038
  8
0
 10
370.89141454902727
 20
540.08160682292782
 30
0.0
  0
SEQEND
  5
2F039
  8
0
  0
POLYLINE
  5
21995
  8
0
 66
     1
 10
0.0
 20
0.0
 30
0.0
  0
VERTEX
  5
2F03A
  8
0
 10
370.89141454902727
 20
535.10044624175862
 30
0.0
  0
VERTEX
  5
2F03B
  8
0
 10
370.56684065335509
 20
535.01960158850125
 30
0.0
  0
VERTEX
  5
2F03C
  8
0
 10
369.9572800745832
 20
534.90499124974747
 30
0.0
  0
VERTEX
  5
2F03D
  8
0
 10
369.3748719030076
 20
534.84821666596315
 30
0.0
  0
VERTEX
  5
2F03E
  8
0
 10
369.08478933168811
 20
534.84102653234356
 30
0.0
  0
SEQEND
  5
2F03F
  8
0
  0
POLYLINE
  5
21996
  8
0
 66
     1
 10
0.0
 20
0.0
 30
0.0
  0
VERTEX
  5
2F040
  8
0
 10
369.08478933168811
 20
534.84102653234356
 30
0.0
  0
VERTEX
  5
2F041
  8
0
 10
368.79470676036863
 20
534.84821666596315
 30
0.0
  0
VERTEX
  5
2F042
  8
0
 10
368.21229858879292
 20
534.90499124974747
 30
0.0
  0
VERTEX
  5
2F043
  8
0
 10
367.60273801002103
 20
535.01960158850125
 30
0.0
  0
VERTEX
  5
2F044
  8
0
 10
367.2781641143489
 20
535.10044624175862
 30
0.0
  0
SEQEND
  5
2F045
  8
0
  0
POLYLINE
  5
21997
  8
0
 66
     1
 10
0.0
 20
0.0
 30
0.0
  0
VERTEX
  5
2F046
  8
0
 10
367.2781641143489
 20
540.08160682292782
 30
0.0
  0
VERTEX
  5
2F047
  8
0
 10
367.60273801002103
 20
540.16245147618611
 30
0.0
  0
VERTEX
  5
2F048
  8
0
 10
368.21229858879292
 20
540.27706181493875
 30
0.0
  0
VERTEX
  5
2F049
  8
0
 10
368.79470676036863
 20
540.33383639872318
 30
0.0
  0
VERTEX
  5
2F04A
  8
0
 10
369.08478933168811
 20
540.34102653234368
 30
0.0
  0
SEQEND
  5
2F04B
  8
0
  0
LINE
  5
2199B
  8
0
 10
370.89141454902727
 20
535.10044624175862
 30
0.0
 11
370.89141454902727
 21
540.08160682292782
 31
0.0
  0
POLYLINE
  5
2199D
  8
0
 66
     1
 10
0.0
 20
0.0
 30
0.0
  0
VERTEX
  5
2F04C
  8
0
 10
363.66491367967052
 20
540.34102653234368
 30
0.0
  0
VERTEX
  5
2F04D
  8
0
 10
364.24507882230938
 20
540.33383639872318
 30
0.0
  0
VERTEX
  5
2F04E
  8
0
 10
365.40989516546068
 20
540.27706181493875
 30
0.0
  0
VERTEX
  5
2F04F
  8
0
 10
366.62901632300441
 20
540.16245147618611
 30
0.0
  0
VERTEX
  5
2F050
  8
0
 10
367.2781641143489
 20
540.08160682292782
 30
0.0
  0
SEQEND
  5
2F051
  8
0
  0
LINE
  5
2199E
  8
0
 10
367.2781641143489
 20
535.10044624175862
 30
0.0
 11
367.2781641143489
 21
540.08160682292782
 31
0.0
  0
POLYLINE
  5
2199F
  8
0
 66
     1
 10
0.0
 20
0.0
 30
0.0
  0
VERTEX
  5
2F052
  8
0
 10
367.2781641143489
 20
535.10044624175862
 30
0.0
  0
VERTEX
  5
2F053
  8
0
 10
366.6290163230106
 20
535.01960158850125
 30
0.0
  0
VERTEX
  5
2F054
  8
0
 10
365.40989516547791
 20
534.90499124974838
 30
0.0
  0
VERTEX
  5
2F055
  8
0
 10
364.24507882233752
 20
534.84821666596417
 30
0.0
  0
VERTEX
  5
2F056
  8
0
 10
363.6649136797044
 20
534.84102653234356
 30
0.0
  0
SEQEND
  5
2F057
  8
0
  0
POLYLINE
  5
219A0
  8
0
 66
     1
 10
0.0
 20
0.0
 30
0.0
  0
VERTEX
  5
2F058
  8
0
 10
363.66491367967052
 20
534.84102653234356
 30
0.0
  0
VERTEX
  5
2F059
  8
0
 10
363.08474853703149
 20
534.84821666596315
 30
0.0
  0
VERTEX
  5
2F05A
  8
0
 10
361.91993219388019
 20
534.90499124974747
 30
0.0
  0
VERTEX
  5
2F05B
  8
0
 10
360.70081103633652
 20
535.01960158850125
 30
0.0
  0
VERTEX
  5
2F05C
  8
0
 10
360.05166324499203
 20
535.10044624175862
 30
0.0
  0
SEQEND
  5
2F05D
  8
0
  0
LINE
  5
219A1
  8
0
 10
360.05166324499203
 20
535.10044624175862
 30
0.0
 11
360.05166324499203
 21
540.08160682292782
 31
0.0
  0
POLYLINE
  5
219A2
  8
0
 66
     1
 10
0.0
 20
0.0
 30
0.0
  0
VERTEX
  5
2F05E
  8
0
 10
360.05166324499203
 20
540.08160682292782
 30
0.0
  0
VERTEX
  5
2F05F
  8
0
 10
360.70081103633652
 20
540.16245147618611
 30
0.0
  0
VERTEX
  5
2F060
  8
0
 10
361.91993219388019
 20
540.27706181493875
 30
0.0
  0
VERTEX
  5
2F061
  8
0
 10
363.08474853703149
 20
540.33383639872318
 30
0.0
  0
VERTEX
  5
2F062
  8
0
 10
363.66491367967052
 20
540.34102653234368
 30
0.0
  0
SEQEND
  5
2F063
  8
0
  0
LINE
  5
219AA
  8
1
 10
363.66491367967052
 20
467.25620689245437
 30
0.0
 11
363.66491367967052
 21
553.42584617223292
 31
0.0
  0
LINE
  5
219AB
  8
0
 10
301.16491367967052
 20
524.31501390780966
 30
0.0
 11
301.16491367967052
 21
496.36703915687758
 31
0.0
  0
LINE
  5
219AC
  8
0
 10
426.16491367967041
 20
496.36703915687758
 30
0.0
 11
426.16491367967041
 21
524.31501390780966
 31
0.0
  0
ARC
  5
219AD
  8
0
 10
423.66491367967041
 20
524.31501390780966
 30
0.0
 40
2.499999999999992
 50
0.0
 51
74.999999999999986
  0
ARC
  5
219AE
  8
0
 10
303.66491367967052
 20
524.31501390780966
 30
0.0
 40
2.499999999999992
 50
105.0
 51
180.0
  0
LINE
  5
219AF
  8
0
 10
307.16491367967041
 20
527.84102653234368
 30
0.0
 11
303.01786606691422
 21
526.7298284735316
 31
0.0
  0
LINE
  5
219B0
  8
0
 10
424.3119612924267
 20
526.7298284735316
 30
0.0
 11
420.16491367967041
 21
527.84102653234368
 31
0.0
  0
LINE
  5
219C6
  8
0
 10
303.01786606691422
 20
493.95222459115479
 30
0.0
 11
307.16491367967041
 21
492.84102653234362
 31
0.0
  0
LINE
  5
219C7
  8
0
 10
420.16491367967041
 20
492.84102653234362
 30
0.0
 11
424.3119612924267
 21
493.95222459115479
 31
0.0
  0
ARC
  5
219C8
  8
0
 10
423.66491367967041
 20
496.36703915687758
 30
0.0
 40
2.4999999999999778
 50
284.99999999999682
 51
0.0
  0
ARC
  5
219C9
  8
0
 10
303.66491367967041
 20
496.36703915687758
 30
0.0
 40
2.4999999999999778
 50
180.0
 51
255.0000000000025
  0
LINE
  5
219E5
  8
0
 10
426.16491367967041
 20
524.31501390780966
 30
0.0
 11
413.72497122920117
 21
524.31501390780966
 31
0.0
  0
LINE
  5
219E7
  8
0
 10
313.60485613013969
 20
524.31501390780966
 30
0.0
 11
301.16491367967052
 21
524.31501390780966
 31
0.0
  0
LINE
  5
219EB
  8
0
 10
420.16491367967041
 20
527.84102653234368
 30
0.0
 11
413.68131244114869
 21
527.84102653234368
 31
0.0
  0
LINE
  5
219EC
  8
0
 10
313.64851491819218
 20
527.84102653234368
 30
0.0
 11
307.16491367967041
 21
527.84102653234368
 31
0.0
  0
LINE
  5
219F1
  8
0
 10
420.16491367967041
 20
492.84102653234362
 30
0.0
 11
413.68131244114869
 21
492.84102653234362
 31
0.0
  0
LINE
  5
219F2
  8
0
 10
313.64851491819218
 20
492.84102653234362
 30
0.0
 11
307.16491367967041
 21
492.84102653234362
 31
0.0
  0
LINE
  5
219F3
  8
0
 10
426.16491367967041
 20
496.36703915687758
 30
0.0
 11
413.72497122920117
 21
496.36703915687758
 31
0.0
  0
LINE
  5
219F5
  8
0
 10
313.60485613013969
 20
496.36703915687758
 30
0.0
 11
301.16491367967052
 21
496.36703915687758
 31
0.0
  0
LINE
  5
22B66
  8
0
 10
360.05166324499208
 20
265.87573170702581
 30
0.0
 11
367.2781641143489
 21
265.87573170702581
 31
0.0
  0
LINE
  5
22B67
  8
0
 10
367.2781641143489
 20
265.87573170702581
 30
0.0
 11
370.89141454902727
 21
259.61739837369169
 31
0.0
  0
LINE
  5
22B68
  8
0
 10
370.89141454902727
 20
259.61739837369169
 30
0.0
 11
367.2781641143489
 21
253.3590650403585
 31
0.0
  0
LINE
  5
22B6F
  8
0
 10
360.05166324499203
 20
265.87573170702581
 30
0.0
 11
356.43841281031359
 21
259.61739837369169
 31
0.0
  0
LINE
  5
22B70
  8
0
 10
356.43841281031359
 20
259.61739837369169
 30
0.0
 11
360.05166324499203
 21
253.3590650403585
 31
0.0
  0
LINE
  5
22B71
  8
0
 10
360.05166324499203
 20
253.3590650403585
 30
0.0
 11
367.2781641143489
 21
253.3590650403585
 31
0.0
  0
LINE
  5
22BB1
  8
3
 10
366.89791367967052
 20
545.84102653234356
 30
0.0
 11
366.89791367967052
 21
542.84102653234356
 31
0.0
  0
LINE
  5
22BB2
  8
3
 10
360.4319136796704
 20
545.84102653234356
 30
0.0
 11
360.4319136796704
 21
542.84102653234356
 31
0.0
  0
LINE
  5
22BB3
  8
3
 10
614.06080472905296
 20
256.38439837369151
 30
0.0
 11
611.06080472905285
 21
256.38439837369151
 31
0.0
  0
LINE
  5
22BF5
  8
1
 10
578.56080472905285
 20
181.8692109414778
 30
0.0
 11
578.56080472905285
 21
373.36558580590548
 31
0.0
  0
LINE
  5
22BF8
  8
1
 10
285.91672624745661
 20
510.34102653234368
 30
0.0
 11
441.4131011118842
 21
510.34102653234368
 31
0.0
  0
LINE
  5
22BF9
  8
1
 10
390.30461636192922
 20
503.55806157422461
 30
0.0
 11
390.30461636192922
 21
517.1239914904636
 31
0.0
  0
LINE
  5
22BFC
  8
0
 10
189.26902263028799
 20
356.11739837369169
 30
0.0
 11
189.26902263028799
 21
272.92188280062868
 31
0.0
  0
LINE
  5
22BFD
  8
0
 10
189.26902263028799
 20
356.11739837369169
 30
0.0
 11
108.26902263028791
 21
356.11739837369169
 31
0.0
  0
LINE
  5
22BFE
  8
0
 10
171.26902263028791
 20
356.11739837369169
 30
0.0
 11
171.26902263028791
 21
248.11739837369171
 31
0.0
  0
LINE
  5
22BFF
  8
0
 10
108.26902263028791
 20
356.11739837369169
 30
0.0
 11
108.26902263028791
 21
272.92188280062868
 31
0.0
  0
LINE
  5
22C00
  8
0
 10
126.26902263028791
 20
356.11739837369169
 30
0.0
 11
126.26902263028791
 21
248.11739837369171
 31
0.0
  0
POLYLINE
  5
22C01
  8
0
 66
     1
 10
0.0
 20
0.0
 30
0.0
  0
VERTEX
  5
2F064
  8
0
 10
106.4599458439496
 20
270.17692345367692
 30
0.0
  0
VERTEX
  5
2F065
  8
0
 10
106.4475530266314
 20
270.24108767954658
 30
0.0
  0
VERTEX
  5
2F066
  8
0
 10
106.42425081579781
 20
270.37176364561952
 30
0.0
  0
VERTEX
  5
2F067
  8
0
 10
106.4028845603131
 20
270.50552824938592
 30
0.0
  0
VERTEX
  5
2F068
  8
0
 10
106.3929105793439
 20
270.57355187771827
 30
0.0
  0
VERTEX
  5
2F069
  8
0
 10
106.3833998103928
 20
270.64232667310438
 30
0.0
  0
VERTEX
  5
2F06A
  8
0
 10
106.3657376077801
 20
270.78209868627891
 30
0.0
  0
VERTEX
  5
2F06B
  8
0
 10
106.3498347621131
 20
270.92477920102277
 30
0.0
  0
VERTEX
  5
2F06C
  8
0
 10
106.3356241782877
 20
271.07029884374327
 30
0.0
  0
VERTEX
  5
2F06D
  8
0
 10
106.3230352243547
 20
271.21858454136873
 30
0.0
  0
VERTEX
  5
2F06E
  8
0
 10
106.31199413044691
 20
271.36956012105111
 30
0.0
  0
VERTEX
  5
2F06F
  8
0
 10
106.3070302232609
 20
271.44603211557211
 30
0.0
  0
VERTEX
  5
2F070
  8
0
 10
106.3024244101655
 20
271.52314692288201
 30
0.0
  0
VERTEX
  5
2F071
  8
0
 10
106.29424728437949
 20
271.67926468459518
 30
0.0
  0
VERTEX
  5
2F072
  8
0
 10
106.2873821117209
 20
271.83783281558323
 30
0.0
  0
VERTEX
  5
2F073
  8
0
 10
106.2817470776542
 20
271.99876430575932
 30
0.0
  0
VERTEX
  5
2F074
  8
0
 10
106.2772593904748
 20
272.16196757793841
 30
0.0
  0
VERTEX
  5
2F075
  8
0
 10
106.2738355903814
 20
272.32734759898449
 30
0.0
  0
VERTEX
  5
2F076
  8
0
 10
106.2724964729628
 20
272.41082336050022
 30
0.0
  0
VERTEX
  5
2F077
  8
0
 10
106.2713919113525
 20
272.49480633984689
 30
0.0
  0
VERTEX
  5
2F078
  8
0
 10
106.2698446522985
 20
272.6642432460348
 30
0.0
  0
VERTEX
  5
2F079
  8
0
 10
106.2691105522191
 20
272.83555572137448
 30
0.0
  0
VERTEX
  5
2F07A
  8
0
 10
106.26902263028791
 20
272.92188280062868
 30
0.0
  0
SEQEND
  5
2F07B
  8
0
  0
POLYLINE
  5
22C02
  8
0
 66
     1
 10
0.0
 20
0.0
 30
0.0
  0
VERTEX
  5
2F07C
  8
0
 10
109.63754357117431
 20
264.63677937985273
 30
0.0
  0
VERTEX
  5
2F07D
  8
0
 10
109.5034761201298
 20
264.7577389251046
 30
0.0
  0
VERTEX
  5
2F07E
  8
0
 10
109.2420019906688
 20
265.00682088077241
 30
0.0
  0
VERTEX
  5
2F07F
  8
0
 10
108.9896918368413
 20
265.26518134077378
 30
0.0
  0
VERTEX
  5
2F080
  8
0
 10
108.867076554159
 20
265.39773618025453
 30
0.0
  0
VERTEX
  5
2F081
  8
0
 10
108.74687469768379
 20
265.53248337583591
 30
0.0
  0
VERTEX
  5
2F082
  8
0
 10
108.5138672323414
 20
265.80837839592732
 30
0.0
  0
VERTEX
  5
2F083
  8
0
 10
108.29097330711009
 20
266.09250660486032
 30
0.0
  0
VERTEX
  5
2F084
  8
0
 10
108.0784835991637
 20
266.38449746950118
 30
0.0
  0
VERTEX
  5
2F085
  8
0
 10
107.8766752174801
 20
266.68397020298289
 30
0.0
  0
VERTEX
  5
2F086
  8
0
 10
107.6858113414615
 20
266.9905342612937
 30
0.0
  0
VERTEX
  5
2F087
  8
0
 10
107.594561942929
 20
267.14635094937421
 30
0.0
  0
VERTEX
  5
2F088
  8
0
 10
107.50614087772119
 20
267.30378985258631
 30
0.0
  0
VERTEX
  5
2F089
  8
0
 10
107.3378981354831
 20
267.62332845854871
 30
0.0
  0
VERTEX
  5
2F08A
  8
0
 10
107.1813025210176
 20
267.94873336715858
 30
0.0
  0
VERTEX
  5
2F08B
  8
0
 10
107.0365582515127
 20
268.2795802161109
 30
0.0
  0
VERTEX
  5
2F08C
  8
0
 10
106.90385408875331
 20
268.6154375462429
 30
0.0
  0
VERTEX
  5
2F08D
  8
0
 10
106.7833630929559
 20
268.95586736419142
 30
0.0
  0
VERTEX
  5
2F08E
  8
0
 10
106.72774726462281
 20
269.12765843688072
 30
0.0
  0
VERTEX
  5
2F08F
  8
0
 10
106.6752423970803
 20
269.3004257135899
 30
0.0
  0
VERTEX
  5
2F090
  8
0
 10
106.57963300191081
 20
269.64866325403
 30
0.0
  0
VERTEX
  5
2F091
  8
0
 10
106.4966595921768
 20
270.000125847052
 30
0.0
  0
VERTEX
  5
2F092
  8
0
 10
106.4599458439496
 20
270.17692345367692
 30
0.0
  0
SEQEND
  5
2F093
  8
0
  0
LINE
  5
22C03
  8
0
 10
126.26902263028791
 20
248.11739837369171
 30
0.0
 11
124.1489684321437
 21
248.11739837369171
 31
0.0
  0
POLYLINE
  5
22C04
  8
0
 66
     1
 10
0.0
 20
0.0
 30
0.0
  0
VERTEX
  5
2F094
  8
0
 10
126.16277820141229
 20
248.11739837369171
 30
0.0
  0
VERTEX
  5
2F095
  8
0
 10
126.1275905484321
 20
248.1217494149796
 30
0.0
  0
VERTEX
  5
2F096
  8
0
 10
126.04137208733481
 20
248.1569127282128
 30
0.0
  0
VERTEX
  5
2F097
  8
0
 10
125.9340593142482
 20
248.22784538723499
 30
0.0
  0
VERTEX
  5
2F098
  8
0
 10
125.8726133675879
 20
248.2767762378044
 30
0.0
  0
VERTEX
  5
2F099
  8
0
 10
125.8060927389177
 20
248.33464611156521
 30
0.0
  0
VERTEX
  5
2F09A
  8
0
 10
125.6583317398717
 20
248.47691911582839
 30
0.0
  0
VERTEX
  5
2F09B
  8
0
 10
125.4920543448072
 20
248.65379895306981
 30
0.0
  0
VERTEX
  5
2F09C
  8
0
 10
125.3089449630738
 20
248.86396445496391
 30
0.0
  0
VERTEX
  5
2F09D
  8
0
 10
125.11095647708591
 20
249.10579580055401
 30
0.0
  0
VERTEX
  5
2F09E
  8
0
 10
124.9002393978333
 20
249.3774756404782
 30
0.0
  0
VERTEX
  5
2F09F
  8
0
 10
124.790894429223
 20
249.52380552432439
 30
0.0
  0
VERTEX
  5
2F0A0
  8
0
 10
124.679343513815
 20
249.67671119725401
 30
0.0
  0
VERTEX
  5
2F0A1
  8
0
 10
124.4510476502856
 20
250.00089224564911
 30
0.0
  0
VERTEX
  5
2F0A2
  8
0
 10
124.2182916449768
 20
250.347131169101
 30
0.0
  0
VERTEX
  5
2F0A3
  8
0
 10
123.9841589970351
 20
250.71221368156151
 30
0.0
  0
VERTEX
  5
2F0A4
  8
0
 10
123.7517315297972
 20
251.09272874876569
 30
0.0
  0
VERTEX
  5
2F0A5
  8
0
 10
123.5177868339416
 20
251.4961243748057
 30
0.0
  0
VERTEX
  5
2F0A6
  8
0
 10
123.3997303305345
 20
251.70841832366111
 30
0.0
  0
VERTEX
  5
2F0A7
  8
0
 10
123.2815252450452
 20
251.92751830386439
 30
0.0
  0
VERTEX
  5
2F0A8
  8
0
 10
123.0464772711169
 20
252.38528252615831
 30
0.0
  0
VERTEX
  5
2F0A9
  8
0
 10
122.8163601300149
 20
252.86761947839841
 30
0.0
  0
VERTEX
  5
2F0AA
  8
0
 10
122.7043506839303
 20
253.11739837369171
 30
0.0
  0
SEQEND
  5
2F0AB
  8
0
  0
POLYLINE
  5
22C05
  8
0
 66
     1
 10
0.0
 20
0.0
 30
0.0
  0
VERTEX
  5
2F0AC
  8
0
 10
120.0912736415769
 20
253.11739837369171
 30
0.0
  0
VERTEX
  5
2F0AD
  8
0
 10
120.2270310925873
 20
252.87086198946599
 30
0.0
  0
VERTEX
  5
2F0AE
  8
0
 10
120.5042450352439
 20
252.39449144790339
 30
0.0
  0
VERTEX
  5
2F0AF
  8
0
 10
120.7853746207053
 20
251.94181001912511
 30
0.0
  0
VERTEX
  5
2F0B0
  8
0
 10
120.9260877692741
 20
251.7248693595775
 30
0.0
  0
VERTEX
  5
2F0B1
  8
0
 10
121.066229292952
 20
251.51446285296061
 30
0.0
  0
VERTEX
  5
2F0B2
  8
0
 10
121.3429033011648
 20
251.1140050206086
 30
0.0
  0
VERTEX
  5
2F0B3
  8
0
 10
121.6160829484721
 20
250.7360591967936
 30
0.0
  0
VERTEX
  5
2F0B4
  8
0
 10
121.89034710185661
 20
250.3723543687947
 30
0.0
  0
VERTEX
  5
2F0B5
  8
0
 10
122.1622940790606
 20
250.02625632112901
 30
0.0
  0
VERTEX
  5
2F0B6
  8
0
 10
122.4284398660118
 20
249.70111815914521
 30
0.0
  0
VERTEX
  5
2F0B7
  8
0
 10
122.558299139189
 20
249.54737327566269
 30
0.0
  0
VERTEX
  5
2F0B8
  8
0
 10
122.6854852404153
 20
249.39999376496331
 30
0.0
  0
VERTEX
  5
2F0B9
  8
0
 10
122.9303251069359
 20
249.12568297047159
 30
0.0
  0
VERTEX
  5
2F0BA
  8
0
 10
123.1601132667285
 20
248.88069221459861
 30
0.0
  0
VERTEX
  5
2F0BB
  8
0
 10
123.37245425712609
 20
248.6670660262908
 30
0.0
  0
VERTEX
  5
2F0BC
  8
0
 10
123.5651665773829
 20
248.4866612698988
 30
0.0
  0
VERTEX
  5
2F0BD
  8
0
 10
123.736345965141
 20
248.34105639208519
 30
0.0
  0
VERTEX
  5
2F0BE
  8
0
 10
123.8133861717249
 20
248.2816742068317
 30
0.0
  0
VERTEX
  5
2F0BF
  8
0
 10
123.8256565664842
 20
248.2726582048208
 30
0.0
  0
VERTEX
  5
2F0C0
  8
0
 10
123.8497037990936
 20
248.25538488609351
 30
0.0
  0
VERTEX
  5
2F0C1
  8
0
 10
123.8730893862287
 20
248.23912537048449
 30
0.0
  0
VERTEX
  5
2F0C2
  8
0
 10
123.8845328001794
 20
248.23137653892809
 30
0.0
  0
VERTEX
  5
2F0C3
  8
0
 10
123.8958093294651
 20
248.2238820122293
 30
0.0
  0
VERTEX
  5
2F0C4
  8
0
 10
123.91785996862281
 20
248.20965679252461
 30
0.0
  0
VERTEX
  5
2F0C5
  8
0
 10
123.93923799469771
 20
248.19645130379291
 30
0.0
  0
VERTEX
  5
2F0C6
  8
0
 10
123.9599404617985
 20
248.18426673538761
 30
0.0
  0
VERTEX
  5
2F0C7
  8
0
 10
123.9799647980476
 20
248.17310386075769
 30
0.0
  0
VERTEX
  5
2F0C8
  8
0
 10
123.99930881540671
 20
248.1629630261414
 30
0.0
  0
VERTEX
  5
2F0C9
  8
0
 10
124.008725127864
 20
248.15827586279011
 30
0.0
  0
VERTEX
  5
2F0CA
  8
0
 10
124.01797071838941
 20
248.1538441408174
 30
0.0
  0
VERTEX
  5
2F0CB
  8
0
 10
124.03594911162639
 20
248.14574666898079
 30
0.0
  0
VERTEX
  5
2F0CC
  8
0
 10
124.05324300624829
 20
248.1386696232621
 30
0.0
  0
VERTEX
  5
2F0CD
  8
0
 10
124.0698518250547
 20
248.13261155996139
 30
0.0
  0
VERTEX
  5
2F0CE
  8
0
 10
124.0857754064411
 20
248.12757057602809
 30
0.0
  0
VERTEX
  5
2F0CF
  8
0
 10
124.1010140070555
 20
248.12354430782941
 30
0.0
  0
VERTEX
  5
2F0D0
  8
0
 10
124.1083766345036
 20
248.1219108276637
 30
0.0
  0
VERTEX
  5
2F0D1
  8
0
 10
124.1155683031603
 20
248.12052993175081
 30
0.0
  0
VERTEX
  5
2F0D2
  8
0
 10
124.1294393906782
 20
248.1185241666754
 30
0.0
  0
VERTEX
  5
2F0D3
  8
0
 10
124.1426287839014
 20
248.1175232783753
 30
0.0
  0
VERTEX
  5
2F0D4
  8
0
 10
124.1489684321437
 20
248.11739837369171
 30
0.0
  0
SEQEND
  5
2F0D5
  8
0
  0
POLYLINE
  5
22C06
  8
0
 66
     1
 10
0.0
 20
0.0
 30
0.0
  0
VERTEX
  5
2F0D6
  8
0
 10
122.7043506839303
 20
253.11739837369171
 30
0.0
  0
VERTEX
  5
2F0D7
  8
0
 10
122.5866014541278
 20
253.38282602853729
 30
0.0
  0
VERTEX
  5
2F0D8
  8
0
 10
122.3460621769492
 20
253.90684400245661
 30
0.0
  0
VERTEX
  5
2F0D9
  8
0
 10
122.0988999309386
 20
254.4215329774988
 30
0.0
  0
VERTEX
  5
2F0DA
  8
0
 10
121.9728727473194
 20
254.67530045035801
 30
0.0
  0
VERTEX
  5
2F0DB
  8
0
 10
121.8452352834589
 20
254.92664188500751
 30
0.0
  0
VERTEX
  5
2F0DC
  8
0
 10
121.58519197378661
 20
255.42192432955019
 30
0.0
  0
VERTEX
  5
2F0DD
  8
0
 10
121.318896852752
 20
255.90713870910619
 30
0.0
  0
VERTEX
  5
2F0DE
  8
0
 10
121.0464798208593
 20
256.3820483329219
 30
0.0
  0
VERTEX
  5
2F0DF
  8
0
 10
120.7680737649214
 20
256.84642153697132
 30
0.0
  0
VERTEX
  5
2F0E0
  8
0
 10
120.4838144932361
 20
257.3000317969645
 30
0.0
  0
VERTEX
  5
2F0E1
  8
0
 10
120.33953312415019
 20
257.52273146674088
 30
0.0
  0
VERTEX
  5
2F0E2
  8
0
 10
120.1938406693382
 20
257.74265783884402
 30
0.0
  0
VERTEX
  5
2F0E3
  8
0
 10
119.8982937443586
 20
258.17408374672868
 30
0.0
  0
VERTEX
  5
2F0E4
  8
0
 10
119.5973178880235
 20
258.59409906823288
 30
0.0
  0
VERTEX
  5
2F0E5
  8
0
 10
119.29105991832731
 20
259.00249891713162
 30
0.0
  0
VERTEX
  5
2F0E6
  8
0
 10
118.9796692299137
 20
259.39908407330398
 30
0.0
  0
VERTEX
  5
2F0E7
  8
0
 10
118.66329772120049
 20
259.78366107991133
 30
0.0
  0
VERTEX
  5
2F0E8
  8
0
 10
118.50329229390231
 20
259.97138767104849
 30
0.0
  0
VERTEX
  5
2F0E9
  8
0
 10
118.34209972028189
 20
260.15604233777231
 30
0.0
  0
VERTEX
  5
2F0EA
  8
0
 10
118.0162319096472
 20
260.51604619686981
 30
0.0
  0
VERTEX
  5
2F0EB
  8
0
 10
117.685853249749
 20
260.86349704496121
 30
0.0
  0
VERTEX
  5
2F0EC
  8
0
 10
117.51902263028791
 20
261.03246188315279
 30
0.0
  0
SEQEND
  5
2F0ED
  8
0
  0
LINE
  5
22C07
  8
0
 10
117.51902263028791
 20
261.03246188315279
 30
0.0
 11
115.98577294545269
 21
262.56571156798782
 31
0.0
  0
LINE
  5
22C08
  8
0
 10
111.98577294545269
 20
262.56571156798782
 30
0.0
 11
116.51902263028791
 21
258.03246188315279
 31
0.0
  0
POLYLINE
  5
22C09
  8
0
 66
     1
 10
0.0
 20
0.0
 30
0.0
  0
VERTEX
  5
2F0EE
  8
0
 10
116.51902263028791
 20
258.03246188315279
 30
0.0
  0
VERTEX
  5
2F0EF
  8
0
 10
116.6289098251284
 20
257.92153100559432
 30
0.0
  0
VERTEX
  5
2F0F0
  8
0
 10
116.8470891296293
 20
257.69500266100289
 30
0.0
  0
VERTEX
  5
2F0F1
  8
0
 10
117.06309274471791
 20
257.46230321440453
 30
0.0
  0
VERTEX
  5
2F0F2
  8
0
 10
117.170260465135
 20
257.34365884889388
 30
0.0
  0
VERTEX
  5
2F0F3
  8
0
 10
117.27686249350479
 20
257.22349533942543
 30
0.0
  0
VERTEX
  5
2F0F4
  8
0
 10
117.4883408007549
 20
256.9786433548943
 30
0.0
  0
VERTEX
  5
2F0F5
  8
0
 10
117.6974707083936
 20
256.72781320751528
 30
0.0
  0
VERTEX
  5
2F0F6
  8
0
 10
117.9041958908477
 20
256.47107245411007
 30
0.0
  0
VERTEX
  5
2F0F7
  8
0
 10
118.1084606702159
 20
256.20849024342169
 30
0.0
  0
VERTEX
  5
2F0F8
  8
0
 10
118.31021003126401
 20
255.94013729748809
 30
0.0
  0
VERTEX
  5
2F0F9
  8
0
 10
118.4101244225057
 20
255.8038193249613
 30
0.0
  0
VERTEX
  5
2F0FA
  8
0
 10
118.5093896362432
 20
255.66608589259801
 30
0.0
  0
VERTEX
  5
2F0FB
  8
0
 10
118.7059458395247
 20
255.38640983982259
 30
0.0
  0
VERTEX
  5
2F0FC
  8
0
 10
118.8998257020481
 20
255.10118446513661
 30
0.0
  0
VERTEX
  5
2F0FD
  8
0
 10
119.0909770055796
 20
254.8104865891282
 30
0.0
  0
VERTEX
  5
2F0FE
  8
0
 10
119.2793482667764
 20
254.5143945063119
 30
0.0
  0
VERTEX
  5
2F0FF
  8
0
 10
119.4648887510526
 20
254.21298796403971
 30
0.0
  0
VERTEX
  5
2F100
  8
0
 10
119.5565818053925
 20
254.06031708363659
 30
0.0
  0
VERTEX
  5
2F101
  8
0
 10
119.64754848624371
 20
253.9063481410212
 30
0.0
  0
VERTEX
  5
2F102
  8
0
 10
119.8272782760662
 20
253.59455762546261
 30
0.0
  0
VERTEX
  5
2F103
  8
0
 10
120.0040297133668
 20
253.27770039282041
 30
0.0
  0
VERTEX
  5
2F104
  8
0
 10
120.0912736415769
 20
253.11739837369171
 30
0.0
  0
SEQEND
  5
2F105
  8
0
  0
POLYLINE
  5
22C0A
  8
0
 66
     1
 10
0.0
 20
0.0
 30
0.0
  0
VERTEX
  5
2F106
  8
0
 10
115.9857729454526
 20
262.56571156798782
 30
0.0
  0
VERTEX
  5
2F107
  8
0
 10
115.9223977204507
 20
262.62855794563262
 30
0.0
  0
VERTEX
  5
2F108
  8
0
 10
115.7932809054456
 20
262.75344414959272
 30
0.0
  0
VERTEX
  5
2F109
  8
0
 10
115.6610317672779
 20
262.87723296059721
 30
0.0
  0
VERTEX
  5
2F10A
  8
0
 10
115.59374129362151
 20
262.9387076514559
 30
0.0
  0
VERTEX
  5
2F10B
  8
0
 10
115.5256782814207
 20
262.99989819283752
 30
0.0
  0
VERTEX
  5
2F10C
  8
0
 10
115.3872490800287
 20
263.12141389818322
 30
0.0
  0
VERTEX
  5
2F10D
  8
0
 10
115.2457734458814
 20
263.2417543716719
 30
0.0
  0
VERTEX
  5
2F10E
  8
0
 10
115.10128130618951
 20
263.36089415694192
 30
0.0
  0
VERTEX
  5
2F10F
  8
0
 10
114.9538032262632
 20
263.47880805162367
 30
0.0
  0
VERTEX
  5
2F110
  8
0
 10
114.803370403047
 20
263.59547111266511
 30
0.0
  0
VERTEX
  5
2F111
  8
0
 10
114.7270558828415
 20
263.65332585807482
 30
0.0
  0
VERTEX
  5
2F112
  8
0
 10
114.6500146585207
 20
263.71085866161229
 30
0.0
  0
VERTEX
  5
2F113
  8
0
 10
114.4937684329673
 20
263.8249462898284
 30
0.0
  0
VERTEX
  5
2F114
  8
0
 10
114.3346647781111
 20
263.93770986365598
 30
0.0
  0
VERTEX
  5
2F115
  8
0
 10
114.1727373501262
 20
264.04912552952192
 30
0.0
  0
VERTEX
  5
2F116
  8
0
 10
114.00802040251649
 20
264.15916971898878
 30
0.0
  0
VERTEX
  5
2F117
  8
0
 10
113.8405487788703
 20
264.26781915372982
 30
0.0
  0
VERTEX
  5
2F118
  8
0
 10
113.7557910116946
 20
264.32161364414418
 30
0.0
  0
VERTEX
  5
2F119
  8
0
 10
113.6703579054893
 20
264.37505085046359
 30
0.0
  0
VERTEX
  5
2F11A
  8
0
 10
113.49748378389511
 20
264.48084212581028
 30
0.0
  0
VERTEX
  5
2F11B
  8
0
 10
113.3219629832129
 20
264.58517060109079
 30
0.0
  0
VERTEX
  5
2F11C
  8
0
 10
113.2332216593685
 20
264.63677937985273
 30
0.0
  0
SEQEND
  5
2F11D
  8
0
  0
POLYLINE
  5
22C0B
  8
0
 66
     1
 10
0.0
 20
0.0
 30
0.0
  0
VERTEX
  5
2F11E
  8
0
 10
109.63754357117431
 20
264.63677937985273
 30
0.0
  0
VERTEX
  5
2F11F
  8
0
 10
109.8981742029876
 20
264.4064572144834
 30
0.0
  0
VERTEX
  5
2F120
  8
0
 10
110.4349799660742
 20
263.93647975971999
 30
0.0
  0
VERTEX
  5
2F121
  8
0
 10
110.98805328197351
 20
263.46024400768601
 30
0.0
  0
VERTEX
  5
2F122
  8
0
 10
111.26902263028791
 20
263.2222351894552
 30
0.0
  0
SEQEND
  5
2F123
  8
0
  0
POLYLINE
  5
22C0C
  8
0
 66
     1
 10
0.0
 20
0.0
 30
0.0
  0
VERTEX
  5
2F124
  8
0
 10
111.26902263028779
 20
263.2222351894552
 30
0.0
  0
VERTEX
  5
2F125
  8
0
 10
111.3945779950282
 20
263.11507600737241
 30
0.0
  0
VERTEX
  5
2F126
  8
0
 10
111.63843295909039
 20
262.89798920906929
 30
0.0
  0
VERTEX
  5
2F127
  8
0
 10
111.8724781979313
 20
262.67733253482493
 30
0.0
  0
VERTEX
  5
2F128
  8
0
 10
111.9857729454526
 20
262.56571156798782
 30
0.0
  0
SEQEND
  5
2F129
  8
0
  0
LINE
  5
22C0D
  8
0
 10
113.2332216593685
 20
264.63677937985273
 30
0.0
 11
112.26902263028779
 21
265.19345994884497
 31
0.0
  0
POLYLINE
  5
22C0E
  8
0
 66
     1
 10
0.0
 20
0.0
 30
0.0
  0
VERTEX
  5
2F12A
  8
0
 10
112.26902263028791
 20
265.19345994884497
 30
0.0
  0
VERTEX
  5
2F12B
  8
0
 10
112.115750431923
 20
265.28424187819928
 30
0.0
  0
VERTEX
  5
2F12C
  8
0
 10
111.81545908122909
 20
265.4759298324916
 30
0.0
  0
VERTEX
  5
2F12D
  8
0
 10
111.52399964579099
 20
265.6807970202417
 30
0.0
  0
VERTEX
  5
2F12E
  8
0
 10
111.3817632360185
 20
265.7880468651083
 30
0.0
  0
VERTEX
  5
2F12F
  8
0
 10
111.24195012230869
 20
265.89843716687301
 30
0.0
  0
VERTEX
  5
2F130
  8
0
 10
110.96986984657281
 20
266.12841866760209
 30
0.0
  0
VERTEX
  5
2F131
  8
0
 10
110.7082983842396
 20
266.37028544335948
 30
0.0
  0
VERTEX
  5
2F132
  8
0
 10
110.4577544608111
 20
266.62355784524152
 30
0.0
  0
VERTEX
  5
2F133
  8
0
 10
110.2187349329449
 20
266.887733605714
 30
0.0
  0
VERTEX
  5
2F134
  8
0
 10
109.9917138031319
 20
267.16228883465828
 30
0.0
  0
VERTEX
  5
2F135
  8
0
 10
109.88284428179939
 20
267.30328937655031
 30
0.0
  0
VERTEX
  5
2F136
  8
0
 10
109.7771412796957
 20
267.44667905831011
 30
0.0
  0
VERTEX
  5
2F137
  8
0
 10
109.57544288397921
 20
267.74034029900758
 30
0.0
  0
VERTEX
  5
2F138
  8
0
 10
109.38701860648889
 20
268.04269019362351
 30
0.0
  0
VERTEX
  5
2F139
  8
0
 10
109.2122421136679
 20
268.35312914845957
 30
0.0
  0
VERTEX
  5
2F13A
  8
0
 10
109.05146000687409
 20
268.67104152830137
 30
0.0
  0
VERTEX
  5
2F13B
  8
0
 10
108.9049911350304
 20
268.99579687730051
 30
0.0
  0
VERTEX
  5
2F13C
  8
0
 10
108.83721605718949
 20
269.160539902381
 30
0.0
  0
VERTEX
  5
2F13D
  8
0
 10
108.77312596231231
 20
269.32675116923019
 30
0.0
  0
VERTEX
  5
2F13E
  8
0
 10
108.6561259921245
 20
269.66324808466652
 30
0.0
  0
VERTEX
  5
2F13F
  8
0
 10
108.5542232485102
 20
270.00462031254392
 30
0.0
  0
VERTEX
  5
2F140
  8
0
 10
108.5089976689698
 20
270.17692345367692
 30
0.0
  0
SEQEND
  5
2F141
  8
0
  0
POLYLINE
  5
22C0F
  8
0
 66
     1
 10
0.0
 20
0.0
 30
0.0
  0
VERTEX
  5
2F142
  8
0
 10
106.4599458439496
 20
270.17692345367692
 30
0.0
  0
VERTEX
  5
2F143
  8
0
 10
106.4966595921768
 20
270.000125847052
 30
0.0
  0
VERTEX
  5
2F144
  8
0
 10
106.57963300191081
 20
269.64866325403
 30
0.0
  0
VERTEX
  5
2F145
  8
0
 10
106.6752423970804
 20
269.3004257135899
 30
0.0
  0
VERTEX
  5
2F146
  8
0
 10
106.72774726462281
 20
269.12765843688072
 30
0.0
  0
VERTEX
  5
2F147
  8
0
 10
106.7833630929559
 20
268.95586736419142
 30
0.0
  0
VERTEX
  5
2F148
  8
0
 10
106.90385408875331
 20
268.6154375462429
 30
0.0
  0
VERTEX
  5
2F149
  8
0
 10
107.0365582515127
 20
268.2795802161109
 30
0.0
  0
VERTEX
  5
2F14A
  8
0
 10
107.1813025210176
 20
267.94873336715858
 30
0.0
  0
VERTEX
  5
2F14B
  8
0
 10
107.3378981354831
 20
267.62332845854871
 30
0.0
  0
VERTEX
  5
2F14C
  8
0
 10
107.50614087772119
 20
267.30378985258631
 30
0.0
  0
VERTEX
  5
2F14D
  8
0
 10
107.594561942929
 20
267.14635094937421
 30
0.0
  0
VERTEX
  5
2F14E
  8
0
 10
107.6858113414615
 20
266.9905342612937
 30
0.0
  0
VERTEX
  5
2F14F
  8
0
 10
107.8766752174801
 20
266.68397020298289
 30
0.0
  0
VERTEX
  5
2F150
  8
0
 10
108.0784835991637
 20
266.38449746950118
 30
0.0
  0
VERTEX
  5
2F151
  8
0
 10
108.29097330711009
 20
266.09250660486032
 30
0.0
  0
VERTEX
  5
2F152
  8
0
 10
108.5138672323414
 20
265.80837839592732
 30
0.0
  0
VERTEX
  5
2F153
  8
0
 10
108.74687469768389
 20
265.53248337583591
 30
0.0
  0
VERTEX
  5
2F154
  8
0
 10
108.867076554159
 20
265.39773618025453
 30
0.0
  0
VERTEX
  5
2F155
  8
0
 10
108.9896918368413
 20
265.26518134077378
 30
0.0
  0
VERTEX
  5
2F156
  8
0
 10
109.2420019906688
 20
265.00682088077241
 30
0.0
  0
VERTEX
  5
2F157
  8
0
 10
109.5034761201298
 20
264.7577389251046
 30
0.0
  0
VERTEX
  5
2F158
  8
0
 10
109.63754357117431
 20
264.63677937985273
 30
0.0
  0
SEQEND
  5
2F159
  8
0
  0
POLYLINE
  5
22C10
  8
0
 66
     1
 10
0.0
 20
0.0
 30
0.0
  0
VERTEX
  5
2F15A
  8
0
 10
108.5089976689698
 20
270.17692345367692
 30
0.0
  0
VERTEX
  5
2F15B
  8
0
 10
108.4927970144157
 20
270.24336846501859
 30
0.0
  0
VERTEX
  5
2F15C
  8
0
 10
108.4628358650787
 20
270.37689403005521
 30
0.0
  0
VERTEX
  5
2F15D
  8
0
 10
108.4359854671619
 20
270.51084301449009
 30
0.0
  0
VERTEX
  5
2F15E
  8
0
 10
108.4236434496291
 20
270.5779629432036
 30
0.0
  0
VERTEX
  5
2F15F
  8
0
 10
108.41187373050251
 20
270.64581744232328
 30
0.0
  0
VERTEX
  5
2F160
  8
0
 10
108.389978693888
 20
270.7839194992593
 30
0.0
  0
VERTEX
  5
2F161
  8
0
 10
108.37022047482699
 20
270.9251595091327
 30
0.0
  0
VERTEX
  5
2F162
  8
0
 10
108.3525271465618
 20
271.0694683666361
 30
0.0
  0
VERTEX
  5
2F163
  8
0
 10
108.33682131301281
 20
271.21677104059557
 30
0.0
  0
VERTEX
  5
2F164
  8
0
 10
108.3230205360825
 20
271.36698730336872
 30
0.0
  0
VERTEX
  5
2F165
  8
0
 10
108.31680752284061
 20
271.4431617191367
 30
0.0
  0
VERTEX
  5
2F166
  8
0
 10
108.31103782573319
 20
271.52003246519052
 30
0.0
  0
VERTEX
  5
2F167
  8
0
 10
108.3007821773211
 20
271.67581811319002
 30
0.0
  0
VERTEX
  5
2F168
  8
0
 10
108.2921591425298
 20
271.8342528558332
 30
0.0
  0
VERTEX
  5
2F169
  8
0
 10
108.2850714212927
 20
271.99524309176559
 30
0.0
  0
VERTEX
  5
2F16A
  8
0
 10
108.2794194449138
 20
272.15869448402191
 30
0.0
  0
VERTEX
  5
2F16B
  8
0
 10
108.2751021426611
 20
272.32450679341127
 30
0.0
  0
VERTEX
  5
2F16C
  8
0
 10
108.2734121011059
 20
272.408265352623
 30
0.0
  0
VERTEX
  5
2F16D
  8
0
 10
108.2720173542759
 20
272.49257414467138
 30
0.0
  0
VERTEX
  5
2F16E
  8
0
 10
108.27006225742809
 20
272.66278708274598
 30
0.0
  0
VERTEX
  5
2F16F
  8
0
 10
108.2691338840481
 20
272.83503315478902
 30
0.0
  0
VERTEX
  5
2F170
  8
0
 10
108.26902263028779
 20
272.92188280062868
 30
0.0
  0
SEQEND
  5
2F171
  8
0
  0
POLYLINE
  5
22C11
  8
0
 66
     1
 10
0.0
 20
0.0
 30
0.0
  0
VERTEX
  5
2F172
  8
0
 10
106.26902263028791
 20
272.92188280062868
 30
0.0
  0
VERTEX
  5
2F173
  8
0
 10
106.2691105522191
 20
272.83555572137448
 30
0.0
  0
VERTEX
  5
2F174
  8
0
 10
106.2698446522985
 20
272.6642432460348
 30
0.0
  0
VERTEX
  5
2F175
  8
0
 10
106.2713919113525
 20
272.49480633984689
 30
0.0
  0
VERTEX
  5
2F176
  8
0
 10
106.2724964729628
 20
272.41082336050022
 30
0.0
  0
VERTEX
  5
2F177
  8
0
 10
106.2738355903814
 20
272.32734759898449
 30
0.0
  0
VERTEX
  5
2F178
  8
0
 10
106.2772593904748
 20
272.16196757793841
 30
0.0
  0
VERTEX
  5
2F179
  8
0
 10
106.2817470776542
 20
271.99876430575932
 30
0.0
  0
VERTEX
  5
2F17A
  8
0
 10
106.2873821117209
 20
271.83783281558323
 30
0.0
  0
VERTEX
  5
2F17B
  8
0
 10
106.29424728437949
 20
271.67926468459518
 30
0.0
  0
VERTEX
  5
2F17C
  8
0
 10
106.3024244101655
 20
271.52314692288201
 30
0.0
  0
VERTEX
  5
2F17D
  8
0
 10
106.30703022326099
 20
271.44603211557211
 30
0.0
  0
VERTEX
  5
2F17E
  8
0
 10
106.31199413044691
 20
271.36956012105111
 30
0.0
  0
VERTEX
  5
2F17F
  8
0
 10
106.3230352243547
 20
271.21858454136873
 30
0.0
  0
VERTEX
  5
2F180
  8
0
 10
106.3356241782877
 20
271.07029884374327
 30
0.0
  0
VERTEX
  5
2F181
  8
0
 10
106.3498347621131
 20
270.92477920102277
 30
0.0
  0
VERTEX
  5
2F182
  8
0
 10
106.3657376077801
 20
270.78209868627891
 30
0.0
  0
VERTEX
  5
2F183
  8
0
 10
106.3833998103928
 20
270.64232667310438
 30
0.0
  0
VERTEX
  5
2F184
  8
0
 10
106.3929105793439
 20
270.57355187771827
 30
0.0
  0
VERTEX
  5
2F185
  8
0
 10
106.4028845603131
 20
270.50552824938592
 30
0.0
  0
VERTEX
  5
2F186
  8
0
 10
106.42425081579781
 20
270.37176364561952
 30
0.0
  0
VERTEX
  5
2F187
  8
0
 10
106.4475530266314
 20
270.24108767954658
 30
0.0
  0
VERTEX
  5
2F188
  8
0
 10
106.4599458439496
 20
270.17692345367692
 30
0.0
  0
SEQEND
  5
2F189
  8
0
  0
LINE
  5
22C12
  8
0
 10
106.26902263028791
 20
358.11739837369169
 30
0.0
 11
106.26902263028791
 21
272.92188280062868
 31
0.0
  0
POLYLINE
  5
22C13
  8
0
 66
     1
 10
0.0
 20
0.0
 30
0.0
  0
VERTEX
  5
2F18A
  8
0
 10
191.26902263028791
 20
272.92188280062868
 30
0.0
  0
VERTEX
  5
2F18B
  8
0
 10
191.26893470835671
 20
272.83555572137448
 30
0.0
  0
VERTEX
  5
2F18C
  8
0
 10
191.26820060827731
 20
272.6642432460348
 30
0.0
  0
VERTEX
  5
2F18D
  8
0
 10
191.26665334922311
 20
272.49480633984689
 30
0.0
  0
VERTEX
  5
2F18E
  8
0
 10
191.26554878761289
 20
272.41082336050022
 30
0.0
  0
VERTEX
  5
2F18F
  8
0
 10
191.2642096701945
 20
272.32734759898449
 30
0.0
  0
VERTEX
  5
2F190
  8
0
 10
191.26078587010099
 20
272.16196757793841
 30
0.0
  0
VERTEX
  5
2F191
  8
0
 10
191.25629818292171
 20
271.99876430575932
 30
0.0
  0
VERTEX
  5
2F192
  8
0
 10
191.25066314885501
 20
271.83783281558323
 30
0.0
  0
VERTEX
  5
2F193
  8
0
 10
191.24379797619639
 20
271.67926468459518
 30
0.0
  0
VERTEX
  5
2F194
  8
0
 10
191.2356208504103
 20
271.52314692288201
 30
0.0
  0
VERTEX
  5
2F195
  8
0
 10
191.23101503731479
 20
271.44603211557211
 30
0.0
  0
VERTEX
  5
2F196
  8
0
 10
191.22605113012889
 20
271.36956012105111
 30
0.0
  0
VERTEX
  5
2F197
  8
0
 10
191.21501003622109
 20
271.21858454136873
 30
0.0
  0
VERTEX
  5
2F198
  8
0
 10
191.20242108228811
 20
271.07029884374327
 30
0.0
  0
VERTEX
  5
2F199
  8
0
 10
191.18821049846269
 20
270.92477920102277
 30
0.0
  0
VERTEX
  5
2F19A
  8
0
 10
191.17230765279561
 20
270.78209868627891
 30
0.0
  0
VERTEX
  5
2F19B
  8
0
 10
191.15464545018301
 20
270.64232667310438
 30
0.0
  0
VERTEX
  5
2F19C
  8
0
 10
191.14513468123181
 20
270.57355187771827
 30
0.0
  0
VERTEX
  5
2F19D
  8
0
 10
191.13516070026259
 20
270.50552824938592
 30
0.0
  0
VERTEX
  5
2F19E
  8
0
 10
191.11379444477799
 20
270.37176364561952
 30
0.0
  0
VERTEX
  5
2F19F
  8
0
 10
191.0904922339443
 20
270.24108767954658
 30
0.0
  0
VERTEX
  5
2F1A0
  8
0
 10
191.07809941662609
 20
270.17692345367692
 30
0.0
  0
SEQEND
  5
2F1A1
  8
0
  0
POLYLINE
  5
22C14
  8
0
 66
     1
 10
0.0
 20
0.0
 30
0.0
  0
VERTEX
  5
2F1A2
  8
0
 10
191.07809941662609
 20
270.17692345367692
 30
0.0
  0
VERTEX
  5
2F1A3
  8
0
 10
191.04138566839899
 20
270.000125847052
 30
0.0
  0
VERTEX
  5
2F1A4
  8
0
 10
190.95841225866499
 20
269.64866325403
 30
0.0
  0
VERTEX
  5
2F1A5
  8
0
 10
190.86280286349549
 20
269.3004257135899
 30
0.0
  0
VERTEX
  5
2F1A6
  8
0
 10
190.81029799595279
 20
269.12765843688072
 30
0.0
  0
VERTEX
  5
2F1A7
  8
0
 10
190.7546821676199
 20
268.95586736419142
 30
0.0
  0
VERTEX
  5
2F1A8
  8
0
 10
190.63419117182249
 20
268.6154375462429
 30
0.0
  0
VERTEX
  5
2F1A9
  8
0
 10
190.50148700906311
 20
268.2795802161109
 30
0.0
  0
VERTEX
  5
2F1AA
  8
0
 10
190.3567427395582
 20
267.94873336715858
 30
0.0
  0
VERTEX
  5
2F1AB
  8
0
 10
190.2001471250926
 20
267.62332845854871
 30
0.0
  0
VERTEX
  5
2F1AC
  8
0
 10
190.03190438285449
 20
267.30378985258631
 30
0.0
  0
VERTEX
  5
2F1AD
  8
0
 10
189.94348331764681
 20
267.14635094937421
 30
0.0
  0
VERTEX
  5
2F1AE
  8
0
 10
189.85223391911421
 20
266.9905342612937
 30
0.0
  0
VERTEX
  5
2F1AF
  8
0
 10
189.6613700430957
 20
266.68397020298289
 30
0.0
  0
VERTEX
  5
2F1B0
  8
0
 10
189.4595616614119
 20
266.38449746950118
 30
0.0
  0
VERTEX
  5
2F1B1
  8
0
 10
189.24707195346571
 20
266.09250660486032
 30
0.0
  0
VERTEX
  5
2F1B2
  8
0
 10
189.0241780282345
 20
265.80837839592732
 30
0.0
  0
VERTEX
  5
2F1B3
  8
0
 10
188.79117056289189
 20
265.53248337583591
 30
0.0
  0
VERTEX
  5
2F1B4
  8
0
 10
188.6709687064168
 20
265.39773618025453
 30
0.0
  0
VERTEX
  5
2F1B5
  8
0
 10
188.5483534237346
 20
265.26518134077378
 30
0.0
  0
VERTEX
  5
2F1B6
  8
0
 10
188.29604326990699
 20
265.00682088077241
 30
0.0
  0
VERTEX
  5
2F1B7
  8
0
 10
188.034569140446
 20
264.7577389251046
 30
0.0
  0
VERTEX
  5
2F1B8
  8
0
 10
187.90050168940149
 20
264.63677937985273
 30
0.0
  0
SEQEND
  5
2F1B9
  8
0
  0
LINE
  5
22C15
  8
0
 10
173.389076828432
 20
248.11739837369171
 30
0.0
 11
171.26902263028791
 21
248.11739837369171
 31
0.0
  0
POLYLINE
  5
22C16
  8
0
 66
     1
 10
0.0
 20
0.0
 30
0.0
  0
VERTEX
  5
2F1BA
  8
0
 10
173.389076828432
 20
248.11739837369171
 30
0.0
  0
VERTEX
  5
2F1BB
  8
0
 10
173.3954164766744
 20
248.1175232783753
 30
0.0
  0
VERTEX
  5
2F1BC
  8
0
 10
173.4086058698974
 20
248.1185241666754
 30
0.0
  0
VERTEX
  5
2F1BD
  8
0
 10
173.42247695741551
 20
248.12052993175081
 30
0.0
  0
VERTEX
  5
2F1BE
  8
0
 10
173.4296686260721
 20
248.1219108276637
 30
0.0
  0
VERTEX
  5
2F1BF
  8
0
 10
173.4370312535203
 20
248.12354430782941
 30
0.0
  0
VERTEX
  5
2F1C0
  8
0
 10
173.45226985413461
 20
248.12757057602809
 30
0.0
  0
VERTEX
  5
2F1C1
  8
0
 10
173.4681934355211
 20
248.13261155996139
 30
0.0
  0
VERTEX
  5
2F1C2
  8
0
 10
173.48480225432749
 20
248.1386696232621
 30
0.0
  0
VERTEX
  5
2F1C3
  8
0
 10
173.50209614894939
 20
248.14574666898079
 30
0.0
  0
VERTEX
  5
2F1C4
  8
0
 10
173.52007454218639
 20
248.1538441408174
 30
0.0
  0
VERTEX
  5
2F1C5
  8
0
 10
173.52932013271169
 20
248.15827586279011
 30
0.0
  0
VERTEX
  5
2F1C6
  8
0
 10
173.53873644516921
 20
248.1629630261414
 30
0.0
  0
VERTEX
  5
2F1C7
  8
0
 10
173.5580804625281
 20
248.17310386075769
 30
0.0
  0
VERTEX
  5
2F1C8
  8
0
 10
173.5781047987773
 20
248.18426673538761
 30
0.0
  0
VERTEX
  5
2F1C9
  8
0
 10
173.59880726587809
 20
248.19645130379291
 30
0.0
  0
VERTEX
  5
2F1CA
  8
0
 10
173.62018529195299
 20
248.20965679252461
 30
0.0
  0
VERTEX
  5
2F1CB
  8
0
 10
173.64223593111069
 20
248.2238820122293
 30
0.0
  0
VERTEX
  5
2F1CC
  8
0
 10
173.65351246039651
 20
248.23137653892809
 30
0.0
  0
VERTEX
  5
2F1CD
  8
0
 10
173.66495587434721
 20
248.23912537048449
 30
0.0
  0
VERTEX
  5
2F1CE
  8
0
 10
173.6883414614822
 20
248.25538488609351
 30
0.0
  0
VERTEX
  5
2F1CF
  8
0
 10
173.7123886940916
 20
248.2726582048208
 30
0.0
  0
VERTEX
  5
2F1D0
  8
0
 10
173.72465908885101
 20
248.2816742068317
 30
0.0
  0
VERTEX
  5
2F1D1
  8
0
 10
173.8016992954347
 20
248.34105639208519
 30
0.0
  0
VERTEX
  5
2F1D2
  8
0
 10
173.9728786831929
 20
248.4866612698988
 30
0.0
  0
VERTEX
  5
2F1D3
  8
0
 10
174.16559100344961
 20
248.6670660262908
 30
0.0
  0
VERTEX
  5
2F1D4
  8
0
 10
174.37793199384711
 20
248.88069221459861
 30
0.0
  0
VERTEX
  5
2F1D5
  8
0
 10
174.60772015364
 20
249.12568297047159
 30
0.0
  0
VERTEX
  5
2F1D6
  8
0
 10
174.85256002016041
 20
249.39999376496331
 30
0.0
  0
VERTEX
  5
2F1D7
  8
0
 10
174.9797461213868
 20
249.54737327566269
 30
0.0
  0
VERTEX
  5
2F1D8
  8
0
 10
175.10960539456411
 20
249.70111815914521
 30
0.0
  0
VERTEX
  5
2F1D9
  8
0
 10
175.3757511815152
 20
250.02625632112901
 30
0.0
  0
VERTEX
  5
2F1DA
  8
0
 10
175.64769815871921
 20
250.3723543687947
 30
0.0
  0
VERTEX
  5
2F1DB
  8
0
 10
175.92196231210369
 20
250.7360591967936
 30
0.0
  0
VERTEX
  5
2F1DC
  8
0
 10
176.19514195941099
 20
251.1140050206086
 30
0.0
  0
VERTEX
  5
2F1DD
  8
0
 10
176.4718159676238
 20
251.51446285296061
 30
0.0
  0
VERTEX
  5
2F1DE
  8
0
 10
176.61195749130169
 20
251.7248693595775
 30
0.0
  0
VERTEX
  5
2F1DF
  8
0
 10
176.7526706398705
 20
251.94181001912511
 30
0.0
  0
VERTEX
  5
2F1E0
  8
0
 10
177.0338002253319
 20
252.39449144790339
 30
0.0
  0
VERTEX
  5
2F1E1
  8
0
 10
177.3110141679885
 20
252.87086198946599
 30
0.0
  0
VERTEX
  5
2F1E2
  8
0
 10
177.44677161899889
 20
253.11739837369171
 30
0.0
  0
SEQEND
  5
2F1E3
  8
0
  0
POLYLINE
  5
22C17
  8
0
 66
     1
 10
0.0
 20
0.0
 30
0.0
  0
VERTEX
  5
2F1E4
  8
0
 10
174.83369457664551
 20
253.11739837369171
 30
0.0
  0
VERTEX
  5
2F1E5
  8
0
 10
174.7216851305609
 20
252.86761947839841
 30
0.0
  0
VERTEX
  5
2F1E6
  8
0
 10
174.4915679894589
 20
252.38528252615831
 30
0.0
  0
VERTEX
  5
2F1E7
  8
0
 10
174.25652001553041
 20
251.92751830386439
 30
0.0
  0
VERTEX
  5
2F1E8
  8
0
 10
174.13831493004119
 20
251.70841832366111
 30
0.0
  0
VERTEX
  5
2F1E9
  8
0
 10
174.0202584266342
 20
251.4961243748057
 30
0.0
  0
VERTEX
  5
2F1EA
  8
0
 10
173.7863137307786
 20
251.09272874876569
 30
0.0
  0
VERTEX
  5
2F1EB
  8
0
 10
173.55388626354079
 20
250.71221368156151
 30
0.0
  0
VERTEX
  5
2F1EC
  8
0
 10
173.31975361559901
 20
250.347131169101
 30
0.0
  0
VERTEX
  5
2F1ED
  8
0
 10
173.0869976102901
 20
250.00089224564911
 30
0.0
  0
VERTEX
  5
2F1EE
  8
0
 10
172.85870174676069
 20
249.67671119725401
 30
0.0
  0
VERTEX
  5
2F1EF
  8
0
 10
172.74715083135271
 20
249.52380552432439
 30
0.0
  0
VERTEX
  5
2F1F0
  8
0
 10
172.6378058627424
 20
249.3774756404782
 30
0.0
  0
VERTEX
  5
2F1F1
  8
0
 10
172.42708878348981
 20
249.10579580055401
 30
0.0
  0
VERTEX
  5
2F1F2
  8
0
 10
172.22910029750199
 20
248.86396445496391
 30
0.0
  0
VERTEX
  5
2F1F3
  8
0
 10
172.04599091576841
 20
248.65379895306981
 30
0.0
  0
VERTEX
  5
2F1F4
  8
0
 10
171.87971352070389
 20
248.47691911582839
 30
0.0
  0
VERTEX
  5
2F1F5
  8
0
 10
171.731952521658
 20
248.33464611156521
 30
0.0
  0
VERTEX
  5
2F1F6
  8
0
 10
171.6654318929877
 20
248.2767762378044
 30
0.0
  0
VERTEX
  5
2F1F7
  8
0
 10
171.60398594632761
 20
248.22784538723499
 30
0.0
  0
VERTEX
  5
2F1F8
  8
0
 10
171.49667317324099
 20
248.1569127282128
 30
0.0
  0
VERTEX
  5
2F1F9
  8
0
 10
171.41045471214369
 20
248.1217494149796
 30
0.0
  0
VERTEX
  5
2F1FA
  8
0
 10
171.37526705916341
 20
248.11739837369171
 30
0.0
  0
SEQEND
  5
2F1FB
  8
0
  0
POLYLINE
  5
22C18
  8
0
 66
     1
 10
0.0
 20
0.0
 30
0.0
  0
VERTEX
  5
2F1FC
  8
0
 10
180.01902263028791
 20
261.03246188315279
 30
0.0
  0
VERTEX
  5
2F1FD
  8
0
 10
179.8521920108268
 20
260.86349704496121
 30
0.0
  0
VERTEX
  5
2F1FE
  8
0
 10
179.5218133509286
 20
260.51604619686981
 30
0.0
  0
VERTEX
  5
2F1FF
  8
0
 10
179.19594554029391
 20
260.15604233777231
 30
0.0
  0
VERTEX
  5
2F200
  8
0
 10
179.03475296667349
 20
259.97138767104849
 30
0.0
  0
VERTEX
  5
2F201
  8
0
 10
178.87474753937539
 20
259.78366107991133
 30
0.0
  0
VERTEX
  5
2F202
  8
0
 10
178.5583760306622
 20
259.39908407330398
 30
0.0
  0
VERTEX
  5
2F203
  8
0
 10
178.24698534224851
 20
259.00249891713162
 30
0.0
  0
VERTEX
  5
2F204
  8
0
 10
177.9407273725522
 20
258.59409906823288
 30
0.0
  0
VERTEX
  5
2F205
  8
0
 10
177.63975151621699
 20
258.17408374672868
 30
0.0
  0
VERTEX
  5
2F206
  8
0
 10
177.34420459123771
 20
257.74265783884402
 30
0.0
  0
VERTEX
  5
2F207
  8
0
 10
177.19851213642551
 20
257.52273146674088
 30
0.0
  0
VERTEX
  5
2F208
  8
0
 10
177.0542307673397
 20
257.3000317969645
 30
0.0
  0
VERTEX
  5
2F209
  8
0
 10
176.7699714956544
 20
256.84642153697132
 30
0.0
  0
VERTEX
  5
2F20A
  8
0
 10
176.4915654397164
 20
256.3820483329219
 30
0.0
  0
VERTEX
  5
2F20B
  8
0
 10
176.21914840782381
 20
255.90713870910619
 30
0.0
  0
VERTEX
  5
2F20C
  8
0
 10
175.95285328678909
 20
255.42192432955019
 30
0.0
  0
VERTEX
  5
2F20D
  8
0
 10
175.69280997711689
 20
254.92664188500751
 30
0.0
  0
VERTEX
  5
2F20E
  8
0
 10
175.5651725132563
 20
254.67530045035801
 30
0.0
  0
VERTEX
  5
2F20F
  8
0
 10
175.43914532963711
 20
254.4215329774988
 30
0.0
  0
VERTEX
  5
2F210
  8
0
 10
175.19198308362661
 20
253.90684400245661
 30
0.0
  0
VERTEX
  5
2F211
  8
0
 10
174.951443806448
 20
253.38282602853729
 30
0.0
  0
VERTEX
  5
2F212
  8
0
 10
174.83369457664551
 20
253.11739837369171
 30
0.0
  0
SEQEND
  5
2F213
  8
0
  0
POLYLINE
  5
22C19
  8
0
 66
     1
 10
0.0
 20
0.0
 30
0.0
  0
VERTEX
  5
2F214
  8
0
 10
177.44677161899889
 20
253.11739837369171
 30
0.0
  0
VERTEX
  5
2F215
  8
0
 10
177.53401554720901
 20
253.27770039282041
 30
0.0
  0
VERTEX
  5
2F216
  8
0
 10
177.71076698450969
 20
253.59455762546261
 30
0.0
  0
VERTEX
  5
2F217
  8
0
 10
177.89049677433201
 20
253.9063481410212
 30
0.0
  0
VERTEX
  5
2F218
  8
0
 10
177.9814634551833
 20
254.06031708363659
 30
0.0
  0
VERTEX
  5
2F219
  8
0
 10
178.07315650952319
 20
254.21298796403971
 30
0.0
  0
VERTEX
  5
2F21A
  8
0
 10
178.2586969937995
 20
254.5143945063119
 30
0.0
  0
VERTEX
  5
2F21B
  8
0
 10
178.4470682549962
 20
254.8104865891282
 30
0.0
  0
VERTEX
  5
2F21C
  8
0
 10
178.6382195585276
 20
255.10118446513661
 30
0.0
  0
VERTEX
  5
2F21D
  8
0
 10
178.83209942105111
 20
255.38640983982259
 30
0.0
  0
VERTEX
  5
2F21E
  8
0
 10
179.0286556243326
 20
255.66608589259801
 30
0.0
  0
VERTEX
  5
2F21F
  8
0
 10
179.12792083807
 20
255.8038193249613
 30
0.0
  0
VERTEX
  5
2F220
  8
0
 10
179.22783522931189
 20
255.94013729748809
 30
0.0
  0
VERTEX
  5
2F221
  8
0
 10
179.42958459036001
 20
256.20849024342169
 30
0.0
  0
VERTEX
  5
2F222
  8
0
 10
179.6338493697281
 20
256.47107245411007
 30
0.0
  0
VERTEX
  5
2F223
  8
0
 10
179.8405745521822
 20
256.72781320751528
 30
0.0
  0
VERTEX
  5
2F224
  8
0
 10
180.0497044598209
 20
256.9786433548943
 30
0.0
  0
VERTEX
  5
2F225
  8
0
 10
180.26118276707089
 20
257.22349533942543
 30
0.0
  0
VERTEX
  5
2F226
  8
0
 10
180.3677847954408
 20
257.3436588488949
 30
0.0
  0
VERTEX
  5
2F227
  8
0
 10
180.47495251585789
 20
257.46230321440453
 30
0.0
  0
VERTEX
  5
2F228
  8
0
 10
180.6909561309464
 20
257.69500266100289
 30
0.0
  0
VERTEX
  5
2F229
  8
0
 10
180.9091354354475
 20
257.92153100559432
 30
0.0
  0
VERTEX
  5
2F22A
  8
0
 10
181.01902263028791
 20
258.03246188315279
 30
0.0
  0
SEQEND
  5
2F22B
  8
0
  0
LINE
  5
22C1A
  8
0
 10
181.01902263028791
 20
258.03246188315279
 30
0.0
 11
185.55227231512319
 21
262.56571156798782
 31
0.0
  0
LINE
  5
22C1B
  8
0
 10
181.55227231512319
 20
262.56571156798782
 30
0.0
 11
180.01902263028791
 21
261.03246188315279
 31
0.0
  0
POLYLINE
  5
22C1C
  8
0
 66
     1
 10
0.0
 20
0.0
 30
0.0
  0
VERTEX
  5
2F22C
  8
0
 10
185.55227231512319
 20
262.56571156798782
 30
0.0
  0
VERTEX
  5
2F22D
  8
0
 10
185.66556706264461
 20
262.67733253482493
 30
0.0
  0
VERTEX
  5
2F22E
  8
0
 10
185.89961230148529
 20
262.89798920906929
 30
0.0
  0
VERTEX
  5
2F22F
  8
0
 10
186.14346726554751
 20
263.11507600737241
 30
0.0
  0
VERTEX
  5
2F230
  8
0
 10
186.26902263028791
 20
263.2222351894552
 30
0.0
  0
SEQEND
  5
2F231
  8
0
  0
POLYLINE
  5
22C1D
  8
0
 66
     1
 10
0.0
 20
0.0
 30
0.0
  0
VERTEX
  5
2F232
  8
0
 10
186.26902263028791
 20
263.2222351894552
 30
0.0
  0
VERTEX
  5
2F233
  8
0
 10
186.54999197860391
 20
263.46024400768692
 30
0.0
  0
VERTEX
  5
2F234
  8
0
 10
187.10306529450369
 20
263.93647975972181
 30
0.0
  0
VERTEX
  5
2F235
  8
0
 10
187.63987105758781
 20
264.4064572144834
 30
0.0
  0
VERTEX
  5
2F236
  8
0
 10
187.90050168940141
 20
264.63677937985273
 30
0.0
  0
SEQEND
  5
2F237
  8
0
  0
POLYLINE
  5
22C1E
  8
0
 66
     1
 10
0.0
 20
0.0
 30
0.0
  0
VERTEX
  5
2F238
  8
0
 10
184.30482360120729
 20
264.63677937985273
 30
0.0
  0
VERTEX
  5
2F239
  8
0
 10
184.2160822773628
 20
264.58517060109079
 30
0.0
  0
VERTEX
  5
2F23A
  8
0
 10
184.04056147668061
 20
264.48084212581028
 30
0.0
  0
VERTEX
  5
2F23B
  8
0
 10
183.8676873550863
 20
264.37505085046359
 30
0.0
  0
VERTEX
  5
2F23C
  8
0
 10
183.78225424888109
 20
264.32161364414418
 30
0.0
  0
VERTEX
  5
2F23D
  8
0
 10
183.6974964817054
 20
264.26781915372982
 30
0.0
  0
VERTEX
  5
2F23E
  8
0
 10
183.53002485805919
 20
264.15916971898878
 30
0.0
  0
VERTEX
  5
2F23F
  8
0
 10
183.36530791044959
 20
264.04912552952192
 30
0.0
  0
VERTEX
  5
2F240
  8
0
 10
183.20338048246461
 20
263.93770986365598
 30
0.0
  0
VERTEX
  5
2F241
  8
0
 10
183.04427682760851
 20
263.8249462898284
 30
0.0
  0
VERTEX
  5
2F242
  8
0
 10
182.8880306020551
 20
263.71085866161229
 30
0.0
  0
VERTEX
  5
2F243
  8
0
 10
182.8109893777341
 20
263.65332585807482
 30
0.0
  0
VERTEX
  5
2F244
  8
0
 10
182.73467485752869
 20
263.59547111266511
 30
0.0
  0
VERTEX
  5
2F245
  8
0
 10
182.58424203431261
 20
263.47880805162367
 30
0.0
  0
VERTEX
  5
2F246
  8
0
 10
182.43676395438609
 20
263.36089415694192
 30
0.0
  0
VERTEX
  5
2F247
  8
0
 10
182.2922718146942
 20
263.2417543716719
 30
0.0
  0
VERTEX
  5
2F248
  8
0
 10
182.1507961805471
 20
263.12141389818322
 30
0.0
  0
VERTEX
  5
2F249
  8
0
 10
182.0123669791551
 20
262.99989819283752
 30
0.0
  0
VERTEX
  5
2F24A
  8
0
 10
181.94430396695429
 20
262.9387076514559
 30
0.0
  0
VERTEX
  5
2F24B
  8
0
 10
181.87701349329791
 20
262.87723296059721
 30
0.0
  0
VERTEX
  5
2F24C
  8
0
 10
181.7447643551302
 20
262.75344414959272
 30
0.0
  0
VERTEX
  5
2F24D
  8
0
 10
181.61564754012511
 20
262.62855794563262
 30
0.0
  0
VERTEX
  5
2F24E
  8
0
 10
181.55227231512319
 20
262.56571156798782
 30
0.0
  0
SEQEND
  5
2F24F
  8
0
  0
LINE
  5
22C1F
  8
0
 10
185.26902263028791
 20
265.19345994884497
 30
0.0
 11
184.30482360120729
 21
264.63677937985273
 31
0.0
  0
POLYLINE
  5
22C20
  8
0
 66
     1
 10
0.0
 20
0.0
 30
0.0
  0
VERTEX
  5
2F250
  8
0
 10
187.90050168940141
 20
264.63677937985273
 30
0.0
  0
VERTEX
  5
2F251
  8
0
 10
188.034569140446
 20
264.7577389251046
 30
0.0
  0
VERTEX
  5
2F252
  8
0
 10
188.29604326990699
 20
265.00682088077241
 30
0.0
  0
VERTEX
  5
2F253
  8
0
 10
188.5483534237346
 20
265.26518134077378
 30
0.0
  0
VERTEX
  5
2F254
  8
0
 10
188.6709687064168
 20
265.39773618025453
 30
0.0
  0
VERTEX
  5
2F255
  8
0
 10
188.79117056289189
 20
265.53248337583591
 30
0.0
  0
VERTEX
  5
2F256
  8
0
 10
189.0241780282345
 20
265.80837839592732
 30
0.0
  0
VERTEX
  5
2F257
  8
0
 10
189.24707195346571
 20
266.09250660486032
 30
0.0
  0
VERTEX
  5
2F258
  8
0
 10
189.4595616614119
 20
266.38449746950118
 30
0.0
  0
VERTEX
  5
2F259
  8
0
 10
189.6613700430957
 20
266.68397020298289
 30
0.0
  0
VERTEX
  5
2F25A
  8
0
 10
189.85223391911421
 20
266.9905342612937
 30
0.0
  0
VERTEX
  5
2F25B
  8
0
 10
189.94348331764681
 20
267.14635094937421
 30
0.0
  0
VERTEX
  5
2F25C
  8
0
 10
190.03190438285449
 20
267.30378985258631
 30
0.0
  0
VERTEX
  5
2F25D
  8
0
 10
190.2001471250926
 20
267.62332845854871
 30
0.0
  0
VERTEX
  5
2F25E
  8
0
 10
190.3567427395582
 20
267.94873336715858
 30
0.0
  0
VERTEX
  5
2F25F
  8
0
 10
190.50148700906311
 20
268.2795802161109
 30
0.0
  0
VERTEX
  5
2F260
  8
0
 10
190.63419117182249
 20
268.6154375462429
 30
0.0
  0
VERTEX
  5
2F261
  8
0
 10
190.7546821676199
 20
268.95586736419142
 30
0.0
  0
VERTEX
  5
2F262
  8
0
 10
190.81029799595279
 20
269.12765843688072
 30
0.0
  0
VERTEX
  5
2F263
  8
0
 10
190.86280286349549
 20
269.3004257135899
 30
0.0
  0
VERTEX
  5
2F264
  8
0
 10
190.95841225866499
 20
269.64866325403
 30
0.0
  0
VERTEX
  5
2F265
  8
0
 10
191.04138566839899
 20
270.000125847052
 30
0.0
  0
VERTEX
  5
2F266
  8
0
 10
191.07809941662609
 20
270.17692345367692
 30
0.0
  0
SEQEND
  5
2F267
  8
0
  0
POLYLINE
  5
22C21
  8
0
 66
     1
 10
0.0
 20
0.0
 30
0.0
  0
VERTEX
  5
2F268
  8
0
 10
189.029047591606
 20
270.17692345367692
 30
0.0
  0
VERTEX
  5
2F269
  8
0
 10
188.98382201206559
 20
270.00462031254392
 30
0.0
  0
VERTEX
  5
2F26A
  8
0
 10
188.8819192684513
 20
269.66324808466652
 30
0.0
  0
VERTEX
  5
2F26B
  8
0
 10
188.76491929826349
 20
269.32675116923019
 30
0.0
  0
VERTEX
  5
2F26C
  8
0
 10
188.70082920338629
 20
269.160539902381
 30
0.0
  0
VERTEX
  5
2F26D
  8
0
 10
188.63305412554541
 20
268.99579687730051
 30
0.0
  0
VERTEX
  5
2F26E
  8
0
 10
188.4865852537018
 20
268.67104152830137
 30
0.0
  0
VERTEX
  5
2F26F
  8
0
 10
188.3258031469079
 20
268.35312914845957
 30
0.0
  0
VERTEX
  5
2F270
  8
0
 10
188.15102665408671
 20
268.04269019362351
 30
0.0
  0
VERTEX
  5
2F271
  8
0
 10
187.96260237659661
 20
267.74034029900758
 30
0.0
  0
VERTEX
  5
2F272
  8
0
 10
187.7609039808801
 20
267.44667905831011
 30
0.0
  0
VERTEX
  5
2F273
  8
0
 10
187.65520097877641
 20
267.30328937655031
 30
0.0
  0
VERTEX
  5
2F274
  8
0
 10
187.5463314574439
 20
267.16228883465828
 30
0.0
  0
VERTEX
  5
2F275
  8
0
 10
187.31931032763089
 20
266.887733605714
 30
0.0
  0
VERTEX
  5
2F276
  8
0
 10
187.0802907997647
 20
266.62355784524152
 30
0.0
  0
VERTEX
  5
2F277
  8
0
 10
186.8297468763362
 20
266.37028544335948
 30
0.0
  0
VERTEX
  5
2F278
  8
0
 10
186.56817541400301
 20
266.12841866760209
 30
0.0
  0
VERTEX
  5
2F279
  8
0
 10
186.29609513826719
 20
265.89843716687301
 30
0.0
  0
VERTEX
  5
2F27A
  8
0
 10
186.1562820245573
 20
265.7880468651083
 30
0.0
  0
VERTEX
  5
2F27B
  8
0
 10
186.01404561478489
 20
265.6807970202417
 30
0.0
  0
VERTEX
  5
2F27C
  8
0
 10
185.72258617934671
 20
265.4759298324916
 30
0.0
  0
VERTEX
  5
2F27D
  8
0
 10
185.42229482865281
 20
265.28424187820019
 30
0.0
  0
VERTEX
  5
2F27E
  8
0
 10
185.26902263028791
 20
265.19345994884497
 30
0.0
  0
SEQEND
  5
2F27F
  8
0
  0
POLYLINE
  5
22C22
  8
0
 66
     1
 10
0.0
 20
0.0
 30
0.0
  0
VERTEX
  5
2F280
  8
0
 10
189.26902263028799
 20
272.92188280062868
 30
0.0
  0
VERTEX
  5
2F281
  8
0
 10
189.26891137652771
 20
272.83503315478902
 30
0.0
  0
VERTEX
  5
2F282
  8
0
 10
189.26798300314769
 20
272.66278708274598
 30
0.0
  0
VERTEX
  5
2F283
  8
0
 10
189.26602790629991
 20
272.49257414467138
 30
0.0
  0
VERTEX
  5
2F284
  8
0
 10
189.26463315946989
 20
272.408265352623
 30
0.0
  0
VERTEX
  5
2F285
  8
0
 10
189.2629431179148
 20
272.32450679341127
 30
0.0
  0
VERTEX
  5
2F286
  8
0
 10
189.2586258156621
 20
272.15869448402191
 30
0.0
  0
VERTEX
  5
2F287
  8
0
 10
189.2529738392831
 20
271.99524309176559
 30
0.0
  0
VERTEX
  5
2F288
  8
0
 10
189.24588611804589
 20
271.8342528558332
 30
0.0
  0
VERTEX
  5
2F289
  8
0
 10
189.2372630832547
 20
271.675818113189
 30
0.0
  0
VERTEX
  5
2F28A
  8
0
 10
189.22700743484251
 20
271.52003246519052
 30
0.0
  0
VERTEX
  5
2F28B
  8
0
 10
189.22123773773521
 20
271.4431617191367
 30
0.0
  0
VERTEX
  5
2F28C
  8
0
 10
189.2150247244933
 20
271.36698730336872
 30
0.0
  0
VERTEX
  5
2F28D
  8
0
 10
189.20122394756299
 20
271.21677104059557
 30
0.0
  0
VERTEX
  5
2F28E
  8
0
 10
189.185518114014
 20
271.06946836663519
 30
0.0
  0
VERTEX
  5
2F28F
  8
0
 10
189.16782478574871
 20
270.9251595091327
 30
0.0
  0
VERTEX
  5
2F290
  8
0
 10
189.14806656668779
 20
270.7839194992585
 30
0.0
  0
VERTEX
  5
2F291
  8
0
 10
189.12617153007329
 20
270.64581744232328
 30
0.0
  0
VERTEX
  5
2F292
  8
0
 10
189.11440181094659
 20
270.57796294320269
 30
0.0
  0
VERTEX
  5
2F293
  8
0
 10
189.10205979341379
 20
270.51084301449009
 30
0.0
  0
VERTEX
  5
2F294
  8
0
 10
189.07520939549701
 20
270.37689403005521
 30
0.0
  0
VERTEX
  5
2F295
  8
0
 10
189.0452482461601
 20
270.24336846501859
 30
0.0
  0
VERTEX
  5
2F296
  8
0
 10
189.029047591606
 20
270.17692345367692
 30
0.0
  0
SEQEND
  5
2F297
  8
0
  0
POLYLINE
  5
22C23
  8
0
 66
     1
 10
0.0
 20
0.0
 30
0.0
  0
VERTEX
  5
2F298
  8
0
 10
191.07809941662609
 20
270.17692345367692
 30
0.0
  0
VERTEX
  5
2F299
  8
0
 10
191.0904922339443
 20
270.24108767954658
 30
0.0
  0
VERTEX
  5
2F29A
  8
0
 10
191.11379444477799
 20
270.37176364561952
 30
0.0
  0
VERTEX
  5
2F29B
  8
0
 10
191.13516070026259
 20
270.50552824938592
 30
0.0
  0
VERTEX
  5
2F29C
  8
0
 10
191.14513468123181
 20
270.57355187771827
 30
0.0
  0
VERTEX
  5
2F29D
  8
0
 10
191.15464545018301
 20
270.64232667310438
 30
0.0
  0
VERTEX
  5
2F29E
  8
0
 10
191.17230765279561
 20
270.78209868627891
 30
0.0
  0
VERTEX
  5
2F29F
  8
0
 10
191.18821049846269
 20
270.92477920102277
 30
0.0
  0
VERTEX
  5
2F2A0
  8
0
 10
191.20242108228811
 20
271.07029884374327
 30
0.0
  0
VERTEX
  5
2F2A1
  8
0
 10
191.21501003622109
 20
271.21858454136873
 30
0.0
  0
VERTEX
  5
2F2A2
  8
0
 10
191.22605113012889
 20
271.36956012105111
 30
0.0
  0
VERTEX
  5
2F2A3
  8
0
 10
191.23101503731479
 20
271.44603211557211
 30
0.0
  0
VERTEX
  5
2F2A4
  8
0
 10
191.2356208504103
 20
271.52314692288201
 30
0.0
  0
VERTEX
  5
2F2A5
  8
0
 10
191.24379797619639
 20
271.67926468459518
 30
0.0
  0
VERTEX
  5
2F2A6
  8
0
 10
191.25066314885501
 20
271.83783281558323
 30
0.0
  0
VERTEX
  5
2F2A7
  8
0
 10
191.25629818292171
 20
271.99876430575932
 30
0.0
  0
VERTEX
  5
2F2A8
  8
0
 10
191.26078587010099
 20
272.16196757793841
 30
0.0
  0
VERTEX
  5
2F2A9
  8
0
 10
191.2642096701945
 20
272.32734759898449
 30
0.0
  0
VERTEX
  5
2F2AA
  8
0
 10
191.26554878761289
 20
272.41082336050022
 30
0.0
  0
VERTEX
  5
2F2AB
  8
0
 10
191.26665334922311
 20
272.49480633984689
 30
0.0
  0
VERTEX
  5
2F2AC
  8
0
 10
191.26820060827731
 20
272.6642432460348
 30
0.0
  0
VERTEX
  5
2F2AD
  8
0
 10
191.26893470835671
 20
272.83555572137448
 30
0.0
  0
VERTEX
  5
2F2AE
  8
0
 10
191.26902263028791
 20
272.92188280062868
 30
0.0
  0
SEQEND
  5
2F2AF
  8
0
  0
LINE
  5
22C24
  8
0
 10
191.26902263028791
 20
272.92188280062868
 30
0.0
 11
191.26902263028791
 21
358.11739837369169
 31
0.0
  0
LINE
  5
22C25
  8
0
 10
141.76292215019899
 20
349.11739837369169
 30
0.0
 11
155.7751231103766
 21
349.11739837369169
 31
0.0
  0
POLYLINE
  5
22C26
  8
0
 66
     1
 10
0.0
 20
0.0
 30
0.0
  0
VERTEX
  5
2F2B0
  8
0
 10
141.76292215019899
 20
349.11739837369169
 30
0.0
  0
VERTEX
  5
2F2B1
  8
0
 10
141.65264529182471
 20
349.11913608871242
 30
0.0
  0
VERTEX
  5
2F2B2
  8
0
 10
141.4325294772062
 20
349.1330274574957
 30
0.0
  0
VERTEX
  5
2F2B3
  8
0
 10
141.21372563009911
 20
349.16075503335202
 30
0.0
  0
VERTEX
  5
2F2B4
  8
0
 10
141.10508750979869
 20
349.17977512704419
 30
0.0
  0
VERTEX
  5
2F2B5
  8
0
 10
140.99710260614739
 20
349.2022087119085
 30
0.0
  0
VERTEX
  5
2F2B6
  8
0
 10
140.78352060109069
 20
349.25722388333998
 30
0.0
  0
VERTEX
  5
2F2B7
  8
0
 10
140.57382773498259
 20
349.32558208603223
 30
0.0
  0
VERTEX
  5
2F2B8
  8
0
 10
140.36885668436281
 20
349.4070118740683
 30
0.0
  0
VERTEX
  5
2F2B9
  8
0
 10
140.1694213757535
 20
349.50118989513248
 30
0.0
  0
VERTEX
  5
2F2BA
  8
0
 10
139.97631375360959
 20
349.60774217451581
 30
0.0
  0
VERTEX
  5
2F2BB
  8
0
 10
139.88237352098531
 20
349.66552831334587
 30
0.0
  0
VERTEX
  5
2F2BC
  8
0
 10
139.79030063556121
 20
349.72624560014452
 30
0.0
  0
VERTEX
  5
2F2BD
  8
0
 10
139.61212066743039
 20
349.85622960273213
 30
0.0
  0
VERTEX
  5
2F2BE
  8
0
 10
139.44248139011779
 20
349.99717802437863
 30
0.0
  0
VERTEX
  5
2F2BF
  8
0
 10
139.28205643000359
 20
350.14853116819808
 30
0.0
  0
VERTEX
  5
2F2C0
  8
0
 10
139.1314828240227
 20
350.30968802084129
 30
0.0
  0
VERTEX
  5
2F2C1
  8
0
 10
138.99135849003241
 20
350.48000863907509
 30
0.0
  0
VERTEX
  5
2F2C2
  8
0
 10
138.92539036510331
 20
350.56839535549619
 30
0.0
  0
VERTEX
  5
2F2C3
  8
0
 10
138.86223985252019
 20
350.65881669095961
 30
0.0
  0
VERTEX
  5
2F2C4
  8
0
 10
138.79220890299689
 20
350.76675988849269
 30
0.0
  0
VERTEX
  5
2F2C5
  8
0
 10
138.77293349837299
 20
350.79806666618151
 30
0.0
  0
VERTEX
  5
2F2C6
  8
0
 10
138.7539880067911
 20
350.82957418752721
 30
0.0
  0
VERTEX
  5
2F2C7
  8
0
 10
138.7446396330788
 20
350.84540214151548
 30
0.0
  0
VERTEX
  5
2F2C8
  8
0
 10
138.73537451868191
 20
350.8612789760154
 30
0.0
  0
VERTEX
  5
2F2C9
  8
0
 10
138.71709508784369
 20
350.89317753336309
 30
0.0
  0
VERTEX
  5
2F2CA
  8
0
 10
138.69915173121441
 20
350.92526633990838
 30
0.0
  0
VERTEX
  5
2F2CB
  8
0
 10
138.68154642865039
 20
350.95754185499749
 30
0.0
  0
VERTEX
  5
2F2CC
  8
0
 10
138.66428112270711
 20
350.99000051737488
 30
0.0
  0
VERTEX
  5
2F2CD
  8
0
 10
138.6473577184251
 20
351.0226387455769
 30
0.0
  0
VERTEX
  5
2F2CE
  8
0
 10
138.63902481442241
 20
351.0390240722254
 30
0.0
  0
VERTEX
  5
2F2CF
  8
0
 10
138.63077808311971
 20
351.0554529383262
 30
0.0
  0
VERTEX
  5
2F2D0
  8
0
 10
138.6145440461751
 20
351.08843947493011
 30
0.0
  0
VERTEX
  5
2F2D1
  8
0
 10
138.59865739884251
 20
351.12159471567969
 30
0.0
  0
VERTEX
  5
2F2D2
  8
0
 10
138.5908448955708
 20
351.13823445759863
 30
0.0
  0
SEQEND
  5
2F2D3
  8
0
  0
LINE
  5
22C27
  8
0
 10
138.5908448955708
 20
351.13823445759863
 30
0.0
 11
137.31927516198209
 21
353.86512455119009
 31
0.0
  0
POLYLINE
  5
22C28
  8
0
 66
     1
 10
0.0
 20
0.0
 30
0.0
  0
VERTEX
  5
2F2D4
  8
0
 10
137.31927516198209
 20
353.86512455119009
 30
0.0
  0
VERTEX
  5
2F2D5
  8
0
 10
137.2043500370319
 20
354.11158227698621
 30
0.0
  0
VERTEX
  5
2F2D6
  8
0
 10
136.98294975444909
 20
354.58637671518773
 30
0.0
  0
VERTEX
  5
2F2D7
  8
0
 10
136.77322085555409
 20
355.0361417902995
 30
0.0
  0
VERTEX
  5
2F2D8
  8
0
 10
136.67287891963159
 20
355.25132576630222
 30
0.0
  0
SEQEND
  5
2F2D9
  8
0
  0
POLYLINE
  5
22C29
  8
0
 66
     1
 10
0.0
 20
0.0
 30
0.0
  0
VERTEX
  5
2F2DA
  8
0
 10
136.67287891963159
 20
355.25132576630222
 30
0.0
  0
VERTEX
  5
2F2DB
  8
0
 10
136.66609260509139
 20
355.26568022148331
 30
0.0
  0
VERTEX
  5
2F2DC
  8
0
 10
136.65210344284671
 20
355.29409568256409
 30
0.0
  0
VERTEX
  5
2F2DD
  8
0
 10
136.63758745254461
 20
355.32207790778011
 30
0.0
  0
VERTEX
  5
2F2DE
  8
0
 10
136.63014336961959
 20
355.33589144752392
 30
0.0
  0
VERTEX
  5
2F2DF
  8
0
 10
136.62258171014639
 20
355.34957894410309
 30
0.0
  0
VERTEX
  5
2F2E0
  8
0
 10
136.60712603789349
 20
355.37655418369559
 30
0.0
  0
VERTEX
  5
2F2E1
  8
0
 10
136.59126247307179
 20
355.40296285733069
 30
0.0
  0
VERTEX
  5
2F2E2
  8
0
 10
136.57503473807631
 20
355.42876837943368
 30
0.0
  0
VERTEX
  5
2F2E3
  8
0
 10
136.5584877176745
 20
355.45393857196268
 30
0.0
  0
VERTEX
  5
2F2E4
  8
0
 10
136.54166668263949
 20
355.47844616817662
 30
0.0
  0
VERTEX
  5
2F2E5
  8
0
 10
136.53316693481739
 20
355.49044515350312
 30
0.0
  0
VERTEX
  5
2F2E6
  8
0
 10
136.52461515510959
 20
355.5022710245276
 30
0.0
  0
VERTEX
  5
2F2E7
  8
0
 10
136.50737874713991
 20
355.52539392283421
 30
0.0
  0
VERTEX
  5
2F2E8
  8
0
 10
136.49000457863971
 20
355.5477973377819
 30
0.0
  0
VERTEX
  5
2F2E9
  8
0
 10
136.4725404924236
 20
355.56946627229439
 30
0.0
  0
VERTEX
  5
2F2EA
  8
0
 10
136.45503468357509
 20
355.59038840982612
 30
0.0
  0
VERTEX
  5
2F2EB
  8
0
 10
136.43753536572689
 20
355.61055417080303
 30
0.0
  0
VERTEX
  5
2F2EC
  8
0
 10
136.42880313899741
 20
355.62035116134302
 30
0.0
  0
VERTEX
  5
2F2ED
  8
0
 10
136.42009047433999
 20
355.62995669317303
 30
0.0
  0
VERTEX
  5
2F2EE
  8
0
 10
136.40274740571499
 20
355.64859175422322
 30
0.0
  0
VERTEX
  5
2F2EF
  8
0
 10
136.38555278945671
 20
355.6664576482853
 30
0.0
  0
VERTEX
  5
2F2F0
  8
0
 10
136.37702546399279
 20
355.67510227549519
 30
0.0
  0
VERTEX
  5
2F2F1
  8
0
 10
136.3685522913336
 20
355.68355503267691
 30
0.0
  0
VERTEX
  5
2F2F2
  8
0
 10
136.35177077281691
 20
355.69990562030398
 30
0.0
  0
VERTEX
  5
2F2F3
  8
0
 10
136.33504727717059
 20
355.7157025507131
 30
0.0
  0
VERTEX
  5
2F2F4
  8
0
 10
136.32669179698581
 20
355.72341585560298
 30
0.0
  0
VERTEX
  5
2F2F5
  8
0
 10
136.31834150520359
 20
355.73100836796579
 30
0.0
  0
VERTEX
  5
2F2F6
  8
0
 10
136.30165936280679
 20
355.74583867113051
 30
0.0
  0
VERTEX
  5
2F2F7
  8
0
 10
136.28500637647679
 20
355.76020830893231
 30
0.0
  0
VERTEX
  5
2F2F8
  8
0
 10
136.26838775138069
 20
355.77413141144461
 30
0.0
  0
VERTEX
  5
2F2F9
  8
0
 10
136.25180842227741
 20
355.7876214239223
 30
0.0
  0
VERTEX
  5
2F2FA
  8
0
 10
136.23527309773911
 20
355.80069114213438
 30
0.0
  0
VERTEX
  5
2F2FB
  8
0
 10
136.22702335623109
 20
355.80707222088591
 30
0.0
  0
VERTEX
  5
2F2FC
  8
0
 10
136.2187862981383
 20
355.8133527486134
 30
0.0
  0
VERTEX
  5
2F2FD
  8
0
 10
136.2023523878814
 20
355.82561784929112
 30
0.0
  0
VERTEX
  5
2F2FE
  8
0
 10
136.1859756023691
 20
355.83749751009333
 30
0.0
  0
VERTEX
  5
2F2FF
  8
0
 10
136.1291655503988
 20
355.87618933829799
 30
0.0
  0
VERTEX
  5
2F300
  8
0
 10
136.0339983719054
 20
355.9329829703675
 30
0.0
  0
VERTEX
  5
2F301
  8
0
 10
135.94226885053601
 20
355.9792154138122
 30
0.0
  0
VERTEX
  5
2F302
  8
0
 10
135.8546329595938
 20
356.0163571092744
 30
0.0
  0
VERTEX
  5
2F303
  8
0
 10
135.8125432636057
 20
356.0319206293089
 30
0.0
  0
VERTEX
  5
2F304
  8
0
 10
135.7716971963188
 20
356.04567687622148
 30
0.0
  0
VERTEX
  5
2F305
  8
0
 10
135.69398314754579
 20
356.06831862970472
 30
0.0
  0
VERTEX
  5
2F306
  8
0
 10
135.62194523354859
 20
356.08532564594498
 30
0.0
  0
VERTEX
  5
2F307
  8
0
 10
135.555975156313
 20
356.09765701892411
 30
0.0
  0
VERTEX
  5
2F308
  8
0
 10
135.4964119864145
 20
356.10619416977897
 30
0.0
  0
VERTEX
  5
2F309
  8
0
 10
135.4435319769035
 20
356.11174443635542
 30
0.0
  0
VERTEX
  5
2F30A
  8
0
 10
135.4196645850547
 20
356.11363080933552
 30
0.0
  0
VERTEX
  5
2F30B
  8
0
 10
135.39753930314711
 20
356.11503767550488
 30
0.0
  0
VERTEX
  5
2F30C
  8
0
 10
135.35857059311539
 20
356.11671861120521
 30
0.0
  0
VERTEX
  5
2F30D
  8
0
 10
135.3266937404079
 20
356.11733961737809
 30
0.0
  0
VERTEX
  5
2F30E
  8
0
 10
135.3134172390767
 20
356.11739837369169
 30
0.0
  0
SEQEND
  5
2F30F
  8
0
  0
POLYLINE
  5
22C2A
  8
0
 66
     1
 10
0.0
 20
0.0
 30
0.0
  0
VERTEX
  5
2F310
  8
0
 10
158.9472003650049
 20
351.13823445759863
 30
0.0
  0
VERTEX
  5
2F311
  8
0
 10
158.93938786173339
 20
351.12159471567969
 30
0.0
  0
VERTEX
  5
2F312
  8
0
 10
158.9235012144006
 20
351.08843947493011
 30
0.0
  0
VERTEX
  5
2F313
  8
0
 10
158.90726717745611
 20
351.0554529383262
 30
0.0
  0
VERTEX
  5
2F314
  8
0
 10
158.8990204461534
 20
351.0390240722254
 30
0.0
  0
VERTEX
  5
2F315
  8
0
 10
158.89068754215069
 20
351.0226387455769
 30
0.0
  0
VERTEX
  5
2F316
  8
0
 10
158.87376413786859
 20
350.99000051737488
 30
0.0
  0
VERTEX
  5
2F317
  8
0
 10
158.85649883192531
 20
350.95754185499749
 30
0.0
  0
VERTEX
  5
2F318
  8
0
 10
158.8388935293614
 20
350.92526633990838
 30
0.0
  0
VERTEX
  5
2F319
  8
0
 10
158.82095017273221
 20
350.89317753336309
 30
0.0
  0
VERTEX
  5
2F31A
  8
0
 10
158.80267074189379
 20
350.8612789760154
 30
0.0
  0
VERTEX
  5
2F31B
  8
0
 10
158.79340562749709
 20
350.84540214151548
 30
0.0
  0
VERTEX
  5
2F31C
  8
0
 10
158.78405725378479
 20
350.82957418752721
 30
0.0
  0
VERTEX
  5
2F31D
  8
0
 10
158.76511176220279
 20
350.79806666618151
 30
0.0
  0
VERTEX
  5
2F31E
  8
0
 10
158.74583635757901
 20
350.76675988849269
 30
0.0
  0
VERTEX
  5
2F31F
  8
0
 10
158.67580540805551
 20
350.65881669095961
 30
0.0
  0
VERTEX
  5
2F320
  8
0
 10
158.61265489547239
 20
350.56839535549619
 30
0.0
  0
VERTEX
  5
2F321
  8
0
 10
158.54668677054329
 20
350.48000863907509
 30
0.0
  0
VERTEX
  5
2F322
  8
0
 10
158.40656243655309
 20
350.30968802084129
 30
0.0
  0
VERTEX
  5
2F323
  8
0
 10
158.25598883057231
 20
350.14853116819808
 30
0.0
  0
VERTEX
  5
2F324
  8
0
 10
158.09556387045811
 20
349.99717802437863
 30
0.0
  0
VERTEX
  5
2F325
  8
0
 10
157.92592459314531
 20
349.85622960273213
 30
0.0
  0
VERTEX
  5
2F326
  8
0
 10
157.74774462501449
 20
349.72624560014452
 30
0.0
  0
VERTEX
  5
2F327
  8
0
 10
157.65567173959059
 20
349.66552831334587
 30
0.0
  0
VERTEX
  5
2F328
  8
0
 10
157.5617315069662
 20
349.60774217451581
 30
0.0
  0
VERTEX
  5
2F329
  8
0
 10
157.3686238848224
 20
349.50118989513248
 30
0.0
  0
VERTEX
  5
2F32A
  8
0
 10
157.16918857621289
 20
349.4070118740683
 30
0.0
  0
VERTEX
  5
2F32B
  8
0
 10
156.96421752559331
 20
349.32558208603223
 30
0.0
  0
VERTEX
  5
2F32C
  8
0
 10
156.75452465948521
 20
349.25722388333998
 30
0.0
  0
VERTEX
  5
2F32D
  8
0
 10
156.54094265442831
 20
349.2022087119085
 30
0.0
  0
VERTEX
  5
2F32E
  8
0
 10
156.43295775077721
 20
349.17977512704419
 30
0.0
  0
VERTEX
  5
2F32F
  8
0
 10
156.32431963047679
 20
349.16075503335202
 30
0.0
  0
VERTEX
  5
2F330
  8
0
 10
156.10551578336961
 20
349.1330274574957
 30
0.0
  0
VERTEX
  5
2F331
  8
0
 10
155.88539996875119
 20
349.11913608871242
 30
0.0
  0
VERTEX
  5
2F332
  8
0
 10
155.7751231103766
 20
349.11739837369169
 30
0.0
  0
SEQEND
  5
2F333
  8
0
  0
LINE
  5
22C2B
  8
0
 10
160.21877009859369
 20
353.86512455119009
 30
0.0
 11
158.9472003650049
 21
351.13823445759863
 31
0.0
  0
POLYLINE
  5
22C2C
  8
0
 66
     1
 10
0.0
 20
0.0
 30
0.0
  0
VERTEX
  5
2F334
  8
0
 10
160.86516634094411
 20
355.25132576630222
 30
0.0
  0
VERTEX
  5
2F335
  8
0
 10
160.7648244050217
 20
355.0361417902995
 30
0.0
  0
VERTEX
  5
2F336
  8
0
 10
160.55509550612669
 20
354.58637671518773
 30
0.0
  0
VERTEX
  5
2F337
  8
0
 10
160.333695223544
 20
354.11158227698621
 30
0.0
  0
VERTEX
  5
2F338
  8
0
 10
160.21877009859369
 20
353.86512455119009
 30
0.0
  0
SEQEND
  5
2F339
  8
0
  0
POLYLINE
  5
22C2D
  8
0
 66
     1
 10
0.0
 20
0.0
 30
0.0
  0
VERTEX
  5
2F33A
  8
0
 10
162.22462802149909
 20
356.11739837369169
 30
0.0
  0
VERTEX
  5
2F33B
  8
0
 10
162.21135152016791
 20
356.11733961737809
 30
0.0
  0
VERTEX
  5
2F33C
  8
0
 10
162.17947466746031
 20
356.11671861120521
 30
0.0
  0
VERTEX
  5
2F33D
  8
0
 10
162.14050595742879
 20
356.11503767550488
 30
0.0
  0
VERTEX
  5
2F33E
  8
0
 10
162.11838067552119
 20
356.11363080933552
 30
0.0
  0
VERTEX
  5
2F33F
  8
0
 10
162.09451328367231
 20
356.11174443635542
 30
0.0
  0
VERTEX
  5
2F340
  8
0
 10
162.04163327416131
 20
356.10619416977897
 30
0.0
  0
VERTEX
  5
2F341
  8
0
 10
161.9820701042629
 20
356.09765701892411
 30
0.0
  0
VERTEX
  5
2F342
  8
0
 10
161.91610002702711
 20
356.08532564594498
 30
0.0
  0
VERTEX
  5
2F343
  8
0
 10
161.84406211302991
 20
356.06831862970472
 30
0.0
  0
VERTEX
  5
2F344
  8
0
 10
161.7663480642569
 20
356.04567687622148
 30
0.0
  0
VERTEX
  5
2F345
  8
0
 10
161.72550199697011
 20
356.0319206293089
 30
0.0
  0
VERTEX
  5
2F346
  8
0
 10
161.68341230098201
 20
356.0163571092744
 30
0.0
  0
VERTEX
  5
2F347
  8
0
 10
161.5957764100398
 20
355.9792154138122
 30
0.0
  0
VERTEX
  5
2F348
  8
0
 10
161.5040468886703
 20
355.9329829703675
 30
0.0
  0
VERTEX
  5
2F349
  8
0
 10
161.4088797101769
 20
355.87618933829799
 30
0.0
  0
VERTEX
  5
2F34A
  8
0
 10
161.35206965820669
 20
355.83749751009333
 30
0.0
  0
VERTEX
  5
2F34B
  8
0
 10
161.3356928726943
 20
355.82561784929112
 30
0.0
  0
VERTEX
  5
2F34C
  8
0
 10
161.3192589624376
 20
355.8133527486134
 30
0.0
  0
VERTEX
  5
2F34D
  8
0
 10
161.3110219043447
 20
355.80707222088591
 30
0.0
  0
VERTEX
  5
2F34E
  8
0
 10
161.3027721628367
 20
355.80069114213438
 30
0.0
  0
VERTEX
  5
2F34F
  8
0
 10
161.28623683829829
 20
355.7876214239223
 30
0.0
  0
VERTEX
  5
2F350
  8
0
 10
161.2696575091951
 20
355.77413141144461
 30
0.0
  0
VERTEX
  5
2F351
  8
0
 10
161.25303888409891
 20
355.76020830893231
 30
0.0
  0
VERTEX
  5
2F352
  8
0
 10
161.23638589776891
 20
355.74583867113051
 30
0.0
  0
VERTEX
  5
2F353
  8
0
 10
161.21970375537219
 20
355.73100836796579
 30
0.0
  0
VERTEX
  5
2F354
  8
0
 10
161.21135346359
 20
355.72341585560298
 30
0.0
  0
VERTEX
  5
2F355
  8
0
 10
161.20299798340531
 20
355.7157025507131
 30
0.0
  0
VERTEX
  5
2F356
  8
0
 10
161.18627448775899
 20
355.69990562030398
 30
0.0
  0
VERTEX
  5
2F357
  8
0
 10
161.1694929692423
 20
355.68355503267691
 30
0.0
  0
VERTEX
  5
2F358
  8
0
 10
161.16101979658299
 20
355.67510227549519
 30
0.0
  0
VERTEX
  5
2F359
  8
0
 10
161.1524924711191
 20
355.6664576482853
 30
0.0
  0
VERTEX
  5
2F35A
  8
0
 10
161.1352978548608
 20
355.64859175422322
 30
0.0
  0
VERTEX
  5
2F35B
  8
0
 10
161.1179547862358
 20
355.62995669317303
 30
0.0
  0
VERTEX
  5
2F35C
  8
0
 10
161.10924212157849
 20
355.62035116134302
 30
0.0
  0
VERTEX
  5
2F35D
  8
0
 10
161.10050989484901
 20
355.61055417080303
 30
0.0
  0
VERTEX
  5
2F35E
  8
0
 10
161.08301057700081
 20
355.59038840982612
 30
0.0
  0
VERTEX
  5
2F35F
  8
0
 10
161.06550476815221
 20
355.56946627229439
 30
0.0
  0
VERTEX
  5
2F360
  8
0
 10
161.0480406819361
 20
355.5477973377819
 30
0.0
  0
VERTEX
  5
2F361
  8
0
 10
161.03066651343599
 20
355.52539392283421
 30
0.0
  0
VERTEX
  5
2F362
  8
0
 10
161.0134301054662
 20
355.5022710245276
 30
0.0
  0
VERTEX
  5
2F363
  8
0
 10
161.00487832575831
 20
355.49044515350312
 30
0.0
  0
VERTEX
  5
2F364
  8
0
 10
160.99637857793641
 20
355.47844616817662
 30
0.0
  0
VERTEX
  5
2F365
  8
0
 10
160.9795575429012
 20
355.45393857196268
 30
0.0
  0
VERTEX
  5
2F366
  8
0
 10
160.96301052249959
 20
355.42876837943368
 30
0.0
  0
VERTEX
  5
2F367
  8
0
 10
160.94678278750391
 20
355.40296285733069
 30
0.0
  0
VERTEX
  5
2F368
  8
0
 10
160.93091922268229
 20
355.37655418369559
 30
0.0
  0
VERTEX
  5
2F369
  8
0
 10
160.91546355042939
 20
355.34957894410309
 30
0.0
  0
VERTEX
  5
2F36A
  8
0
 10
160.90790189095631
 20
355.33589144752392
 30
0.0
  0
VERTEX
  5
2F36B
  8
0
 10
160.90045780803121
 20
355.32207790778011
 30
0.0
  0
VERTEX
  5
2F36C
  8
0
 10
160.8859418177291
 20
355.29409568256409
 30
0.0
  0
VERTEX
  5
2F36D
  8
0
 10
160.87195265548439
 20
355.26568022148331
 30
0.0
  0
VERTEX
  5
2F36E
  8
0
 10
160.86516634094411
 20
355.25132576630222
 30
0.0
  0
SEQEND
  5
2F36F
  8
0
  0
LINE
  5
22C2E
  8
0
 10
191.26902263028791
 20
358.11739837369169
 30
0.0
 11
106.26902263028791
 21
358.11739837369169
 31
0.0
  0
LINE
  5
22C2F
  8
0
 10
116.26902263028791
 20
255.61739837369171
 30
0.0
 11
114.0360226302879
 21
255.61739837369171
 31
0.0
  0
LINE
  5
22C30
  8
0
 10
114.0360226302879
 20
255.61739837369171
 30
0.0
 11
113.26902263028791
 21
256.38439837369151
 31
0.0
  0
LINE
  5
22C31
  8
0
 10
126.26902263028791
 20
263.61739837369169
 30
0.0
 11
128.76902263028791
 21
263.61739837369169
 31
0.0
  0
LINE
  5
22C32
  8
0
 10
128.76902263028791
 20
255.61739837369171
 30
0.0
 11
126.26902263028791
 21
255.61739837369171
 31
0.0
  0
LINE
  5
22C33
  8
0
 10
118.76902263028791
 20
253.8023983736912
 30
0.0
 11
116.26902263028791
 21
253.8023983736912
 31
0.0
  0
LINE
  5
22C34
  8
0
 10
168.76902263028791
 20
263.61739837369169
 30
0.0
 11
171.26902263028791
 21
263.61739837369169
 31
0.0
  0
LINE
  5
22C35
  8
0
 10
171.26902263028791
 20
255.61739837369171
 30
0.0
 11
168.76902263028791
 21
255.61739837369171
 31
0.0
  0
LINE
  5
22C36
  8
0
 10
128.76902263028791
 20
265.61739837369169
 30
0.0
 11
131.26902263028791
 21
265.61739837369169
 31
0.0
  0
LINE
  5
22C37
  8
0
 10
166.26902263028791
 20
265.61739837369169
 30
0.0
 11
168.76902263028791
 21
265.61739837369169
 31
0.0
  0
LINE
  5
22C38
  8
0
 10
168.76902263028791
 20
253.61739837369171
 30
0.0
 11
166.26902263028791
 21
253.61739837369171
 31
0.0
  0
LINE
  5
22C39
  8
0
 10
131.26902263028791
 20
253.61739837369171
 30
0.0
 11
128.76902263028791
 21
253.61739837369171
 31
0.0
  0
LINE
  5
22C3A
  8
0
 10
114.0360226302879
 20
255.61739837369171
 30
0.0
 11
114.0360226302879
 21
260.51643699345908
 31
0.0
  0
LINE
  5
22C3B
  8
0
 10
113.26902263028791
 20
256.38439837369151
 30
0.0
 11
113.26902263028791
 21
261.28446326962421
 31
0.0
  0
LINE
  5
22C3C
  8
0
 10
178.56902263028789
 20
253.3590650403585
 30
0.0
 11
178.56902263028789
 21
254.9933641923426
 31
0.0
  0
LINE
  5
22C3D
  8
0
 10
178.56902263028789
 20
253.3590650403585
 30
0.0
 11
177.57863291564601
 21
253.3590650403585
 31
0.0
  0
POLYLINE
  5
22C3E
  8
0
 66
     1
 10
0.0
 20
0.0
 30
0.0
  0
VERTEX
  5
2F370
  8
0
 10
178.30960292087241
 20
253.3590650403585
 30
0.0
  0
VERTEX
  5
2F371
  8
0
 10
178.34981108181319
 20
253.6278172036491
 30
0.0
  0
VERTEX
  5
2F372
  8
0
 10
178.4192145343473
 20
254.14667065234971
 30
0.0
  0
VERTEX
  5
2F373
  8
0
 10
178.47477710000169
 20
254.64577627483499
 30
0.0
  0
VERTEX
  5
2F374
  8
0
 10
178.4976081139074
 20
254.88971468669479
 30
0.0
  0
SEQEND
  5
2F375
  8
0
  0
LINE
  5
22C3F
  8
0
 10
116.26902263028791
 20
253.8023983736912
 30
0.0
 11
116.26902263028791
 21
258.28091759932801
 31
0.0
  0
LINE
  5
22C40
  8
0
 10
118.76902263028791
 20
253.3590650403585
 30
0.0
 11
118.76902263028791
 21
255.29021607226599
 31
0.0
  0
POLYLINE
  5
22C41
  8
0
 66
     1
 10
0.0
 20
0.0
 30
0.0
  0
VERTEX
  5
2F376
  8
0
 10
118.8134989381865
 20
255.23169884709571
 30
0.0
  0
VERTEX
  5
2F377
  8
0
 10
118.8365791050178
 20
254.93436850573841
 30
0.0
  0
VERTEX
  5
2F378
  8
0
 10
118.897547241761
 20
254.32597192203869
 30
0.0
  0
VERTEX
  5
2F379
  8
0
 10
118.9792600479277
 20
253.69049922298839
 30
0.0
  0
VERTEX
  5
2F37A
  8
0
 10
119.0284423397034
 20
253.3590650403585
 30
0.0
  0
SEQEND
  5
2F37B
  8
0
  0
LINE
  5
22C42
  8
0
 10
119.9594123449297
 20
253.3590650403585
 30
0.0
 11
118.76902263028791
 21
253.3590650403585
 31
0.0
  0
LINE
  5
22C43
  8
0
 10
168.76902263028791
 20
253.61739837369171
 30
0.0
 11
168.76902263028791
 21
265.61739837369169
 31
0.0
  0
LINE
  5
22C44
  8
0
 10
128.76902263028791
 20
253.61739837369171
 30
0.0
 11
128.76902263028791
 21
265.61739837369169
 31
0.0
  0
LINE
  5
22C45
  8
1
 10
193.29223575150351
 20
259.61739837369169
 30
0.0
 11
104.2458095090724
 21
259.61739837369169
 31
0.0
  0
LINE
  5
22C46
  8
0
 10
134.7950352548221
 20
322.11739837369169
 30
0.0
 11
162.7430100057538
 21
322.11739837369169
 31
0.0
  0
LINE
  5
22C47
  8
0
 10
162.7430100057538
 20
197.11739837369171
 30
0.0
 11
134.7950352548221
 21
197.11739837369171
 31
0.0
  0
ARC
  5
22C48
  8
0
 10
134.7950352548221
 20
199.6173983736916
 30
0.0
 40
2.499999999999992
 50
194.9999999999944
 51
270.0
  0
ARC
  5
22C49
  8
0
 10
134.7950352548221
 20
319.61739837369169
 30
0.0
 40
2.499999999999992
 50
90.0
 51
165.00000000000551
  0
LINE
  5
22C4A
  8
0
 10
131.26902263028791
 20
316.11739837369169
 30
0.0
 11
132.3802206890993
 21
320.2644459864477
 31
0.0
  0
LINE
  5
22C4B
  8
0
 10
132.3802206890993
 20
198.97035076093471
 30
0.0
 11
131.26902263028791
 21
203.11739837369171
 31
0.0
  0
LINE
  5
22C4C
  8
0
 10
131.2765226302879
 20
243.60239837369139
 30
0.0
 11
131.26902263028791
 21
243.60239837369139
 31
0.0
  0
LINE
  5
22C4D
  8
0
 10
131.2765226302879
 20
243.61739837369171
 30
0.0
 11
131.26902263028791
 21
243.61739837369171
 31
0.0
  0
LINE
  5
22C4E
  8
0
 10
165.1578245714764
 20
320.2644459864477
 30
0.0
 11
166.26902263028791
 21
316.11739837369169
 31
0.0
  0
LINE
  5
22C4F
  8
0
 10
166.26902263028791
 20
203.11739837369171
 30
0.0
 11
165.1578245714764
 21
198.97035076093471
 31
0.0
  0
ARC
  5
22C50
  8
0
 10
162.7430100057538
 20
199.6173983736916
 30
0.0
 40
2.4999999999999778
 50
270.0
 51
345.00000000000551
  0
ARC
  5
22C51
  8
0
 10
162.7430100057538
 20
319.61739837369169
 30
0.0
 40
2.4999999999999778
 50
14.99999999999447
 51
90.0
  0
LINE
  5
22C52
  8
0
 10
134.7950352548221
 20
197.11739837369171
 30
0.0
 11
134.7950352548221
 21
322.11739837369169
 31
0.0
  0
LINE
  5
22C54
  8
0
 10
131.26902263028791
 20
203.11739837369171
 30
0.0
 11
131.26902263028791
 21
316.11739837369169
 31
0.0
  0
LINE
  5
22C55
  8
0
 10
166.26902263028791
 20
203.11739837369171
 30
0.0
 11
166.26902263028791
 21
316.11739837369169
 31
0.0
  0
LINE
  5
22C56
  8
0
 10
162.7430100057538
 20
197.11739837369171
 30
0.0
 11
162.7430100057538
 21
322.11739837369169
 31
0.0
  0
LINE
  5
22C58
  8
3
 10
113.26902263028791
 20
256.38439837369151
 30
0.0
 11
116.26902263028791
 21
256.38439837369151
 31
0.0
  0
LINE
  5
22C59
  8
1
 10
148.76902263028791
 20
181.8692109414778
 30
0.0
 11
148.76902263028791
 21
373.36558580590548
 31
0.0
  0
ARC
  5
22F32
  8
0
 10
363.66491367967052
 20
259.61739837369169
 30
0.0
 40
53.515000000000327
 50
127.26034701360589
 51
52.73965298639402
  0
LINE
  5
24434
  8
3
 10
126.26902263028791
 20
256.38439837369151
 30
0.0
 11
128.76902263028791
 21
256.38439837369151
 31
0.0
  0
LINE
  5
24435
  8
3
 10
168.76902263028791
 20
256.38439837369151
 30
0.0
 11
171.26902263028791
 21
256.38439837369151
 31
0.0
  0
LINE
  5
24436
  8
3
 10
126.26902263028791
 20
262.85039837369192
 30
0.0
 11
128.76902263028791
 21
262.85039837369192
 31
0.0
  0
LINE
  5
24437
  8
3
 10
168.76902263028791
 20
262.85039837369192
 30
0.0
 11
171.26902263028791
 21
262.85039837369192
 31
0.0
  0
LINE
  5
24438
  8
3
 10
601.06080472905296
 20
256.38439837369151
 30
0.0
 11
598.56080472905285
 21
256.38439837369151
 31
0.0
  0
LINE
  5
24439
  8
3
 10
558.56080472905285
 20
256.38439837369151
 30
0.0
 11
556.06080472905285
 21
256.38439837369151
 31
0.0
  0
LINE
  5
2443A
  8
3
 10
601.06080472905296
 20
262.85039837369192
 30
0.0
 11
598.56080472905285
 21
262.85039837369192
 31
0.0
  0
LINE
  5
2443B
  8
3
 10
558.56080472905285
 20
262.85039837369192
 30
0.0
 11
556.06080472905285
 21
262.85039837369192
 31
0.0
  0
TEXT
  5
2EB5F
  8
0
 62
     3
 10
0.0
 20
0.0
 30
0.0
 40
10.0
  1
CAF5-125PSL-H
  7
STANDARD1
  0
ENDSEC
  0
EOF
