  0
SECTION
  2
HEADER
  9
$ACADVER
  1
AC1009
  9
$INSBASE
 10
0.0
 20
0.0
 30
0.0
  9
$EXTMIN
 10
0.0
 20
-2.960436562073669
 30
0.0
  9
$EXTMAX
 10
584.14948402761354
 20
482.62969411721127
 30
0.0
  9
$LIMMIN
 10
0.0
 20
0.0
  9
$LIMMAX
 10
375.0
 20
270.0
  9
$ORTHOMODE
 70
     1
  9
$REGENMODE
 70
     1
  9
$FILLMODE
 70
     1
  9
$QTEXTMODE
 70
     0
  9
$MIRRTEXT
 70
     1
  9
$DRAGMODE
 70
     2
  9
$LTSCALE
 40
10.0
  9
$OSMODE
 70
  3071
  9
$ATTMODE
 70
     1
  9
$TEXTSIZE
 40
5.0
  9
$TRACEWID
 40
0.05
  9
$TEXTSTYLE
  7
STANDARD
  9
$CLAYER
  8
0
  9
$CELTYPE
  6
BYLAYER
  9
$CECOLOR
 62
     6
  9
$DIMSCALE
 40
2.0
  9
$DIMASZ
 40
3.0
  9
$DIMEXO
 40
2.0
  9
$DIMDLI
 40
0.38
  9
$DIMRND
 40
0.0
  9
$DIMDLE
 40
0.0
  9
$DIMEXE
 40
2.0
  9
$DIMTP
 40
0.0
  9
$DIMTM
 40
0.0
  9
$DIMTXT
 40
3.2000000000000002
  9
$DIMCEN
 40
0.0
  9
$DIMTSZ
 40
0.0
  9
$DIMTOL
 70
     0
  9
$DIMLIM
 70
     0
  9
$DIMTIH
 70
     0
  9
$DIMTOH
 70
     0
  9
$DIMSE1
 70
     0
  9
$DIMSE2
 70
     0
  9
$DIMTAD
 70
     1
  9
$DIMZIN
 70
     8
  9
$DIMBLK
  1

  9
$DIMASO
 70
     0
  9
$DIMSHO
 70
     0
  9
$DIMPOST
  1

  9
$DIMAPOST
  1

  9
$DIMALT
 70
     0
  9
$DIMALTD
 70
     2
  9
$DIMALTF
 40
25.399999999999999
  9
$DIMLFAC
 40
1.0
  9
$DIMTOFL
 70
     0
  9
$DIMTVP
 40
1.6000000000000001
  9
$DIMTIX
 70
     1
  9
$DIMSOXD
 70
     0
  9
$DIMSAH
 70
     0
  9
$DIMBLK1
  1

  9
$DIMBLK2
  1

  9
$DIMSTYLE
  2
STANDARD
  9
$DIMCLRD
 70
     0
  9
$DIMCLRE
 70
     0
  9
$DIMCLRT
 70
     0
  9
$DIMTFAC
 40
1.0
  9
$DIMGAP
 40
1.1999999999999991
  9
$LUNITS
 70
     2
  9
$LUPREC
 70
     4
  9
$SKETCHINC
 40
0.1
  9
$FILLETRAD
 40
0.0
  9
$AUNITS
 70
     0
  9
$AUPREC
 70
     4
  9
$MENU
  1
ACAD
  9
$ELEVATION
 40
0.0
  9
$PELEVATION
 40
0.0
  9
$THICKNESS
 40
0.0
  9
$LIMCHECK
 70
     0
  9
$BLIPMODE
 70
     0
  9
$CHAMFERA
 40
0.0
  9
$CHAMFERB
 40
0.0
  9
$SKPOLY
 70
     0
  9
$TDCREATE
 40
2448055.7149187499
  9
$TDUPDATE
 40
2456598.5599661688
  9
$TDINDWG
 40
2.8583412616000001
  9
$TDUSRTIMER
 40
2.8583412616000001
  9
$USRTIMER
 70
     1
  9
$ANGBASE
 50
0.0
  9
$ANGDIR
 70
     0
  9
$PDMODE
 70
     0
  9
$PDSIZE
 40
0.0
  9
$PLINEWID
 40
0.0
  9
$COORDS
 70
     1
  9
$SPLFRAME
 70
     0
  9
$SPLINETYPE
 70
     6
  9
$SPLINESEGS
 70
     8
  9
$ATTDIA
 70
     0
  9
$ATTREQ
 70
     1
  9
$HANDLING
 70
     1
  9
$HANDSEED
  5
299F5
  9
$SURFTAB1
 70
     6
  9
$SURFTAB2
 70
     6
  9
$SURFTYPE
 70
     6
  9
$SURFU
 70
     6
  9
$SURFV
 70
     6
  9
$UCSNAME
  2

  9
$UCSORG
 10
0.0
 20
0.0
 30
0.0
  9
$UCSXDIR
 10
1.0
 20
0.0
 30
0.0
  9
$UCSYDIR
 10
0.0
 20
1.0
 30
0.0
  9
$PUCSNAME
  2

  9
$PUCSORG
 10
0.0
 20
0.0
 30
0.0
  9
$PUCSXDIR
 10
1.0
 20
0.0
 30
0.0
  9
$PUCSYDIR
 10
0.0
 20
1.0
 30
0.0
  9
$USERI1
 70
     0
  9
$USERI2
 70
     0
  9
$USERI3
 70
     0
  9
$USERI4
 70
     0
  9
$USERI5
 70
     0
  9
$USERR1
 40
0.0
  9
$USERR2
 40
0.0
  9
$USERR3
 40
0.0
  9
$USERR4
 40
0.0
  9
$USERR5
 40
0.0
  9
$WORLDVIEW
 70
     1
  9
$SHADEDGE
 70
     3
  9
$SHADEDIF
 70
    70
  9
$TILEMODE
 70
     1
  9
$MAXACTVP
 70
    16
  9
$PLIMCHECK
 70
     0
  9
$PEXTMIN
 10
1.0000000000000000E+020
 20
1.0000000000000000E+020
 30
1.0000000000000000E+020
  9
$PEXTMAX
 10
-1.0000000000000000E+020
 20
-1.0000000000000000E+020
 30
-1.0000000000000000E+020
  9
$PLIMMIN
 10
0.0
 20
0.0
  9
$PLIMMAX
 10
12.0
 20
9.0
  9
$UNITMODE
 70
     0
  9
$VISRETAIN
 70
     0
  9
$PLINEGEN
 70
     1
  9
$PSLTSCALE
 70
     0
  0
ENDSEC
  0
SECTION
  2
TABLES
  0
TABLE
  2
VPORT
 70
     1
  0
VPORT
  2
*ACTIVE
 70
     0
 10
0.0
 20
0.0
 11
1.0
 21
1.0
 12
305.53033047070357
 22
239.8419792410341
 13
0.0
 23
0.0
 14
5.0
 24
5.0
 15
10.0
 25
10.0
 16
0.0
 26
0.0
 36
1.0
 17
0.0
 27
0.0
 37
0.0
 40
489.96009018020129
 41
1.831871345029239
 42
50.0
 43
0.0
 44
0.0
 50
0.0
 51
0.0
 71
     0
 72
   500
 73
     1
 74
     1
 75
     0
 76
     0
 77
     0
 78
     2
  0
ENDTAB
  0
TABLE
  2
LTYPE
 70
     3
  0
LTYPE
  2
CONTINUOUS
 70
     0
  3
実線
 72
    65
 73
     0
 40
0.0
  0
LTYPE
  2
CENTER
 70
     0
  3
____ _ ____ _ ____ _ ____ _ ____ _ ____ _ ____
 72
    65
 73
     4
 40
2.0
 49
1.25
 49
-0.25
 49
0.25
 49
-0.25
  0
LTYPE
  2
PHANTOM2
 70
     0
  3
___ _ _ ___ _ _ ___ _ _ ___ _ _
 72
    65
 73
     6
 40
1.25
 49
0.625
 49
-0.125
 49
0.125
 49
-0.125
 49
0.125
 49
-0.125
  0
ENDTAB
  0
TABLE
  2
LAYER
 70
     4
  0
LAYER
  2
0
 70
     0
 62
     7
  6
CONTINUOUS
  0
LAYER
  2
1
 70
     0
 62
     1
  6
CENTER
  0
LAYER
  2
DEFPOINTS
 70
     0
 62
     7
  6
CONTINUOUS
  0
LAYER
  2
3
 70
     0
 62
     3
  6
CONTINUOUS
  0
ENDTAB
  0
TABLE
  2
STYLE
 70
     3
  0
STYLE
  2
STANDARD
 70
     0
 40
0.0
 41
1.0
 50
0.0
 71
     0
 42
5.0
  3
simplex.shx
  4
bigfont.shx
  0
STYLE
  2
07500
 70
     0
 40
0.0
 41
0.75
 50
0.0
 71
     0
 42
0.2
  3
simplex.shx
  4
bigfont.shx
  0
STYLE
  2
STANDARD1
 70
     0
 40
0.0
 41
1.0
 50
0.0
 71
     0
 42
3.0
  3
txt
  4

  0
ENDTAB
  0
TABLE
  2
VIEW
 70
     2
  0
VIEW
  2
ALL
 70
     0
 40
270.0
 10
220.99159663865549
 20
135.0
 41
0.0
 11
0.0
 21
0.0
 31
1.0
 12
0.0
 22
0.0
 32
0.0
 42
0.0
 43
0.0
 44
0.0
 50
0.0
 71
     0
  0
VIEW
  2
OLE1
 70
     0
 40
168.2487151179721
 10
2892.3009567448912
 20
702.51600084347126
 41
162.5749581879237
 11
0.0
 21
0.0
 31
1.0
 12
0.0
 22
0.0
 32
0.0
 42
50.0
 43
0.0
 44
0.0
 50
0.0
 71
     0
  0
ENDTAB
  0
TABLE
  2
UCS
 70
     0
  0
ENDTAB
  0
TABLE
  2
APPID
 70
    48
  0
APPID
  2
ACAD
 70
     0
  0
APPID
  2
DCO15
 70
     0
  0
APPID
  2
GENIUS_GENOREF_13
 70
     0
  0
APPID
  2
GENIUS_GENOENT_13
 70
     0
  0
APPID
  2
GENIUS_GENBH_13
 70
     0
  0
APPID
  2
GENIUS_GENOBJ_13
 70
     0
  0
APPID
  2
GENIUS_GENODEF_13
 70
     0
  0
APPID
  2
GENIUS_GENOLIS_13
 70
     0
  0
APPID
  2
GENIUS_GENOBJ-NBEHI-BHF_13
 70
     0
  0
APPID
  2
GENIUS_GENOBJ-NBEHI-BHB_13
 70
     0
  0
APPID
  2
GENIUS_GENOBJ-F-PART_13
 70
     0
  0
APPID
  2
GENIUS_GEFSTDP_13
 70
     0
  0
APPID
  2
GENIUS_GENOBJ-N-RSSYM_13
 70
     0
  0
APPID
  2
GENIUS_GENSYMENT_13
 70
     0
  0
APPID
  2
GENIUS_GENOBJ-N-TIT_13
 70
     0
  0
APPID
  2
GENIUS_GENTITLE_13
 70
     0
  0
APPID
  2
GENIUS_GENZVEED_13
 70
     0
  0
APPID
  2
GENIUS_GENOBJ-N-LEADER_13
 70
     0
  0
APPID
  2
GENIUS_GENOBJ-N-FIL_13
 70
     0
  0
APPID
  2
GENIUS_GENOBJ-N-SEC_13
 70
     0
  0
APPID
  2
GENIUS_GENOBJ-N-CRS_13
 70
     0
  0
APPID
  2
GENIUS_GENOBJ-N-ZOO_13
 70
     0
  0
APPID
  2
GENIUS_GENZOO_13
 70
     0
  0
APPID
  2
GENIUS_GENOBJ-F-TOL_13
 70
     0
  0
APPID
  2
GENIUS_GENFIL_13
 70
     0
  0
APPID
  2
GENIUS_GENOBJ-N-CHA_13
 70
     0
  0
APPID
  2
_CALL_MAC$
 70
     0
  0
APPID
  2
ASM_BASE
 70
     0
  0
APPID
  2
ASM_EXPLO_VER_2_00
 70
     0
  0
APPID
  2
ASM_CADM_VER_12_00
 70
     0
  0
APPID
  2
ASM_BASEFORO
 70
     0
  0
APPID
  2
ASM_BASETRAVI
 70
     0
  0
APPID
  2
ASM_BASETRAVI1
 70
     0
  0
APPID
  2
ASM_GRUPPI
 70
     0
  0
APPID
  2
ASM_CADM_ALBERO
 70
     0
  0
APPID
  2
ASM_GOLE
 70
     0
  0
APPID
  2
ACAD_MLEADERVER
 70
     0
  0
APPID
  2
ACAD_DSTYLE_DIMJAG
 70
     0
  0
APPID
  2
ACAD_DSTYLE_DIMTALN
 70
     0
  0
APPID
  2
ACAD_EXEMPT_FROM_CAD_STANDARDS
 70
     0
  0
APPID
  2
ACAD_DSTYLE_DIMRADIAL_EXTENSION
 70
     0
  0
APPID
  2
ACAD_PSEXT
 70
     0
  0
APPID
  2
ACAD_DSTYLE_DIMBREAK
 70
     0
  0
APPID
  2
ACAECLAYERSTANDARD
 70
     0
  0
APPID
  2
ACCMTRANSPARENCY
 70
     0
  0
APPID
  2
GRADIENTCOLOR1ACI
 70
     0
  0
APPID
  2
GRADIENTCOLOR2ACI
 70
     0
  0
APPID
  2
ACAD_NAV_VCDISPLAY
 70
     0
  0
ENDTAB
  0
TABLE
  2
DIMSTYLE
 70
     1
  0
DIMSTYLE
  2
STANDARD
 70
     0
  3

  4

  5

  6

  7

 40
1.0
 41
0.18
 42
0.0625
 43
0.38
 44
0.18
 45
0.0
 46
0.0
 47
0.0
 48
0.0
140
0.18
141
0.09
142
0.0
143
25.399999999999999
144
1.0
145
0.0
146
1.0
147
0.09
 71
     0
 72
     0
 73
     1
 74
     1
 75
     0
 76
     0
 77
     0
 78
     0
170
     0
171
     2
172
     0
173
     0
174
     0
175
     0
176
     0
177
     0
178
     0
  0
ENDTAB
  0
ENDSEC
  0
SECTION
  2
BLOCKS
  0
BLOCK
  8
0
  2
$MODEL_SPACE
 70
     0
 10
0.0
 20
0.0
 30
0.0
  3
$MODEL_SPACE
  1

  0
ENDBLK
  5
36
  8
0
  0
BLOCK
 67
     1
  8
0
  2
$PAPER_SPACE
 70
     0
 10
0.0
 20
0.0
 30
0.0
  3
$PAPER_SPACE
  1

  0
ENDBLK
  5
34
 67
     1
  8
0
  0
ENDSEC
  0
SECTION
  2
ENTITIES
  0
LINE
  5
2661A
  8
0
 10
268.90231598404728
 20
295.74368873141981
 30
0.0
 11
268.90231598404728
 21
293.74368873141981
 31
0.0
  0
LINE
  5
2661B
  8
0
 10
368.90231598404728
 20
295.74368873141981
 30
0.0
 11
368.90231598404728
 21
293.74368873141981
 31
0.0
  0
LINE
  5
2661C
  8
0
 10
364.21320511650271
 20
295.74368873141981
 30
0.0
 11
364.21320511650271
 21
293.52782015665798
 31
0.0
  0
LINE
  5
2661E
  8
0
 10
341.6578694835124
 20
295.74368873141981
 30
0.0
 11
341.6578694835124
 21
205.8485255471833
 31
0.0
  0
LINE
  5
2661F
  8
0
 10
338.62678057026687
 20
295.74368873141981
 30
0.0
 11
338.62678057026687
 21
200.65875224088089
 31
0.0
  0
LINE
  5
26626
  8
0
 10
299.17785139782768
 20
295.74368873141981
 30
0.0
 11
299.17785139782768
 21
200.65875224088089
 31
0.0
  0
LINE
  5
26627
  8
0
 10
296.14676248458221
 20
295.74368873141981
 30
0.0
 11
296.14676248458221
 21
205.8485255471833
 31
0.0
  0
LINE
  5
26630
  8
0
 10
268.90231598404728
 20
293.74368873141981
 30
0.0
 11
273.5914268515919
 21
293.74368873141981
 31
0.0
  0
LINE
  5
26632
  8
0
 10
364.21320511650271
 20
293.74368873141981
 30
0.0
 11
368.90231598404728
 21
293.74368873141981
 31
0.0
  0
LINE
  5
26633
  8
0
 10
273.5914268515919
 20
295.74368873141981
 30
0.0
 11
273.5914268515919
 21
293.52782015665798
 31
0.0
  0
LINE
  5
2663F
  8
0
 10
286.50231598404719
 20
266.45694165897572
 30
0.0
 11
286.50231598404719
 21
219.87428162327069
 31
0.0
  0
ARC
  5
26640
  8
0
 10
296.50231598404719
 20
219.87428162327069
 30
0.0
 40
9.9999999999999858
 50
180.0
 51
205.63336548632631
  0
POLYLINE
  5
26641
  8
0
 66
     1
 10
0.0
 20
0.0
 30
0.0
  0
VERTEX
  5
291E1
  8
0
 10
287.48650844673767
 20
215.54817315835771
 30
0.0
  0
VERTEX
  5
291E2
  8
0
 10
287.52844209544338
 20
215.46184607910249
 30
0.0
  0
VERTEX
  5
291E3
  8
0
 10
287.61472609175001
 20
215.29053360376381
 30
0.0
  0
VERTEX
  5
291E4
  8
0
 10
287.70417793886168
 20
215.12109669757501
 30
0.0
  0
VERTEX
  5
291E5
  8
0
 10
287.75007017748788
 20
215.03711371822919
 30
0.0
  0
VERTEX
  5
291E6
  8
0
 10
287.79672778411708
 20
214.95363795671261
 30
0.0
  0
VERTEX
  5
291E7
  8
0
 10
287.8923007082692
 20
214.78825793566651
 30
0.0
  0
VERTEX
  5
291E8
  8
0
 10
287.99081691956479
 20
214.62505466348739
 30
0.0
  0
VERTEX
  5
291E9
  8
0
 10
288.09219199290823
 20
214.46412317331121
 30
0.0
  0
VERTEX
  5
291EA
  8
0
 10
288.196337157524
 20
214.30555504232331
 30
0.0
  0
VERTEX
  5
291EB
  8
0
 10
288.3031600974752
 20
214.1494372806101
 30
0.0
  0
VERTEX
  5
291EC
  8
0
 10
288.3575464954688
 20
214.072322473301
 30
0.0
  0
VERTEX
  5
291ED
  8
0
 10
288.4125664650897
 20
213.9958504787792
 30
0.0
  0
VERTEX
  5
291EE
  8
0
 10
288.5244557098577
 20
213.84487489909679
 30
0.0
  0
VERTEX
  5
291EF
  8
0
 10
288.63872161876827
 20
213.6965892014714
 30
0.0
  0
VERTEX
  5
291F0
  8
0
 10
288.7552527219384
 20
213.5510695587509
 30
0.0
  0
VERTEX
  5
291F1
  8
0
 10
288.87393259348352
 20
213.40838904400701
 30
0.0
  0
VERTEX
  5
291F2
  8
0
 10
288.9946402257176
 20
213.2686170308325
 30
0.0
  0
VERTEX
  5
291F3
  8
0
 10
289.05571549400702
 20
213.19984223544731
 30
0.0
  0
VERTEX
  5
291F4
  8
0
 10
289.11725048157803
 20
213.1318186071139
 30
0.0
  0
VERTEX
  5
291F5
  8
0
 10
289.2416346304127
 20
212.99805400334839
 30
0.0
  0
VERTEX
  5
291F6
  8
0
 10
289.36766097230611
 20
212.86737803727459
 30
0.0
  0
VERTEX
  5
291F7
  8
0
 10
289.43124817218182
 20
212.8032138114049
 30
0.0
  0
SEQEND
  5
291F8
  8
0
  0
ARC
  5
26642
  8
0
 10
266.50231598404758
 20
266.45694165897572
 30
0.0
 40
19.999999999999659
 50
0.0000008537736463
 51
30.00000000000021
  0
POLYLINE
  5
26643
  8
0
 66
     1
 10
0.0
 20
0.0
 30
0.0
  0
VERTEX
  5
291F9
  8
0
 10
289.43124817218182
 20
212.8032138114049
 30
0.0
  0
VERTEX
  5
291FA
  8
0
 10
289.60804577880629
 20
212.62641620478101
 30
0.0
  0
VERTEX
  5
291FB
  8
0
 10
289.95950837182829
 20
212.274953611759
 30
0.0
  0
VERTEX
  5
291FC
  8
0
 10
290.30774591226879
 20
211.926716071318
 30
0.0
  0
VERTEX
  5
291FD
  8
0
 10
290.48051318897751
 20
211.75394879460961
 30
0.0
  0
VERTEX
  5
291FE
  8
0
 10
290.6523042616671
 20
211.5821577219194
 30
0.0
  0
VERTEX
  5
291FF
  8
0
 10
290.99273407961562
 20
211.241727903971
 30
0.0
  0
VERTEX
  5
29200
  8
0
 10
291.3285914097471
 20
210.90587057383979
 30
0.0
  0
VERTEX
  5
29201
  8
0
 10
291.65943825870011
 20
210.57502372488671
 30
0.0
  0
VERTEX
  5
29202
  8
0
 10
291.98484316730918
 20
210.24961881627769
 30
0.0
  0
VERTEX
  5
29203
  8
0
 10
292.30438177327238
 20
209.9300802103144
 30
0.0
  0
VERTEX
  5
29204
  8
0
 10
292.46182067648419
 20
209.7726413071023
 30
0.0
  0
VERTEX
  5
29205
  8
0
 10
292.61763736456498
 20
209.6168246190218
 30
0.0
  0
VERTEX
  5
29206
  8
0
 10
292.92420142287563
 20
209.31026056071099
 30
0.0
  0
VERTEX
  5
29207
  8
0
 10
293.22367415635711
 20
209.01078782723019
 30
0.0
  0
VERTEX
  5
29208
  8
0
 10
293.51566502099769
 20
208.71879696258929
 30
0.0
  0
VERTEX
  5
29209
  8
0
 10
293.79979322993108
 20
208.43466875365539
 30
0.0
  0
VERTEX
  5
2920A
  8
0
 10
294.07568825002278
 20
208.158773733564
 30
0.0
  0
VERTEX
  5
2920B
  8
0
 10
294.21043544560382
 20
208.02402653798339
 30
0.0
  0
VERTEX
  5
2920C
  8
0
 10
294.34299028508451
 20
207.8914716985027
 30
0.0
  0
VERTEX
  5
2920D
  8
0
 10
294.60135074508611
 20
207.6331112385005
 30
0.0
  0
VERTEX
  5
2920E
  8
0
 10
294.85043270075391
 20
207.3840292828327
 30
0.0
  0
VERTEX
  5
2920F
  8
0
 10
294.97139224600528
 20
207.26306973758159
 30
0.0
  0
SEQEND
  5
29210
  8
0
  0
LINE
  5
26644
  8
0
 10
274.41966625323693
 20
292.7436887314197
 30
0.0
 11
283.82282405973598
 21
276.45694165897572
 31
0.0
  0
POLYLINE
  5
26645
  8
0
 66
     1
 10
0.0
 20
0.0
 30
0.0
  0
VERTEX
  5
29211
  8
0
 10
294.97139224600528
 20
207.26306973758159
 30
0.0
  0
VERTEX
  5
29212
  8
0
 10
295.19444528589031
 20
207.0327475722124
 30
0.0
  0
VERTEX
  5
29213
  8
0
 10
295.60832758977062
 20
206.562770117448
 30
0.0
  0
VERTEX
  5
29214
  8
0
 10
295.9783493980371
 20
206.08653436541411
 30
0.0
  0
VERTEX
  5
29215
  8
0
 10
296.14676248458221
 20
205.8485255471833
 30
0.0
  0
SEQEND
  5
29216
  8
0
  0
POLYLINE
  5
26646
  8
0
 66
     1
 10
0.0
 20
0.0
 30
0.0
  0
VERTEX
  5
29217
  8
0
 10
296.14676248458221
 20
205.8485255471833
 30
0.0
  0
VERTEX
  5
29218
  8
0
 10
296.2192519082131
 20
205.7413663651005
 30
0.0
  0
VERTEX
  5
29219
  8
0
 10
296.36004163735771
 20
205.52427956679821
 30
0.0
  0
VERTEX
  5
2921A
  8
0
 10
296.495167719005
 20
205.30362289255299
 30
0.0
  0
VERTEX
  5
2921B
  8
0
 10
296.56057847198429
 20
205.19200192571591
 30
0.0
  0
SEQEND
  5
2921C
  8
0
  0
ARC
  5
26647
  8
0
 10
272.68761544566797
 20
291.7436887314197
 30
0.0
 40
2.0000000000000031
 50
30.00000000000021
 51
63.133982235386412
  0
LINE
  5
26648
  8
0
 10
296.56057847198429
 20
205.19200192571591
 30
0.0
 11
299.17785139782768
 21
200.65875224088089
 31
0.0
  0
POLYLINE
  5
26649
  8
0
 66
     1
 10
0.0
 20
0.0
 30
0.0
  0
VERTEX
  5
2921D
  8
0
 10
299.17785139782768
 20
200.65875224088089
 30
0.0
  0
VERTEX
  5
2921E
  8
0
 10
299.24189736984721
 20
200.54782136332321
 30
0.0
  0
VERTEX
  5
2921F
  8
0
 10
299.37268357057633
 20
200.32129301873101
 30
0.0
  0
VERTEX
  5
29220
  8
0
 10
299.50703265871022
 20
200.08859357213259
 30
0.0
  0
VERTEX
  5
29221
  8
0
 10
299.57553201507523
 20
199.96994920662291
 30
0.0
  0
VERTEX
  5
29222
  8
0
 10
299.64490844961381
 20
199.8497856971544
 30
0.0
  0
VERTEX
  5
29223
  8
0
 10
299.78627380879459
 20
199.6049337126224
 30
0.0
  0
VERTEX
  5
29224
  8
0
 10
299.9310906619047
 20
199.35410356524329
 30
0.0
  0
VERTEX
  5
29225
  8
0
 10
300.07932000499511
 20
199.09736281183811
 30
0.0
  0
VERTEX
  5
29226
  8
0
 10
300.23092191502082
 20
198.8347806011497
 30
0.0
  0
VERTEX
  5
29227
  8
0
 10
300.3858555605932
 20
198.5664276552161
 30
0.0
  0
VERTEX
  5
29228
  8
0
 10
300.46455877872688
 20
198.43010968268931
 30
0.0
  0
VERTEX
  5
29229
  8
0
 10
300.54407921297809
 20
198.29237625032599
 30
0.0
  0
VERTEX
  5
2922A
  8
0
 10
300.70555025733358
 20
198.01270019755151
 30
0.0
  0
VERTEX
  5
2922B
  8
0
 10
300.8702252041885
 20
197.72747482286559
 30
0.0
  0
VERTEX
  5
2922C
  8
0
 10
301.03805970115468
 20
197.43677694685721
 30
0.0
  0
VERTEX
  5
2922D
  8
0
 10
301.2090085448736
 20
197.14068486404079
 30
0.0
  0
VERTEX
  5
2922E
  8
0
 10
301.38302569319018
 20
196.83927832176769
 30
0.0
  0
VERTEX
  5
2922F
  8
0
 10
301.4711702670881
 20
196.6866074413656
 30
0.0
  0
VERTEX
  5
29230
  8
0
 10
301.5600642775542
 20
196.53263849874929
 30
0.0
  0
VERTEX
  5
29231
  8
0
 10
301.74007661564269
 20
196.22084798319059
 30
0.0
  0
VERTEX
  5
29232
  8
0
 10
301.92301422420331
 20
195.90399075054839
 30
0.0
  0
VERTEX
  5
29233
  8
0
 10
302.01556463809908
 20
195.7436887314197
 30
0.0
  0
SEQEND
  5
29234
  8
0
  0
POLYLINE
  5
2664A
  8
0
 66
     1
 10
0.0
 20
0.0
 30
0.0
  0
VERTEX
  5
29235
  8
0
 10
302.01556463809908
 20
195.7436887314197
 30
0.0
  0
VERTEX
  5
29236
  8
0
 10
302.16266086177131
 20
195.49715234719491
 30
0.0
  0
VERTEX
  5
29237
  8
0
 10
302.47531037957731
 20
195.0207818056324
 30
0.0
  0
VERTEX
  5
29238
  8
0
 10
302.81057179647729
 20
194.56810037685409
 30
0.0
  0
VERTEX
  5
29239
  8
0
 10
302.9858529540619
 20
194.35115971730639
 30
0.0
  0
VERTEX
  5
2923A
  8
0
 10
303.16574261047811
 20
194.14075321068961
 30
0.0
  0
VERTEX
  5
2923B
  8
0
 10
303.53771798024059
 20
193.7402953783367
 30
0.0
  0
VERTEX
  5
2923C
  8
0
 10
303.9292764537675
 20
193.3623495545225
 30
0.0
  0
VERTEX
  5
2923D
  8
0
 10
304.35013346703442
 20
192.9986447265228
 30
0.0
  0
VERTEX
  5
2923E
  8
0
 10
304.79930437873833
 20
192.65254667885711
 30
0.0
  0
VERTEX
  5
2923F
  8
0
 10
305.27524210022102
 20
192.3274085168741
 30
0.0
  0
VERTEX
  5
29240
  8
0
 10
305.52269633903308
 20
192.1736636333917
 30
0.0
  0
VERTEX
  5
29241
  8
0
 10
305.776139412183
 20
192.02628412269129
 30
0.0
  0
VERTEX
  5
29242
  8
0
 10
306.29985545540592
 20
191.75197332819971
 30
0.0
  0
VERTEX
  5
29243
  8
0
 10
306.84394454823712
 20
191.50698257232759
 30
0.0
  0
VERTEX
  5
29244
  8
0
 10
307.40607579252332
 20
191.29335638401969
 30
0.0
  0
VERTEX
  5
29245
  8
0
 10
307.98344001802047
 20
191.11295162762781
 30
0.0
  0
VERTEX
  5
29246
  8
0
 10
308.57269303569171
 20
190.9673467498132
 30
0.0
  0
VERTEX
  5
29247
  8
0
 10
308.87067876073883
 20
190.90796456456059
 30
0.0
  0
VERTEX
  5
29248
  8
0
 10
308.92051499639848
 20
190.8989485625489
 30
0.0
  0
VERTEX
  5
29249
  8
0
 10
309.02031574014359
 20
190.8816752438224
 30
0.0
  0
VERTEX
  5
2924A
  8
0
 10
309.12027296008989
 20
190.86541572821261
 30
0.0
  0
VERTEX
  5
2924B
  8
0
 10
309.17030471632893
 20
190.85766689665701
 30
0.0
  0
VERTEX
  5
2924C
  8
0
 10
309.2203689153921
 20
190.85017236995819
 30
0.0
  0
VERTEX
  5
2924D
  8
0
 10
309.32058557392207
 20
190.83594715025259
 30
0.0
  0
VERTEX
  5
2924E
  8
0
 10
309.42090464053132
 20
190.82274166152089
 30
0.0
  0
VERTEX
  5
2924F
  8
0
 10
309.52130758629232
 20
190.8105570931157
 30
0.0
  0
VERTEX
  5
29250
  8
0
 10
309.62177567869878
 20
190.79939421848661
 30
0.0
  0
VERTEX
  5
29251
  8
0
 10
309.72229001279618
 20
190.78925338386941
 30
0.0
  0
VERTEX
  5
29252
  8
0
 10
309.77255857339321
 20
190.7845662205182
 30
0.0
  0
VERTEX
  5
29253
  8
0
 10
309.82283154321948
 20
190.7801344985464
 30
0.0
  0
VERTEX
  5
29254
  8
0
 10
309.92338111710632
 20
190.77203702670971
 30
0.0
  0
VERTEX
  5
29255
  8
0
 10
310.02391950785818
 20
190.76495998099011
 30
0.0
  0
VERTEX
  5
29256
  8
0
 10
310.12442744971599
 20
190.7589019176894
 30
0.0
  0
VERTEX
  5
29257
  8
0
 10
310.22488567311649
 20
190.7538609337571
 30
0.0
  0
VERTEX
  5
29258
  8
0
 10
310.32527494079289
 20
190.7498346655575
 30
0.0
  0
VERTEX
  5
29259
  8
0
 10
310.37543772246391
 20
190.74820118539259
 30
0.0
  0
VERTEX
  5
2925A
  8
0
 10
310.4255760845823
 20
190.74682028947879
 30
0.0
  0
VERTEX
  5
2925B
  8
0
 10
310.52577004289992
 20
190.74481452440429
 30
0.0
  0
VERTEX
  5
2925C
  8
0
 10
310.62583789883598
 20
190.74381363610431
 30
0.0
  0
VERTEX
  5
2925D
  8
0
 10
310.67581867594362
 20
190.7436887314197
 30
0.0
  0
SEQEND
  5
2925E
  8
0
  0
LINE
  5
2664B
  8
0
 10
310.67581867594362
 20
190.7436887314197
 30
0.0
 11
327.12881329215099
 21
190.7436887314197
 31
0.0
  0
POLYLINE
  5
2664C
  8
0
 66
     1
 10
0.0
 20
0.0
 30
0.0
  0
VERTEX
  5
2925F
  8
0
 10
327.12881329215099
 20
190.7436887314197
 30
0.0
  0
VERTEX
  5
29260
  8
0
 10
327.17881481651767
 20
190.743813739823
 30
0.0
  0
VERTEX
  5
29261
  8
0
 10
327.27891549370759
 20
190.74481532842671
 30
0.0
  0
VERTEX
  5
29262
  8
0
 10
327.37913114515078
 20
190.74682217371901
 30
0.0
  0
VERTEX
  5
29263
  8
0
 10
327.42927634514962
 20
190.74820365295631
 30
0.0
  0
VERTEX
  5
29264
  8
0
 10
327.47944338019653
 20
190.7498376948397
 30
0.0
  0
VERTEX
  5
29265
  8
0
 10
327.57983366539543
 20
190.75386487797181
 30
0.0
  0
VERTEX
  5
29266
  8
0
 10
327.68028336117328
 20
190.75890627194801
 30
0.0
  0
VERTEX
  5
29267
  8
0
 10
327.78077375791878
 20
190.7649639856881
 30
0.0
  0
VERTEX
  5
29268
  8
0
 10
327.88128611143583
 20
190.77203968744291
 30
0.0
  0
VERTEX
  5
29269
  8
0
 10
327.98180167772131
 20
190.78013460580399
 30
0.0
  0
VERTEX
  5
2926A
  8
0
 10
328.032054816602
 20
190.78456453556279
 30
0.0
  0
VERTEX
  5
2926B
  8
0
 10
328.08230174702783
 20
190.78924953242861
 30
0.0
  0
VERTEX
  5
2926C
  8
0
 10
328.1827676771714
 20
190.799384826455
 30
0.0
  0
VERTEX
  5
2926D
  8
0
 10
328.2831809260519
 20
190.8105404205462
 30
0.0
  0
VERTEX
  5
2926E
  8
0
 10
328.3835230833505
 20
190.82271582852991
 30
0.0
  0
VERTEX
  5
2926F
  8
0
 10
328.48377590137392
 20
190.8359101545839
 30
0.0
  0
VERTEX
  5
29270
  8
0
 10
328.58392132501729
 20
190.85012210392409
 30
0.0
  0
VERTEX
  5
29271
  8
0
 10
328.63394818155558
 20
190.8576091765762
 30
0.0
  0
VERTEX
  5
29272
  8
0
 10
328.68394152081612
 20
190.8653499949514
 30
0.0
  0
VERTEX
  5
29273
  8
0
 10
328.78381890506512
 20
190.88159177279979
 30
0.0
  0
VERTEX
  5
29274
  8
0
 10
328.88353617097829
 20
190.89884502425409
 30
0.0
  0
VERTEX
  5
29275
  8
0
 10
328.93332943337168
 20
190.90785010443591
 30
0.0
  0
VERTEX
  5
29276
  8
0
 10
329.23104319587549
 20
190.96715409833629
 30
0.0
  0
VERTEX
  5
29277
  8
0
 10
329.81971841208173
 20
191.11253980538089
 30
0.0
  0
VERTEX
  5
29278
  8
0
 10
330.39654078061841
 20
191.29265931335519
 30
0.0
  0
VERTEX
  5
29279
  8
0
 10
330.95824771155742
 20
191.50597082993221
 30
0.0
  0
VERTEX
  5
2927A
  8
0
 10
331.50204746176598
 20
191.7506457037388
 30
0.0
  0
VERTEX
  5
2927B
  8
0
 10
332.02570293837181
 20
192.0247167855577
 30
0.0
  0
VERTEX
  5
2927C
  8
0
 10
332.2792236474819
 20
192.1720335136861
 30
0.0
  0
VERTEX
  5
2927D
  8
0
 10
332.52683422291199
 20
192.32576915286239
 30
0.0
  0
VERTEX
  5
2927E
  8
0
 10
333.00333347790291
 20
192.65109875124651
 30
0.0
  0
VERTEX
  5
2927F
  8
0
 10
333.45342145155217
 20
192.99776518222089
 30
0.0
  0
VERTEX
  5
29280
  8
0
 10
333.87557589440843
 20
193.36255098790201
 30
0.0
  0
VERTEX
  5
29281
  8
0
 10
334.26854497517007
 20
193.74195812431299
 30
0.0
  0
VERTEX
  5
29282
  8
0
 10
334.63928730736251
 20
194.14120586004259
 30
0.0
  0
VERTEX
  5
29283
  8
0
 10
334.8188094543047
 20
194.35119633595599
 30
0.0
  0
VERTEX
  5
29284
  8
0
 10
334.99386040114439
 20
194.56784595708351
 30
0.0
  0
VERTEX
  5
29285
  8
0
 10
335.32898813517261
 20
195.0203040209644
 30
0.0
  0
VERTEX
  5
29286
  8
0
 10
335.64181077511682
 20
195.49689219877109
 30
0.0
  0
VERTEX
  5
29287
  8
0
 10
335.78906732999542
 20
195.7436887314197
 30
0.0
  0
SEQEND
  5
29288
  8
0
  0
POLYLINE
  5
2664D
  8
0
 66
     1
 10
0.0
 20
0.0
 30
0.0
  0
VERTEX
  5
29289
  8
0
 10
335.78906732999542
 20
195.7436887314197
 30
0.0
  0
VERTEX
  5
2928A
  8
0
 10
335.88161774389118
 20
195.90399075054839
 30
0.0
  0
VERTEX
  5
2928B
  8
0
 10
336.0645553524518
 20
196.22084798319059
 30
0.0
  0
VERTEX
  5
2928C
  8
0
 10
336.24456769054029
 20
196.53263849874929
 30
0.0
  0
VERTEX
  5
2928D
  8
0
 10
336.3334617010064
 20
196.6866074413656
 30
0.0
  0
VERTEX
  5
2928E
  8
0
 10
336.42160627490432
 20
196.83927832176769
 30
0.0
  0
VERTEX
  5
2928F
  8
0
 10
336.59562342322101
 20
197.14068486404079
 30
0.0
  0
VERTEX
  5
29290
  8
0
 10
336.76657226693987
 20
197.43677694685721
 30
0.0
  0
VERTEX
  5
29291
  8
0
 10
336.93440676390611
 20
197.72747482286559
 30
0.0
  0
VERTEX
  5
29292
  8
0
 10
337.09908171076091
 20
198.01270019755151
 30
0.0
  0
VERTEX
  5
29293
  8
0
 10
337.26055275511641
 20
198.2923762503269
 30
0.0
  0
VERTEX
  5
29294
  8
0
 10
337.34007318936762
 20
198.43010968268931
 30
0.0
  0
VERTEX
  5
29295
  8
0
 10
337.4187764075013
 20
198.5664276552161
 30
0.0
  0
VERTEX
  5
29296
  8
0
 10
337.5737100530738
 20
198.8347806011497
 30
0.0
  0
VERTEX
  5
29297
  8
0
 10
337.72531196309939
 20
199.09736281183811
 30
0.0
  0
VERTEX
  5
29298
  8
0
 10
337.87354130618991
 20
199.35410356524329
 30
0.0
  0
VERTEX
  5
29299
  8
0
 10
338.01835815930002
 20
199.6049337126224
 30
0.0
  0
VERTEX
  5
2929A
  8
0
 10
338.1597235184808
 20
199.8497856971544
 30
0.0
  0
VERTEX
  5
2929B
  8
0
 10
338.22909995301927
 20
199.96994920662291
 30
0.0
  0
VERTEX
  5
2929C
  8
0
 10
338.2975993093844
 20
200.08859357213259
 30
0.0
  0
VERTEX
  5
2929D
  8
0
 10
338.43194839751823
 20
200.32129301873101
 30
0.0
  0
VERTEX
  5
2929E
  8
0
 10
338.5627345982474
 20
200.54782136332321
 30
0.0
  0
VERTEX
  5
2929F
  8
0
 10
338.62678057026687
 20
200.65875224088089
 30
0.0
  0
SEQEND
  5
292A0
  8
0
  0
LINE
  5
2664E
  8
0
 10
338.62678057026687
 20
200.65875224088089
 30
0.0
 11
341.24405349611033
 21
205.19200192571591
 31
0.0
  0
POLYLINE
  5
2664F
  8
0
 66
     1
 10
0.0
 20
0.0
 30
0.0
  0
VERTEX
  5
292A1
  8
0
 10
341.24405349611033
 20
205.19200192571591
 30
0.0
  0
VERTEX
  5
292A2
  8
0
 10
341.3094642490895
 20
205.30362289255299
 30
0.0
  0
VERTEX
  5
292A3
  8
0
 10
341.4445903307369
 20
205.52427956679821
 30
0.0
  0
VERTEX
  5
292A4
  8
0
 10
341.5853800598814
 20
205.7413663651005
 30
0.0
  0
VERTEX
  5
292A5
  8
0
 10
341.6578694835124
 20
205.8485255471833
 30
0.0
  0
SEQEND
  5
292A6
  8
0
  0
POLYLINE
  5
26650
  8
0
 66
     1
 10
0.0
 20
0.0
 30
0.0
  0
VERTEX
  5
292A7
  8
0
 10
341.6578694835124
 20
205.8485255471833
 30
0.0
  0
VERTEX
  5
292A8
  8
0
 10
341.82628257005848
 20
206.0865343654159
 30
0.0
  0
VERTEX
  5
292A9
  8
0
 10
342.19630437832552
 20
206.5627701174499
 30
0.0
  0
VERTEX
  5
292AA
  8
0
 10
342.6101866822039
 20
207.0327475722124
 30
0.0
  0
VERTEX
  5
292AB
  8
0
 10
342.83323972208922
 20
207.26306973758159
 30
0.0
  0
SEQEND
  5
292AC
  8
0
  0
POLYLINE
  5
26651
  8
0
 66
     1
 10
0.0
 20
0.0
 30
0.0
  0
VERTEX
  5
292AD
  8
0
 10
342.83323972208922
 20
207.26306973758159
 30
0.0
  0
VERTEX
  5
292AE
  8
0
 10
342.95419926734058
 20
207.3840292828327
 30
0.0
  0
VERTEX
  5
292AF
  8
0
 10
343.20328122300839
 20
207.6331112385005
 30
0.0
  0
VERTEX
  5
292B0
  8
0
 10
343.46164168300999
 20
207.8914716985027
 30
0.0
  0
VERTEX
  5
292B1
  8
0
 10
343.59419652249068
 20
208.02402653798339
 30
0.0
  0
VERTEX
  5
292B2
  8
0
 10
343.72894371807172
 20
208.158773733564
 30
0.0
  0
VERTEX
  5
292B3
  8
0
 10
344.0048387381633
 20
208.43466875365539
 30
0.0
  0
VERTEX
  5
292B4
  8
0
 10
344.28896694709681
 20
208.71879696258929
 30
0.0
  0
VERTEX
  5
292B5
  8
0
 10
344.58095781173739
 20
209.01078782723019
 30
0.0
  0
VERTEX
  5
292B6
  8
0
 10
344.88043054521899
 20
209.31026056071099
 30
0.0
  0
VERTEX
  5
292B7
  8
0
 10
345.18699460352963
 20
209.6168246190218
 30
0.0
  0
VERTEX
  5
292B8
  8
0
 10
345.3428112916103
 20
209.7726413071023
 30
0.0
  0
VERTEX
  5
292B9
  8
0
 10
345.50025019482212
 20
209.9300802103144
 30
0.0
  0
VERTEX
  5
292BA
  8
0
 10
345.81978880078532
 20
210.24961881627769
 30
0.0
  0
VERTEX
  5
292BB
  8
0
 10
346.14519370939439
 20
210.57502372488671
 30
0.0
  0
VERTEX
  5
292BC
  8
0
 10
346.47604055834739
 20
210.90587057383979
 30
0.0
  0
VERTEX
  5
292BD
  8
0
 10
346.81189788847888
 20
211.241727903971
 30
0.0
  0
VERTEX
  5
292BE
  8
0
 10
347.1523277064274
 20
211.5821577219194
 30
0.0
  0
VERTEX
  5
292BF
  8
0
 10
347.32411877911699
 20
211.75394879460961
 30
0.0
  0
VERTEX
  5
292C0
  8
0
 10
347.49688605582583
 20
211.926716071318
 30
0.0
  0
VERTEX
  5
292C1
  8
0
 10
347.84512359626621
 20
212.274953611759
 30
0.0
  0
VERTEX
  5
292C2
  8
0
 10
348.19658618928833
 20
212.62641620478101
 30
0.0
  0
VERTEX
  5
292C3
  8
0
 10
348.37338379591267
 20
212.8032138114049
 30
0.0
  0
SEQEND
  5
292C4
  8
0
  0
POLYLINE
  5
26652
  8
0
 66
     1
 10
0.0
 20
0.0
 30
0.0
  0
VERTEX
  5
292C5
  8
0
 10
348.37338379591267
 20
212.8032138114049
 30
0.0
  0
VERTEX
  5
292C6
  8
0
 10
348.43697099578839
 20
212.86737803727561
 30
0.0
  0
VERTEX
  5
292C7
  8
0
 10
348.56299733768191
 20
212.99805400334839
 30
0.0
  0
VERTEX
  5
292C8
  8
0
 10
348.68738148651647
 20
213.1318186071139
 30
0.0
  0
VERTEX
  5
292C9
  8
0
 10
348.74891647408748
 20
213.19984223544731
 30
0.0
  0
VERTEX
  5
292CA
  8
0
 10
348.80999174237689
 20
213.2686170308325
 30
0.0
  0
VERTEX
  5
292CB
  8
0
 10
348.93069937461098
 20
213.40838904400701
 30
0.0
  0
VERTEX
  5
292CC
  8
0
 10
349.04937924615609
 20
213.5510695587509
 30
0.0
  0
VERTEX
  5
292CD
  8
0
 10
349.16591034932623
 20
213.6965892014714
 30
0.0
  0
VERTEX
  5
292CE
  8
0
 10
349.28017625823691
 20
213.8448748990977
 30
0.0
  0
VERTEX
  5
292CF
  8
0
 10
349.39206550300491
 20
213.9958504787792
 30
0.0
  0
VERTEX
  5
292D0
  8
0
 10
349.44708547262582
 20
214.072322473301
 30
0.0
  0
VERTEX
  5
292D1
  8
0
 10
349.50147187061941
 20
214.1494372806101
 30
0.0
  0
VERTEX
  5
292D2
  8
0
 10
349.6082948105705
 20
214.30555504232331
 30
0.0
  0
VERTEX
  5
292D3
  8
0
 10
349.71243997518633
 20
214.46412317331121
 30
0.0
  0
VERTEX
  5
292D4
  8
0
 10
349.81381504852982
 20
214.62505466348739
 30
0.0
  0
VERTEX
  5
292D5
  8
0
 10
349.91233125982529
 20
214.78825793566651
 30
0.0
  0
VERTEX
  5
292D6
  8
0
 10
350.00790418397747
 20
214.95363795671261
 30
0.0
  0
VERTEX
  5
292D7
  8
0
 10
350.05456179060661
 20
215.03711371822919
 30
0.0
  0
VERTEX
  5
292D8
  8
0
 10
350.10045402923282
 20
215.12109669757501
 30
0.0
  0
VERTEX
  5
292D9
  8
0
 10
350.18990587634448
 20
215.29053360376381
 30
0.0
  0
VERTEX
  5
292DA
  8
0
 10
350.27618987265112
 20
215.4618460791034
 30
0.0
  0
VERTEX
  5
292DB
  8
0
 10
350.31812352135682
 20
215.54817315835771
 30
0.0
  0
SEQEND
  5
292DC
  8
0
  0
ARC
  5
26653
  8
0
 10
341.30231598404731
 20
219.87428162327069
 30
0.0
 40
10.0
 50
334.36663451367372
 51
0.0000008537736463
  0
LINE
  5
26654
  8
0
 10
351.30231598404731
 20
219.87428162327069
 30
0.0
 11
351.30231598404731
 21
266.45694165897572
 31
0.0
  0
ARC
  5
26655
  8
0
 10
371.30231598404748
 20
266.45694165897572
 30
0.0
 40
20.00000000000027
 50
149.9999999999998
 51
180.0
  0
LINE
  5
26656
  8
0
 10
353.98180790835852
 20
276.45694165897572
 30
0.0
 11
363.38496571485757
 21
292.7436887314197
 31
0.0
  0
ARC
  5
26657
  8
0
 10
365.11701652242681
 20
291.7436887314197
 30
0.0
 40
2.0000000000002771
 50
116.8660177646159
 51
149.9999999999998
  0
LINE
  5
2666C
  8
0
 10
268.90231598404728
 20
295.74368873141981
 30
0.0
 11
368.90231598404728
 21
295.74368873141981
 31
0.0
  0
CIRCLE
  5
2668E
  8
0
 10
318.90231598404728
 20
202.24368873141981
 30
0.0
 40
6.2583333333333391
  0
ARC
  5
26690
  8
0
 10
318.90231598404728
 20
202.24368873141981
 30
0.0
 40
16.0
 50
222.73592709763659
 51
317.26418029436661
  0
ARC
  5
26695
  8
0
 10
318.90231598404728
 20
202.24368873141981
 30
0.0
 40
53.499999999999979
 50
127.2725681141776
 51
52.727431885822398
  0
ARC
  5
2669B
  8
0
 10
318.90231598404728
 20
202.24368873141981
 30
0.0
 40
62.5
 50
121.2249877309914
 51
58.775012269008549
  0
LINE
  5
266A9
  8
0
 10
364.29141532215522
 20
180.10594581857089
 30
0.0
 11
335.08060881743228
 21
194.35300808921599
 31
0.0
  0
ARC
  5
266B7
  8
0
 10
318.90231598404728
 20
202.24368873141981
 30
0.0
 40
17.999999999999989
 50
202.81227620400369
 51
337.18771378805309
  0
LINE
  5
266CE
  8
0
 10
318.90231598404728
 20
184.2436887314197
 30
0.0
 11
318.90231598404728
 21
151.7436887314197
 31
0.0
  0
LINE
  5
266D0
  8
0
 10
277.03591857001771
 20
174.0044471061473
 30
0.0
 11
303.97963967805663
 21
192.1782164689466
 31
0.0
  0
ARC
  5
266D5
  8
0
 10
318.90231598404728
 20
202.24368873141981
 30
0.0
 40
50.5
 50
129.91004788308189
 51
50.089952116918063
  0
LINE
  5
266D7
  8
0
 10
362.6365988751615
 20
227.4936887314197
 30
0.0
 11
351.3023159840472
 21
220.94983745316401
 31
0.0
  0
LINE
  5
266DA
  8
0
 10
275.168033092933
 20
227.4936887314197
 30
0.0
 11
286.50231598404719
 21
220.94983745316401
 31
0.0
  0
ARC
  5
266DD
  8
0
 10
318.90231598404739
 20
202.24368873141981
 30
0.0
 40
46.439712300844128
 50
30.00000000000021
 51
45.758935540257362
  0
ARC
  5
266DE
  8
0
 10
318.90231598404728
 20
202.24368873141981
 30
0.0
 40
46.439712300844313
 50
149.9999999999998
 51
214.0000000000054
  0
ARC
  5
266E1
  8
0
 10
318.90231598404728
 20
202.24368873141981
 30
0.0
 40
46.439712300844363
 50
270.0
 51
334.00000000000489
  0
LINE
  5
266E6
  8
1
 10
241.6092196340108
 20
202.24368873141981
 30
0.0
 11
396.1954123340837
 21
202.24368873141981
 31
0.0
  0
LINE
  5
268A0
  8
0
 10
492.00966464464022
 20
293.74368873141981
 30
0.0
 11
492.00966464464022
 21
215.54817315835771
 31
0.0
  0
LINE
  5
268A1
  8
0
 10
492.00966464464022
 20
293.74368873141981
 30
0.0
 11
573.00966464464022
 21
293.74368873141981
 31
0.0
  0
LINE
  5
268A2
  8
0
 10
510.00966464464028
 20
293.74368873141981
 30
0.0
 11
510.00966464464028
 21
190.7436887314197
 31
0.0
  0
LINE
  5
268A5
  8
0
 10
573.00966464464022
 20
293.74368873141981
 30
0.0
 11
573.00966464464022
 21
215.54817315835771
 31
0.0
  0
LINE
  5
268A8
  8
0
 10
555.00966464464022
 20
293.74368873141981
 30
0.0
 11
555.00966464464022
 21
190.7436887314197
 31
0.0
  0
POLYLINE
  5
268AA
  8
0
 66
     1
 10
0.0
 20
0.0
 30
0.0
  0
VERTEX
  5
292DD
  8
0
 10
574.81874143097855
 20
212.8032138114049
 30
0.0
  0
VERTEX
  5
292DE
  8
0
 10
574.83113424829673
 20
212.86737803727561
 30
0.0
  0
VERTEX
  5
292DF
  8
0
 10
574.85443645913028
 20
212.99805400334839
 30
0.0
  0
VERTEX
  5
292E0
  8
0
 10
574.87580271461502
 20
213.1318186071139
 30
0.0
  0
VERTEX
  5
292E1
  8
0
 10
574.88577669558424
 20
213.19984223544731
 30
0.0
  0
VERTEX
  5
292E2
  8
0
 10
574.89528746453527
 20
213.2686170308325
 30
0.0
  0
VERTEX
  5
292E3
  8
0
 10
574.91294966714804
 20
213.40838904400789
 30
0.0
  0
VERTEX
  5
292E4
  8
0
 10
574.92885251281496
 20
213.55106955875181
 30
0.0
  0
VERTEX
  5
292E5
  8
0
 10
574.94306309664034
 20
213.6965892014714
 30
0.0
  0
VERTEX
  5
292E6
  8
0
 10
574.95565205057335
 20
213.8448748990977
 30
0.0
  0
VERTEX
  5
292E7
  8
0
 10
574.96669314448127
 20
213.9958504787792
 30
0.0
  0
VERTEX
  5
292E8
  8
0
 10
574.97165705166719
 20
214.072322473301
 30
0.0
  0
VERTEX
  5
292E9
  8
0
 10
574.97626286476259
 20
214.14943728061101
 30
0.0
  0
VERTEX
  5
292EA
  8
0
 10
574.98443999054859
 20
214.30555504232419
 30
0.0
  0
VERTEX
  5
292EB
  8
0
 10
574.99130516320724
 20
214.46412317331121
 30
0.0
  0
VERTEX
  5
292EC
  8
0
 10
574.99694019727394
 20
214.62505466348739
 30
0.0
  0
VERTEX
  5
292ED
  8
0
 10
575.00142788445339
 20
214.78825793566651
 30
0.0
  0
VERTEX
  5
292EE
  8
0
 10
575.00485168454679
 20
214.95363795671261
 30
0.0
  0
VERTEX
  5
292EF
  8
0
 10
575.0061908019652
 20
215.03711371822919
 30
0.0
  0
VERTEX
  5
292F0
  8
0
 10
575.00729536357551
 20
215.12109669757501
 30
0.0
  0
VERTEX
  5
292F1
  8
0
 10
575.00884262262946
 20
215.29053360376381
 30
0.0
  0
VERTEX
  5
292F2
  8
0
 10
575.00957672270897
 20
215.4618460791034
 30
0.0
  0
VERTEX
  5
292F3
  8
0
 10
575.00966464464022
 20
215.54817315835771
 30
0.0
  0
SEQEND
  5
292F4
  8
0
  0
POLYLINE
  5
268AC
  8
0
 66
     1
 10
0.0
 20
0.0
 30
0.0
  0
VERTEX
  5
292F5
  8
0
 10
571.64114370375376
 20
207.26306973758159
 30
0.0
  0
VERTEX
  5
292F6
  8
0
 10
571.7752111547984
 20
207.38402928283361
 30
0.0
  0
VERTEX
  5
292F7
  8
0
 10
572.03668528425942
 20
207.63311123850141
 30
0.0
  0
VERTEX
  5
292F8
  8
0
 10
572.28899543808677
 20
207.8914716985027
 30
0.0
  0
VERTEX
  5
292F9
  8
0
 10
572.4116107207692
 20
208.02402653798339
 30
0.0
  0
VERTEX
  5
292FA
  8
0
 10
572.53181257724418
 20
208.158773733564
 30
0.0
  0
VERTEX
  5
292FB
  8
0
 10
572.76482004258673
 20
208.4346687536563
 30
0.0
  0
VERTEX
  5
292FC
  8
0
 10
572.98771396781808
 20
208.71879696258929
 30
0.0
  0
VERTEX
  5
292FD
  8
0
 10
573.20020367576433
 20
209.01078782723019
 30
0.0
  0
VERTEX
  5
292FE
  8
0
 10
573.40201205744802
 20
209.3102605607119
 30
0.0
  0
VERTEX
  5
292FF
  8
0
 10
573.59287593346664
 20
209.6168246190218
 30
0.0
  0
VERTEX
  5
29300
  8
0
 10
573.68412533199921
 20
209.77264130710321
 30
0.0
  0
VERTEX
  5
29301
  8
0
 10
573.77254639720695
 20
209.9300802103144
 30
0.0
  0
VERTEX
  5
29302
  8
0
 10
573.94078913944486
 20
210.24961881627769
 30
0.0
  0
VERTEX
  5
29303
  8
0
 10
574.09738475391055
 20
210.57502372488671
 30
0.0
  0
VERTEX
  5
29304
  8
0
 10
574.24212902341549
 20
210.90587057383979
 30
0.0
  0
VERTEX
  5
29305
  8
0
 10
574.37483318617478
 20
211.24172790397191
 30
0.0
  0
VERTEX
  5
29306
  8
0
 10
574.49532418197214
 20
211.58215772192031
 30
0.0
  0
VERTEX
  5
29307
  8
0
 10
574.55094001030523
 20
211.75394879460961
 30
0.0
  0
VERTEX
  5
29308
  8
0
 10
574.60344487784778
 20
211.926716071318
 30
0.0
  0
VERTEX
  5
29309
  8
0
 10
574.69905427301728
 20
212.274953611759
 30
0.0
  0
VERTEX
  5
2930A
  8
0
 10
574.78202768275128
 20
212.62641620478101
 30
0.0
  0
VERTEX
  5
2930B
  8
0
 10
574.81874143097855
 20
212.8032138114049
 30
0.0
  0
SEQEND
  5
2930C
  8
0
  0
POLYLINE
  5
268AF
  8
0
 66
     1
 10
0.0
 20
0.0
 30
0.0
  0
VERTEX
  5
2930D
  8
0
 10
570.00966464464022
 20
205.84852554718421
 30
0.0
  0
VERTEX
  5
2930E
  8
0
 10
570.29063399295615
 20
206.0865343654159
 30
0.0
  0
VERTEX
  5
2930F
  8
0
 10
570.84370730885598
 20
206.56277011745081
 30
0.0
  0
VERTEX
  5
29310
  8
0
 10
571.38051307194019
 20
207.0327475722124
 30
0.0
  0
VERTEX
  5
29311
  8
0
 10
571.64114370375376
 20
207.26306973758159
 30
0.0
  0
SEQEND
  5
29312
  8
0
  0
LINE
  5
268B8
  8
0
 10
555.00966464464022
 20
190.7436887314197
 30
0.0
 11
557.12971884278431
 21
190.7436887314197
 31
0.0
  0
POLYLINE
  5
268B9
  8
0
 66
     1
 10
0.0
 20
0.0
 30
0.0
  0
VERTEX
  5
29313
  8
0
 10
555.11590907351581
 20
190.7436887314197
 30
0.0
  0
VERTEX
  5
29314
  8
0
 10
555.15110512212277
 20
190.74804170972581
 30
0.0
  0
VERTEX
  5
29315
  8
0
 10
555.23731704712702
 20
190.78320410380269
 30
0.0
  0
VERTEX
  5
29316
  8
0
 10
555.34458301616053
 20
190.85410181597311
 30
0.0
  0
VERTEX
  5
29317
  8
0
 10
555.40598912289454
 20
190.9029958474384
 30
0.0
  0
VERTEX
  5
29318
  8
0
 10
555.47245920796286
 20
190.96081428588971
 30
0.0
  0
VERTEX
  5
29319
  8
0
 10
555.6200914588502
 20
191.1029412344887
 30
0.0
  0
VERTEX
  5
2931A
  8
0
 10
555.786217183899
 20
191.27962900835431
 30
0.0
  0
VERTEX
  5
2931B
  8
0
 10
555.96917412369726
 20
191.4895813346975
 30
0.0
  0
VERTEX
  5
2931C
  8
0
 10
556.16702338131199
 20
191.73119794542711
 30
0.0
  0
VERTEX
  5
2931D
  8
0
 10
556.37765346761262
 20
192.00271595188681
 30
0.0
  0
VERTEX
  5
2931E
  8
0
 10
556.48698754640714
 20
192.1490052585095
 30
0.0
  0
VERTEX
  5
2931F
  8
0
 10
556.59855553902867
 20
192.3019084193001
 30
0.0
  0
VERTEX
  5
29320
  8
0
 10
556.82698702802065
 20
192.62623435239939
 30
0.0
  0
VERTEX
  5
29321
  8
0
 10
557.06004559026144
 20
192.97288859687251
 30
0.0
  0
VERTEX
  5
29322
  8
0
 10
557.29468643928146
 20
193.33875664060719
 30
0.0
  0
VERTEX
  5
29323
  8
0
 10
557.52778273379192
 20
193.7204075171303
 30
0.0
  0
VERTEX
  5
29324
  8
0
 10
557.76117420991272
 20
194.12289991024591
 30
0.0
  0
VERTEX
  5
29325
  8
0
 10
557.87904759157846
 20
194.33487412040631
 30
0.0
  0
VERTEX
  5
29326
  8
0
 10
557.99712731106979
 20
194.55374328828739
 30
0.0
  0
VERTEX
  5
29327
  8
0
 10
558.23207561770596
 20
195.01130185110469
 30
0.0
  0
VERTEX
  5
29328
  8
0
 10
558.46225269168031
 20
195.4937473707632
 30
0.0
  0
VERTEX
  5
29329
  8
0
 10
558.57433659099775
 20
195.7436887314197
 30
0.0
  0
SEQEND
  5
2932A
  8
0
  0
POLYLINE
  5
268BA
  8
0
 66
     1
 10
0.0
 20
0.0
 30
0.0
  0
VERTEX
  5
2932B
  8
0
 10
561.18741363335107
 20
195.7436887314197
 30
0.0
  0
VERTEX
  5
2932C
  8
0
 10
561.05151011792668
 20
195.49689219877109
 30
0.0
  0
VERTEX
  5
2932D
  8
0
 10
560.7741545221005
 20
195.0203040209644
 30
0.0
  0
VERTEX
  5
2932E
  8
0
 10
560.49314988816468
 20
194.5678459570845
 30
0.0
  0
VERTEX
  5
2932F
  8
0
 10
560.35262358185196
 20
194.35119633595599
 30
0.0
  0
VERTEX
  5
29330
  8
0
 10
560.21276333438232
 20
194.14120586004259
 30
0.0
  0
VERTEX
  5
29331
  8
0
 10
559.93695978571645
 20
193.74195812431299
 30
0.0
  0
VERTEX
  5
29332
  8
0
 10
559.66275308924457
 20
193.36255098790201
 30
0.0
  0
VERTEX
  5
29333
  8
0
 10
559.38766295131154
 20
192.99776518222089
 30
0.0
  0
VERTEX
  5
29334
  8
0
 10
559.11523177113065
 20
192.65109875124739
 30
0.0
  0
VERTEX
  5
29335
  8
0
 10
558.84887703872721
 20
192.32576915286239
 30
0.0
  0
VERTEX
  5
29336
  8
0
 10
558.71899631159374
 20
192.1720335136861
 30
0.0
  0
VERTEX
  5
29337
  8
0
 10
558.59183425817184
 20
192.0247167855577
 30
0.0
  0
VERTEX
  5
29338
  8
0
 10
558.34714813046958
 20
191.75064570373971
 30
0.0
  0
VERTEX
  5
29339
  8
0
 10
558.11759821822898
 20
191.50597082993221
 30
0.0
  0
VERTEX
  5
2933A
  8
0
 10
557.90551619790926
 20
191.2926593133561
 30
0.0
  0
VERTEX
  5
2933B
  8
0
 10
557.71306089396592
 20
191.1125398053818
 30
0.0
  0
VERTEX
  5
2933C
  8
0
 10
557.54210024523729
 20
190.96715409833629
 30
0.0
  0
VERTEX
  5
2933D
  8
0
 10
557.46514643904948
 20
190.90785010443591
 30
0.0
  0
VERTEX
  5
2933E
  8
0
 10
557.45288873833385
 20
190.89884502425409
 30
0.0
  0
VERTEX
  5
2933F
  8
0
 10
557.42886539446306
 20
190.88159177279979
 30
0.0
  0
VERTEX
  5
29340
  8
0
 10
557.40550167821903
 20
190.8653499949514
 30
0.0
  0
VERTEX
  5
29341
  8
0
 10
557.39406843784036
 20
190.8576091765762
 30
0.0
  0
VERTEX
  5
29342
  8
0
 10
557.38280157248778
 20
190.850122103925
 30
0.0
  0
VERTEX
  5
29343
  8
0
 10
557.36076873042441
 20
190.8359101545839
 30
0.0
  0
VERTEX
  5
29344
  8
0
 10
557.33940646314738
 20
190.82271582853079
 30
0.0
  0
VERTEX
  5
29345
  8
0
 10
557.31871772837985
 20
190.81054042054711
 30
0.0
  0
VERTEX
  5
29346
  8
0
 10
557.29870512007653
 20
190.799384826455
 30
0.0
  0
VERTEX
  5
29347
  8
0
 10
557.27937085907536
 20
190.78924953242861
 30
0.0
  0
VERTEX
  5
29348
  8
0
 10
557.26995869873952
 20
190.78456453556279
 30
0.0
  0
VERTEX
  5
29349
  8
0
 10
557.26071678481185
 20
190.78013460580399
 30
0.0
  0
VERTEX
  5
2934A
  8
0
 10
557.24274434813049
 20
190.77203968744379
 30
0.0
  0
VERTEX
  5
2934B
  8
0
 10
557.22545460522406
 20
190.7649639856881
 30
0.0
  0
VERTEX
  5
2934C
  8
0
 10
557.20884821273864
 20
190.75890627194801
 30
0.0
  0
VERTEX
  5
2934D
  8
0
 10
557.19292542406436
 20
190.75386487797181
 30
0.0
  0
VERTEX
  5
2934E
  8
0
 10
557.17768608684855
 20
190.7498376948397
 30
0.0
  0
VERTEX
  5
2934F
  8
0
 10
557.17032255364836
 20
190.74820365295631
 30
0.0
  0
VERTEX
  5
29350
  8
0
 10
557.16312964174608
 20
190.74682217371989
 30
0.0
  0
VERTEX
  5
29351
  8
0
 10
557.14925512243735
 20
190.74481532842671
 30
0.0
  0
VERTEX
  5
29352
  8
0
 10
557.13606115692733
 20
190.743813739823
 30
0.0
  0
VERTEX
  5
29353
  8
0
 10
557.12971884278443
 20
190.7436887314197
 30
0.0
  0
SEQEND
  5
29354
  8
0
  0
POLYLINE
  5
268BC
  8
0
 66
     1
 10
0.0
 20
0.0
 30
0.0
  0
VERTEX
  5
29355
  8
0
 10
558.57433659099775
 20
195.7436887314197
 30
0.0
  0
VERTEX
  5
29356
  8
0
 10
558.69208582080034
 20
196.00911638626619
 30
0.0
  0
VERTEX
  5
29357
  8
0
 10
558.93262509797887
 20
196.53313436018561
 30
0.0
  0
VERTEX
  5
29358
  8
0
 10
559.17978734398935
 20
197.0478233352278
 30
0.0
  0
VERTEX
  5
29359
  8
0
 10
559.30581452760862
 20
197.30159080808599
 30
0.0
  0
VERTEX
  5
2935A
  8
0
 10
559.43345199146916
 20
197.5529322427364
 30
0.0
  0
VERTEX
  5
2935B
  8
0
 10
559.6934953011413
 20
198.04821468727911
 30
0.0
  0
VERTEX
  5
2935C
  8
0
 10
559.95979042217607
 20
198.5334290668352
 30
0.0
  0
VERTEX
  5
2935D
  8
0
 10
560.23220745406866
 20
199.00833869065079
 30
0.0
  0
VERTEX
  5
2935E
  8
0
 10
560.51061351000681
 20
199.4727118947003
 30
0.0
  0
VERTEX
  5
2935F
  8
0
 10
560.79487278169199
 20
199.92632215469339
 30
0.0
  0
VERTEX
  5
29360
  8
0
 10
560.93915415077777
 20
200.14902182446889
 30
0.0
  0
VERTEX
  5
29361
  8
0
 10
561.08484660558986
 20
200.368948196573
 30
0.0
  0
VERTEX
  5
29362
  8
0
 10
561.38039353056945
 20
200.80037410445769
 30
0.0
  0
VERTEX
  5
29363
  8
0
 10
561.68136938690452
 20
201.220389425961
 30
0.0
  0
VERTEX
  5
29364
  8
0
 10
561.98762735660091
 20
201.62878927486051
 30
0.0
  0
VERTEX
  5
29365
  8
0
 10
562.29901804501435
 20
202.02537443103211
 30
0.0
  0
VERTEX
  5
29366
  8
0
 10
562.61538955372771
 20
202.4099514376403
 30
0.0
  0
VERTEX
  5
29367
  8
0
 10
562.7753949810259
 20
202.5976780287765
 30
0.0
  0
VERTEX
  5
29368
  8
0
 10
562.93658755464605
 20
202.78233269550131
 30
0.0
  0
VERTEX
  5
29369
  8
0
 10
563.26245536528086
 20
203.1423365545979
 30
0.0
  0
VERTEX
  5
2936A
  8
0
 10
563.59283402517906
 20
203.4897874026901
 30
0.0
  0
VERTEX
  5
2936B
  8
0
 10
563.75966464464022
 20
203.65875224088089
 30
0.0
  0
SEQEND
  5
2936C
  8
0
  0
LINE
  5
268BD
  8
0
 10
563.75966464464022
 20
203.65875224088089
 30
0.0
 11
565.29291432947548
 21
205.1920019257168
 31
0.0
  0
LINE
  5
268BE
  8
0
 10
569.29291432947548
 20
205.1920019257168
 30
0.0
 11
564.75966464464022
 21
200.65875224088089
 31
0.0
  0
POLYLINE
  5
268BF
  8
0
 66
     1
 10
0.0
 20
0.0
 30
0.0
  0
VERTEX
  5
2936D
  8
0
 10
564.75966464464022
 20
200.65875224088089
 30
0.0
  0
VERTEX
  5
2936E
  8
0
 10
564.64977744979979
 20
200.54782136332321
 30
0.0
  0
VERTEX
  5
2936F
  8
0
 10
564.43159814529884
 20
200.32129301873101
 30
0.0
  0
VERTEX
  5
29370
  8
0
 10
564.2155945302103
 20
200.08859357213259
 30
0.0
  0
VERTEX
  5
29371
  8
0
 10
564.10842680979306
 20
199.96994920662291
 30
0.0
  0
VERTEX
  5
29372
  8
0
 10
564.00182478142335
 20
199.8497856971544
 30
0.0
  0
VERTEX
  5
29373
  8
0
 10
563.79034647417325
 20
199.60493371262331
 30
0.0
  0
VERTEX
  5
29374
  8
0
 10
563.58121656653452
 20
199.3541035652442
 30
0.0
  0
VERTEX
  5
29375
  8
0
 10
563.37449138408033
 20
199.09736281183899
 30
0.0
  0
VERTEX
  5
29376
  8
0
 10
563.17022660471218
 20
198.8347806011497
 30
0.0
  0
VERTEX
  5
29377
  8
0
 10
562.9684772436641
 20
198.5664276552161
 30
0.0
  0
VERTEX
  5
29378
  8
0
 10
562.8685628524222
 20
198.43010968268931
 30
0.0
  0
VERTEX
  5
29379
  8
0
 10
562.76929763868498
 20
198.2923762503269
 30
0.0
  0
VERTEX
  5
2937A
  8
0
 10
562.57274143540349
 20
198.01270019755151
 30
0.0
  0
VERTEX
  5
2937B
  8
0
 10
562.37886157288006
 20
197.72747482286559
 30
0.0
  0
VERTEX
  5
2937C
  8
0
 10
562.1877102693486
 20
197.43677694685721
 30
0.0
  0
VERTEX
  5
2937D
  8
0
 10
561.99933900815165
 20
197.14068486404079
 30
0.0
  0
VERTEX
  5
2937E
  8
0
 10
561.81379852387545
 20
196.83927832176869
 30
0.0
  0
VERTEX
  5
2937F
  8
0
 10
561.72210546953556
 20
196.6866074413656
 30
0.0
  0
VERTEX
  5
29380
  8
0
 10
561.63113878868444
 20
196.5326384987502
 30
0.0
  0
VERTEX
  5
29381
  8
0
 10
561.45140899886189
 20
196.2208479831915
 30
0.0
  0
VERTEX
  5
29382
  8
0
 10
561.27465756156141
 20
195.9039907505493
 30
0.0
  0
VERTEX
  5
29383
  8
0
 10
561.18741363335107
 20
195.7436887314197
 30
0.0
  0
SEQEND
  5
29384
  8
0
  0
POLYLINE
  5
268C1
  8
0
 66
     1
 10
0.0
 20
0.0
 30
0.0
  0
VERTEX
  5
29385
  8
0
 10
565.29291432947548
 20
205.1920019257168
 30
0.0
  0
VERTEX
  5
29386
  8
0
 10
565.35628955447748
 20
205.2548483033616
 30
0.0
  0
VERTEX
  5
29387
  8
0
 10
565.48540636948246
 20
205.3797345073217
 30
0.0
  0
VERTEX
  5
29388
  8
0
 10
565.61765550765006
 20
205.50352331832531
 30
0.0
  0
VERTEX
  5
29389
  8
0
 10
565.68494598130656
 20
205.56499800918479
 30
0.0
  0
VERTEX
  5
2938A
  8
0
 10
565.75300899350736
 20
205.62618855056641
 30
0.0
  0
VERTEX
  5
2938B
  8
0
 10
565.89143819489948
 20
205.7477042559122
 30
0.0
  0
VERTEX
  5
2938C
  8
0
 10
566.03291382904661
 20
205.86804472940091
 30
0.0
  0
VERTEX
  5
2938D
  8
0
 10
566.17740596873864
 20
205.98718451467079
 30
0.0
  0
VERTEX
  5
2938E
  8
0
 10
566.3248840486649
 20
206.10509840935259
 30
0.0
  0
VERTEX
  5
2938F
  8
0
 10
566.47531687188098
 20
206.22176147039411
 30
0.0
  0
VERTEX
  5
29390
  8
0
 10
566.55163139208651
 20
206.2796162158038
 30
0.0
  0
VERTEX
  5
29391
  8
0
 10
566.62867261640747
 20
206.3371490193413
 30
0.0
  0
VERTEX
  5
29392
  8
0
 10
566.78491884196092
 20
206.45123664755741
 30
0.0
  0
VERTEX
  5
29393
  8
0
 10
566.94402249681707
 20
206.56400022138399
 30
0.0
  0
VERTEX
  5
29394
  8
0
 10
567.10594992480185
 20
206.67541588725089
 30
0.0
  0
VERTEX
  5
29395
  8
0
 10
567.27066687241165
 20
206.78546007671679
 30
0.0
  0
VERTEX
  5
29396
  8
0
 10
567.43813849605783
 20
206.89410951145871
 30
0.0
  0
VERTEX
  5
29397
  8
0
 10
567.52289626323341
 20
206.94790400187321
 30
0.0
  0
VERTEX
  5
29398
  8
0
 10
567.60832936943871
 20
207.0013412081926
 30
0.0
  0
VERTEX
  5
29399
  8
0
 10
567.78120349103301
 20
207.10713248353929
 30
0.0
  0
VERTEX
  5
2939A
  8
0
 10
567.95672429171509
 20
207.2114609588198
 30
0.0
  0
VERTEX
  5
2939B
  8
0
 10
568.04546561555946
 20
207.26306973758159
 30
0.0
  0
SEQEND
  5
2939C
  8
0
  0
POLYLINE
  5
268C2
  8
0
 66
     1
 10
0.0
 20
0.0
 30
0.0
  0
VERTEX
  5
2939D
  8
0
 10
571.64114370375376
 20
207.26306973758159
 30
0.0
  0
VERTEX
  5
2939E
  8
0
 10
571.38051307194053
 20
207.0327475722124
 30
0.0
  0
VERTEX
  5
2939F
  8
0
 10
570.84370730885394
 20
206.56277011744899
 30
0.0
  0
VERTEX
  5
293A0
  8
0
 10
570.29063399295467
 20
206.08653436541499
 30
0.0
  0
VERTEX
  5
293A1
  8
0
 10
570.00966464464022
 20
205.84852554718421
 30
0.0
  0
SEQEND
  5
293A2
  8
0
  0
POLYLINE
  5
268C3
  8
0
 66
     1
 10
0.0
 20
0.0
 30
0.0
  0
VERTEX
  5
293A3
  8
0
 10
570.00966464464022
 20
205.84852554718421
 30
0.0
  0
VERTEX
  5
293A4
  8
0
 10
569.88410927989992
 20
205.74136636510141
 30
0.0
  0
VERTEX
  5
293A5
  8
0
 10
569.64025431583775
 20
205.52427956679821
 30
0.0
  0
VERTEX
  5
293A6
  8
0
 10
569.4062090769969
 20
205.3036228925539
 30
0.0
  0
VERTEX
  5
293A7
  8
0
 10
569.29291432947548
 20
205.1920019257168
 30
0.0
  0
SEQEND
  5
293A8
  8
0
  0
LINE
  5
268C5
  8
0
 10
568.04546561555946
 20
207.26306973758159
 30
0.0
 11
569.00966464464022
 21
207.81975030657401
 31
0.0
  0
POLYLINE
  5
268C6
  8
0
 66
     1
 10
0.0
 20
0.0
 30
0.0
  0
VERTEX
  5
293A9
  8
0
 10
569.00966464464022
 20
207.81975030657401
 30
0.0
  0
VERTEX
  5
293AA
  8
0
 10
569.16293684300513
 20
207.91053223592829
 30
0.0
  0
VERTEX
  5
293AB
  8
0
 10
569.46322819369902
 20
208.10222019022061
 30
0.0
  0
VERTEX
  5
293AC
  8
0
 10
569.75468762913715
 20
208.3070873779707
 30
0.0
  0
VERTEX
  5
293AD
  8
0
 10
569.89692403890967
 20
208.4143372228373
 30
0.0
  0
VERTEX
  5
293AE
  8
0
 10
570.03673715261937
 20
208.52472752460201
 30
0.0
  0
VERTEX
  5
293AF
  8
0
 10
570.30881742835527
 20
208.7547090253311
 30
0.0
  0
VERTEX
  5
293B0
  8
0
 10
570.5703888906886
 20
208.99657580108851
 30
0.0
  0
VERTEX
  5
293B1
  8
0
 10
570.8209328141171
 20
209.2498482029705
 30
0.0
  0
VERTEX
  5
293B2
  8
0
 10
571.05995234198326
 20
209.5140239634429
 30
0.0
  0
VERTEX
  5
293B3
  8
0
 10
571.28697347179616
 20
209.7885791923872
 30
0.0
  0
VERTEX
  5
293B4
  8
0
 10
571.39584299312855
 20
209.92957973427929
 30
0.0
  0
VERTEX
  5
293B5
  8
0
 10
571.5015459952325
 20
210.07296941603909
 30
0.0
  0
VERTEX
  5
293B6
  8
0
 10
571.70324439094884
 20
210.36663065673559
 30
0.0
  0
VERTEX
  5
293B7
  8
0
 10
571.89166866843914
 20
210.66898055135249
 30
0.0
  0
VERTEX
  5
293B8
  8
0
 10
572.06644516126005
 20
210.9794195061877
 30
0.0
  0
VERTEX
  5
293B9
  8
0
 10
572.22722726805398
 20
211.29733188603041
 30
0.0
  0
VERTEX
  5
293BA
  8
0
 10
572.37369613989767
 20
211.62208723502951
 30
0.0
  0
VERTEX
  5
293BB
  8
0
 10
572.44147121773858
 20
211.7868302601091
 30
0.0
  0
VERTEX
  5
293BC
  8
0
 10
572.50556131261578
 20
211.9530415269582
 30
0.0
  0
VERTEX
  5
293BD
  8
0
 10
572.62256128280364
 20
212.2895384423955
 30
0.0
  0
VERTEX
  5
293BE
  8
0
 10
572.72446402641788
 20
212.6309106702729
 30
0.0
  0
VERTEX
  5
293BF
  8
0
 10
572.76968960595821
 20
212.8032138114059
 30
0.0
  0
SEQEND
  5
293C0
  8
0
  0
POLYLINE
  5
268C7
  8
0
 66
     1
 10
0.0
 20
0.0
 30
0.0
  0
VERTEX
  5
293C1
  8
0
 10
574.81874143097855
 20
212.8032138114059
 30
0.0
  0
VERTEX
  5
293C2
  8
0
 10
574.78202768275128
 20
212.62641620478101
 30
0.0
  0
VERTEX
  5
293C3
  8
0
 10
574.69905427301728
 20
212.274953611759
 30
0.0
  0
VERTEX
  5
293C4
  8
0
 10
574.60344487784778
 20
211.92671607131891
 30
0.0
  0
VERTEX
  5
293C5
  8
0
 10
574.55094001030523
 20
211.75394879460961
 30
0.0
  0
VERTEX
  5
293C6
  8
0
 10
574.49532418197214
 20
211.58215772192031
 30
0.0
  0
VERTEX
  5
293C7
  8
0
 10
574.37483318617478
 20
211.24172790397191
 30
0.0
  0
VERTEX
  5
293C8
  8
0
 10
574.24212902341549
 20
210.90587057383979
 30
0.0
  0
VERTEX
  5
293C9
  8
0
 10
574.09738475391055
 20
210.57502372488671
 30
0.0
  0
VERTEX
  5
293CA
  8
0
 10
573.94078913944486
 20
210.24961881627769
 30
0.0
  0
VERTEX
  5
293CB
  8
0
 10
573.77254639720695
 20
209.9300802103144
 30
0.0
  0
VERTEX
  5
293CC
  8
0
 10
573.68412533199921
 20
209.77264130710321
 30
0.0
  0
VERTEX
  5
293CD
  8
0
 10
573.59287593346664
 20
209.6168246190218
 30
0.0
  0
VERTEX
  5
293CE
  8
0
 10
573.40201205744802
 20
209.3102605607119
 30
0.0
  0
VERTEX
  5
293CF
  8
0
 10
573.20020367576433
 20
209.01078782723019
 30
0.0
  0
VERTEX
  5
293D0
  8
0
 10
572.98771396781785
 20
208.71879696258929
 30
0.0
  0
VERTEX
  5
293D1
  8
0
 10
572.76482004258673
 20
208.4346687536563
 30
0.0
  0
VERTEX
  5
293D2
  8
0
 10
572.53181257724418
 20
208.158773733564
 30
0.0
  0
VERTEX
  5
293D3
  8
0
 10
572.41161072076909
 20
208.02402653798339
 30
0.0
  0
VERTEX
  5
293D4
  8
0
 10
572.28899543808677
 20
207.8914716985027
 30
0.0
  0
VERTEX
  5
293D5
  8
0
 10
572.03668528425931
 20
207.63311123850141
 30
0.0
  0
VERTEX
  5
293D6
  8
0
 10
571.77521115479828
 20
207.38402928283361
 30
0.0
  0
VERTEX
  5
293D7
  8
0
 10
571.64114370375376
 20
207.26306973758159
 30
0.0
  0
SEQEND
  5
293D8
  8
0
  0
POLYLINE
  5
268C9
  8
0
 66
     1
 10
0.0
 20
0.0
 30
0.0
  0
VERTEX
  5
293D9
  8
0
 10
572.76968960595821
 20
212.8032138114059
 30
0.0
  0
VERTEX
  5
293DA
  8
0
 10
572.78589026051247
 20
212.8696588227476
 30
0.0
  0
VERTEX
  5
293DB
  8
0
 10
572.81585140984942
 20
213.0031843877841
 30
0.0
  0
VERTEX
  5
293DC
  8
0
 10
572.84270180776605
 20
213.13713337221819
 30
0.0
  0
VERTEX
  5
293DD
  8
0
 10
572.85504382529905
 20
213.2042533009317
 30
0.0
  0
VERTEX
  5
293DE
  8
0
 10
572.86681354442555
 20
213.27210780005231
 30
0.0
  0
VERTEX
  5
293DF
  8
0
 10
572.88870858104008
 20
213.41020985698739
 30
0.0
  0
VERTEX
  5
293E0
  8
0
 10
572.90846680010111
 20
213.5514498668617
 30
0.0
  0
VERTEX
  5
293E1
  8
0
 10
572.92616012836629
 20
213.69575872436511
 30
0.0
  0
VERTEX
  5
293E2
  8
0
 10
572.94186596191525
 20
213.84306139832461
 30
0.0
  0
VERTEX
  5
293E3
  8
0
 10
572.95566673884571
 20
213.9932776610967
 30
0.0
  0
VERTEX
  5
293E4
  8
0
 10
572.9618797520875
 20
214.06945207686479
 30
0.0
  0
VERTEX
  5
293E5
  8
0
 10
572.96764944919482
 20
214.14632282291859
 30
0.0
  0
VERTEX
  5
293E6
  8
0
 10
572.97790509760705
 20
214.302108470918
 30
0.0
  0
VERTEX
  5
293E7
  8
0
 10
572.98652813239835
 20
214.4605432135622
 30
0.0
  0
VERTEX
  5
293E8
  8
0
 10
572.99361585363545
 20
214.62153344949459
 30
0.0
  0
VERTEX
  5
293E9
  8
0
 10
572.99926783001433
 20
214.78498484175091
 30
0.0
  0
VERTEX
  5
293EA
  8
0
 10
573.00358513226706
 20
214.95079715113931
 30
0.0
  0
VERTEX
  5
293EB
  8
0
 10
573.00527517382216
 20
215.0345557103519
 30
0.0
  0
VERTEX
  5
293EC
  8
0
 10
573.00666992065214
 20
215.1188645024003
 30
0.0
  0
VERTEX
  5
293ED
  8
0
 10
573.00862501749998
 20
215.28907744047501
 30
0.0
  0
VERTEX
  5
293EE
  8
0
 10
573.00955339088011
 20
215.46132351251799
 30
0.0
  0
VERTEX
  5
293EF
  8
0
 10
573.00966464464022
 20
215.54817315835771
 30
0.0
  0
SEQEND
  5
293F0
  8
0
  0
POLYLINE
  5
268CA
  8
0
 66
     1
 10
0.0
 20
0.0
 30
0.0
  0
VERTEX
  5
293F1
  8
0
 10
575.00966464464022
 20
215.54817315835771
 30
0.0
  0
VERTEX
  5
293F2
  8
0
 10
575.00957672270897
 20
215.4618460791034
 30
0.0
  0
VERTEX
  5
293F3
  8
0
 10
575.00884262262946
 20
215.29053360376381
 30
0.0
  0
VERTEX
  5
293F4
  8
0
 10
575.00729536357551
 20
215.12109669757501
 30
0.0
  0
VERTEX
  5
293F5
  8
0
 10
575.0061908019652
 20
215.03711371822919
 30
0.0
  0
VERTEX
  5
293F6
  8
0
 10
575.00485168454679
 20
214.95363795671261
 30
0.0
  0
VERTEX
  5
293F7
  8
0
 10
575.00142788445339
 20
214.78825793566651
 30
0.0
  0
VERTEX
  5
293F8
  8
0
 10
574.99694019727394
 20
214.6250546634883
 30
0.0
  0
VERTEX
  5
293F9
  8
0
 10
574.99130516320724
 20
214.46412317331121
 30
0.0
  0
VERTEX
  5
293FA
  8
0
 10
574.98443999054859
 20
214.30555504232419
 30
0.0
  0
VERTEX
  5
293FB
  8
0
 10
574.97626286476259
 20
214.14943728061101
 30
0.0
  0
VERTEX
  5
293FC
  8
0
 10
574.97165705166719
 20
214.072322473301
 30
0.0
  0
VERTEX
  5
293FD
  8
0
 10
574.96669314448127
 20
213.99585047878011
 30
0.0
  0
VERTEX
  5
293FE
  8
0
 10
574.95565205057335
 20
213.8448748990977
 30
0.0
  0
VERTEX
  5
293FF
  8
0
 10
574.94306309664034
 20
213.69658920147231
 30
0.0
  0
VERTEX
  5
29400
  8
0
 10
574.92885251281496
 20
213.55106955875181
 30
0.0
  0
VERTEX
  5
29401
  8
0
 10
574.91294966714804
 20
213.40838904400789
 30
0.0
  0
VERTEX
  5
29402
  8
0
 10
574.89528746453527
 20
213.2686170308325
 30
0.0
  0
VERTEX
  5
29403
  8
0
 10
574.88577669558424
 20
213.19984223544731
 30
0.0
  0
VERTEX
  5
29404
  8
0
 10
574.87580271461502
 20
213.13181860711481
 30
0.0
  0
VERTEX
  5
29405
  8
0
 10
574.85443645913028
 20
212.99805400334839
 30
0.0
  0
VERTEX
  5
29406
  8
0
 10
574.83113424829673
 20
212.86737803727561
 30
0.0
  0
VERTEX
  5
29407
  8
0
 10
574.81874143097855
 20
212.8032138114059
 30
0.0
  0
SEQEND
  5
29408
  8
0
  0
LINE
  5
268D0
  8
0
 10
575.00966464464022
 20
295.74368873141981
 30
0.0
 11
575.00966464464022
 21
215.54817315835771
 31
0.0
  0
POLYLINE
  5
268D1
  8
0
 66
     1
 10
0.0
 20
0.0
 30
0.0
  0
VERTEX
  5
29409
  8
0
 10
490.00966464464022
 20
215.54817315835771
 30
0.0
  0
VERTEX
  5
2940A
  8
0
 10
490.00986438414782
 20
215.41884779915469
 30
0.0
  0
VERTEX
  5
2940B
  8
0
 10
490.01156633436187
 20
215.16327444767921
 30
0.0
  0
VERTEX
  5
2940C
  8
0
 10
490.01523839452989
 20
214.91209419539251
 30
0.0
  0
VERTEX
  5
2940D
  8
0
 10
490.017901404827
 20
214.78825793567009
 30
0.0
  0
SEQEND
  5
2940E
  8
0
  0
POLYLINE
  5
268D2
  8
0
 66
     1
 10
0.0
 20
0.0
 30
0.0
  0
VERTEX
  5
2940F
  8
0
 10
490.017901404827
 20
214.78825793567009
 30
0.0
  0
VERTEX
  5
29410
  8
0
 10
490.01945512006063
 20
214.72679644634539
 30
0.0
  0
VERTEX
  5
29411
  8
0
 10
490.02302901998092
 20
214.60481207600969
 30
0.0
  0
VERTEX
  5
29412
  8
0
 10
490.02725416311171
 20
214.48411220569511
 30
0.0
  0
VERTEX
  5
29413
  8
0
 10
490.02962187940523
 20
214.4242560808288
 30
0.0
  0
VERTEX
  5
29414
  8
0
 10
490.03216548522249
 20
214.3647354799441
 30
0.0
  0
VERTEX
  5
29415
  8
0
 10
490.03779761387852
 20
214.2467193244465
 30
0.0
  0
VERTEX
  5
29416
  8
0
 10
490.04418484655599
 20
214.13009886697549
 30
0.0
  0
VERTEX
  5
29417
  8
0
 10
490.05136105923589
 20
214.01490766380451
 30
0.0
  0
VERTEX
  5
29418
  8
0
 10
490.05935949199539
 20
213.90117969798209
 30
0.0
  0
VERTEX
  5
29419
  8
0
 10
490.068212680611
 20
213.7889483899435
 30
0.0
  0
VERTEX
  5
2941A
  8
0
 10
490.07296975753781
 20
213.73340423542601
 30
0.0
  0
VERTEX
  5
2941B
  8
0
 10
490.07795235238069
 20
213.6782464466624
 30
0.0
  0
VERTEX
  5
2941C
  8
0
 10
490.0886093240016
 20
213.5691057147115
 30
0.0
  0
VERTEX
  5
2941D
  8
0
 10
490.10021340255531
 20
213.46155703562911
 30
0.0
  0
VERTEX
  5
2941E
  8
0
 10
490.11279329065587
 20
213.3556301036005
 30
0.0
  0
VERTEX
  5
2941F
  8
0
 10
490.12637649690231
 20
213.25135332550241
 30
0.0
  0
VERTEX
  5
29420
  8
0
 10
490.14098925287192
 20
213.1487536834484
 30
0.0
  0
VERTEX
  5
29421
  8
0
 10
490.1486895415112
 20
213.0980907975345
 30
0.0
  0
VERTEX
  5
29422
  8
0
 10
490.15665643798769
 20
213.04785659999831
 30
0.0
  0
VERTEX
  5
29423
  8
0
 10
490.17340151368859
 20
212.9486858063164
 30
0.0
  0
VERTEX
  5
29424
  8
0
 10
490.1912464684271
 20
212.8512632136044
 30
0.0
  0
VERTEX
  5
29425
  8
0
 10
490.20058785830201
 20
212.8032138114049
 30
0.0
  0
SEQEND
  5
29426
  8
0
  0
POLYLINE
  5
268D5
  8
0
 66
     1
 10
0.0
 20
0.0
 30
0.0
  0
VERTEX
  5
29427
  8
0
 10
490.20058785830201
 20
212.8032138114049
 30
0.0
  0
VERTEX
  5
29428
  8
0
 10
490.23730160652917
 20
212.62641620478101
 30
0.0
  0
VERTEX
  5
29429
  8
0
 10
490.32027501626311
 20
212.274953611759
 30
0.0
  0
VERTEX
  5
2942A
  8
0
 10
490.41588441143261
 20
211.926716071318
 30
0.0
  0
VERTEX
  5
2942B
  8
0
 10
490.46838927897522
 20
211.75394879460961
 30
0.0
  0
VERTEX
  5
2942C
  8
0
 10
490.52400510730831
 20
211.58215772192031
 30
0.0
  0
VERTEX
  5
2942D
  8
0
 10
490.6444961031055
 20
211.24172790397191
 30
0.0
  0
VERTEX
  5
2942E
  8
0
 10
490.77720026586491
 20
210.90587057383979
 30
0.0
  0
VERTEX
  5
2942F
  8
0
 10
490.9219445353699
 20
210.57502372488671
 30
0.0
  0
VERTEX
  5
29430
  8
0
 10
491.07854014983548
 20
210.24961881627769
 30
0.0
  0
VERTEX
  5
29431
  8
0
 10
491.2467828920735
 20
209.9300802103144
 30
0.0
  0
VERTEX
  5
29432
  8
0
 10
491.33520395728129
 20
209.77264130710321
 30
0.0
  0
VERTEX
  5
29433
  8
0
 10
491.42645335581381
 20
209.6168246190218
 30
0.0
  0
VERTEX
  5
29434
  8
0
 10
491.61731723183237
 20
209.3102605607119
 30
0.0
  0
VERTEX
  5
29435
  8
0
 10
491.81912561351612
 20
209.01078782723019
 30
0.0
  0
VERTEX
  5
29436
  8
0
 10
492.03161532146243
 20
208.71879696258929
 30
0.0
  0
VERTEX
  5
29437
  8
0
 10
492.25450924669371
 20
208.4346687536563
 30
0.0
  0
VERTEX
  5
29438
  8
0
 10
492.4875167120361
 20
208.158773733564
 30
0.0
  0
VERTEX
  5
29439
  8
0
 10
492.6077185685113
 20
208.02402653798339
 30
0.0
  0
VERTEX
  5
2943A
  8
0
 10
492.73033385119362
 20
207.8914716985027
 30
0.0
  0
VERTEX
  5
2943B
  8
0
 10
492.98264400502109
 20
207.63311123850141
 30
0.0
  0
VERTEX
  5
2943C
  8
0
 10
493.24411813448211
 20
207.38402928283361
 30
0.0
  0
VERTEX
  5
2943D
  8
0
 10
493.37818558552669
 20
207.26306973758159
 30
0.0
  0
SEQEND
  5
2943E
  8
0
  0
POLYLINE
  5
268DB
  8
0
 66
     1
 10
0.0
 20
0.0
 30
0.0
  0
VERTEX
  5
2943F
  8
0
 10
503.83191565592932
 20
195.7436887314197
 30
0.0
  0
VERTEX
  5
29440
  8
0
 10
503.87407984045751
 20
195.66607092646521
 30
0.0
  0
VERTEX
  5
29441
  8
0
 10
503.95911820543751
 20
195.51240742246861
 30
0.0
  0
VERTEX
  5
29442
  8
0
 10
504.04498591792412
 20
195.36088493802609
 30
0.0
  0
VERTEX
  5
29443
  8
0
 10
504.08818727337172
 20
195.28594330027681
 30
0.0
  0
VERTEX
  5
29444
  8
0
 10
504.13154403539039
 20
195.2115569143798
 30
0.0
  0
VERTEX
  5
29445
  8
0
 10
504.21865592074158
 20
195.06447613930499
 30
0.0
  0
VERTEX
  5
29446
  8
0
 10
504.3061879157554
 20
194.91969380846331
 30
0.0
  0
VERTEX
  5
29447
  8
0
 10
504.3940088349529
 20
194.77726055030871
 30
0.0
  0
VERTEX
  5
29448
  8
0
 10
504.48198970418127
 20
194.63722691138531
 30
0.0
  0
VERTEX
  5
29449
  8
0
 10
504.57000398222652
 20
194.49964301109409
 30
0.0
  0
VERTEX
  5
2944A
  8
0
 10
504.61398481260812
 20
194.4317851950172
 30
0.0
  0
VERTEX
  5
2944B
  8
0
 10
504.65792773162133
 20
194.36455828323599
 30
0.0
  0
VERTEX
  5
2944C
  8
0
 10
504.74563979493598
 20
194.2320212091945
 30
0.0
  0
VERTEX
  5
2944D
  8
0
 10
504.83302197722998
 20
194.10207904253551
 30
0.0
  0
VERTEX
  5
2944E
  8
0
 10
504.9199592353757
 20
193.97477752479509
 30
0.0
  0
VERTEX
  5
2944F
  8
0
 10
505.00633987501197
 20
193.85016059224651
 30
0.0
  0
VERTEX
  5
29450
  8
0
 10
505.09205575592409
 20
193.72827007341041
 30
0.0
  0
VERTEX
  5
29451
  8
0
 10
505.1346324305938
 20
193.6683585324981
 30
0.0
  0
VERTEX
  5
29452
  8
0
 10
505.1771791994617
 20
193.608899286698
 30
0.0
  0
VERTEX
  5
29453
  8
0
 10
505.26252696350173
 20
193.4908344186733
 30
0.0
  0
VERTEX
  5
29454
  8
0
 10
505.34812157740367
 20
193.37400664202229
 30
0.0
  0
VERTEX
  5
29455
  8
0
 10
505.39097684851117
 20
193.31609322976959
 30
0.0
  0
SEQEND
  5
29456
  8
0
  0
POLYLINE
  5
268DD
  8
0
 66
     1
 10
0.0
 20
0.0
 30
0.0
  0
VERTEX
  5
29457
  8
0
 10
507.84779382081012
 20
190.74845791626919
 30
0.0
  0
VERTEX
  5
29458
  8
0
 10
507.85521388553877
 20
190.74699840402349
 30
0.0
  0
VERTEX
  5
29459
  8
0
 10
507.86951261143128
 20
190.7448785153037
 30
0.0
  0
VERTEX
  5
2945A
  8
0
 10
507.88309086424528
 20
190.74382073064129
 30
0.0
  0
VERTEX
  5
2945B
  8
0
 10
507.88961044649483
 20
190.7436887314197
 30
0.0
  0
SEQEND
  5
2945C
  8
0
  0
LINE
  5
268DF
  8
0
 10
507.88961044649608
 20
190.7436887314197
 30
0.0
 11
510.00966464464028
 21
190.7436887314197
 31
0.0
  0
POLYLINE
  5
268E0
  8
0
 66
     1
 10
0.0
 20
0.0
 30
0.0
  0
VERTEX
  5
2945D
  8
0
 10
507.88961044649608
 20
190.7436887314197
 30
0.0
  0
VERTEX
  5
2945E
  8
0
 10
507.88326813235312
 20
190.743813739823
 30
0.0
  0
VERTEX
  5
2945F
  8
0
 10
507.8700741668431
 20
190.74481532842671
 30
0.0
  0
VERTEX
  5
29460
  8
0
 10
507.85619964753442
 20
190.74682217371989
 30
0.0
  0
VERTEX
  5
29461
  8
0
 10
507.84900673563197
 20
190.74820365295631
 30
0.0
  0
VERTEX
  5
29462
  8
0
 10
507.84164320243201
 20
190.7498376948397
 30
0.0
  0
VERTEX
  5
29463
  8
0
 10
507.82640386521609
 20
190.75386487797181
 30
0.0
  0
VERTEX
  5
29464
  8
0
 10
507.81048107654181
 20
190.75890627194801
 30
0.0
  0
VERTEX
  5
29465
  8
0
 10
507.79387468405628
 20
190.7649639856881
 30
0.0
  0
VERTEX
  5
29466
  8
0
 10
507.77658494115002
 20
190.77203968744379
 30
0.0
  0
VERTEX
  5
29467
  8
0
 10
507.75861250446837
 20
190.78013460580399
 30
0.0
  0
VERTEX
  5
29468
  8
0
 10
507.74937059054099
 20
190.78456453556279
 30
0.0
  0
VERTEX
  5
29469
  8
0
 10
507.73995843020509
 20
190.78924953242861
 30
0.0
  0
VERTEX
  5
2946A
  8
0
 10
507.72062416920392
 20
190.799384826455
 30
0.0
  0
VERTEX
  5
2946B
  8
0
 10
507.70061156090043
 20
190.81054042054711
 30
0.0
  0
VERTEX
  5
2946C
  8
0
 10
507.67992282613312
 20
190.82271582853079
 30
0.0
  0
VERTEX
  5
2946D
  8
0
 10
507.65856055885598
 20
190.8359101545839
 30
0.0
  0
VERTEX
  5
2946E
  8
0
 10
507.63652771679261
 20
190.850122103925
 30
0.0
  0
VERTEX
  5
2946F
  8
0
 10
507.62526085144009
 20
190.8576091765762
 30
0.0
  0
VERTEX
  5
29470
  8
0
 10
507.61382761106142
 20
190.8653499949514
 30
0.0
  0
VERTEX
  5
29471
  8
0
 10
507.59046389481728
 20
190.88159177279979
 30
0.0
  0
VERTEX
  5
29472
  8
0
 10
507.56644055094648
 20
190.89884502425409
 30
0.0
  0
VERTEX
  5
29473
  8
0
 10
507.55418285023092
 20
190.90785010443591
 30
0.0
  0
VERTEX
  5
29474
  8
0
 10
507.47722904404299
 20
190.96715409833629
 30
0.0
  0
VERTEX
  5
29475
  8
0
 10
507.30626839531448
 20
191.1125398053818
 30
0.0
  0
VERTEX
  5
29476
  8
0
 10
507.11381309137101
 20
191.2926593133561
 30
0.0
  0
VERTEX
  5
29477
  8
0
 10
506.90173107105142
 20
191.50597082993221
 30
0.0
  0
VERTEX
  5
29478
  8
0
 10
506.67218115881082
 20
191.75064570373971
 30
0.0
  0
VERTEX
  5
29479
  8
0
 10
506.42749503110849
 20
192.0247167855577
 30
0.0
  0
VERTEX
  5
2947A
  8
0
 10
506.30033297768671
 20
192.1720335136861
 30
0.0
  0
VERTEX
  5
2947B
  8
0
 10
506.17045225055318
 20
192.32576915286239
 30
0.0
  0
VERTEX
  5
2947C
  8
0
 10
505.90409751814991
 20
192.65109875124739
 30
0.0
  0
VERTEX
  5
2947D
  8
0
 10
505.63166633796902
 20
192.99776518222089
 30
0.0
  0
VERTEX
  5
2947E
  8
0
 10
505.35657620003582
 20
193.36255098790201
 30
0.0
  0
VERTEX
  5
2947F
  8
0
 10
505.08236950356388
 20
193.74195812431299
 30
0.0
  0
VERTEX
  5
29480
  8
0
 10
504.80656595489808
 20
194.14120586004259
 30
0.0
  0
VERTEX
  5
29481
  8
0
 10
504.66670570742838
 20
194.35119633595599
 30
0.0
  0
VERTEX
  5
29482
  8
0
 10
504.5261794011156
 20
194.5678459570845
 30
0.0
  0
VERTEX
  5
29483
  8
0
 10
504.24517476717978
 20
195.0203040209644
 30
0.0
  0
VERTEX
  5
29484
  8
0
 10
503.96781917135371
 20
195.49689219877109
 30
0.0
  0
VERTEX
  5
29485
  8
0
 10
503.83191565592932
 20
195.7436887314197
 30
0.0
  0
SEQEND
  5
29486
  8
0
  0
POLYLINE
  5
268E1
  8
0
 66
     1
 10
0.0
 20
0.0
 30
0.0
  0
VERTEX
  5
29487
  8
0
 10
506.4449926982827
 20
195.7436887314197
 30
0.0
  0
VERTEX
  5
29488
  8
0
 10
506.55707659759997
 20
195.4937473707632
 30
0.0
  0
VERTEX
  5
29489
  8
0
 10
506.78725367157449
 20
195.01130185110469
 30
0.0
  0
VERTEX
  5
2948A
  8
0
 10
507.0222019782106
 20
194.55374328828739
 30
0.0
  0
VERTEX
  5
2948B
  8
0
 10
507.14028169770211
 20
194.33487412040631
 30
0.0
  0
VERTEX
  5
2948C
  8
0
 10
507.25815507936778
 20
194.12289991024591
 30
0.0
  0
VERTEX
  5
2948D
  8
0
 10
507.49154655548853
 20
193.7204075171303
 30
0.0
  0
VERTEX
  5
2948E
  8
0
 10
507.72464284999887
 20
193.33875664060719
 30
0.0
  0
VERTEX
  5
2948F
  8
0
 10
507.95928369901912
 20
192.97288859687251
 30
0.0
  0
VERTEX
  5
29490
  8
0
 10
508.19234226125968
 20
192.62623435239939
 30
0.0
  0
VERTEX
  5
29491
  8
0
 10
508.42077375025161
 20
192.3019084193001
 30
0.0
  0
VERTEX
  5
29492
  8
0
 10
508.53234174287343
 20
192.1490052585095
 30
0.0
  0
VERTEX
  5
29493
  8
0
 10
508.64167582166789
 20
192.00271595188681
 30
0.0
  0
VERTEX
  5
29494
  8
0
 10
508.85230590796851
 20
191.73119794542711
 30
0.0
  0
VERTEX
  5
29495
  8
0
 10
509.05015516558319
 20
191.4895813346975
 30
0.0
  0
VERTEX
  5
29496
  8
0
 10
509.23311210538139
 20
191.27962900835431
 30
0.0
  0
VERTEX
  5
29497
  8
0
 10
509.39923783043031
 20
191.1029412344887
 30
0.0
  0
VERTEX
  5
29498
  8
0
 10
509.54687008131748
 20
190.96081428588971
 30
0.0
  0
VERTEX
  5
29499
  8
0
 10
509.61334016638602
 20
190.9029958474384
 30
0.0
  0
VERTEX
  5
2949A
  8
0
 10
509.67474627311998
 20
190.85410181597311
 30
0.0
  0
VERTEX
  5
2949B
  8
0
 10
509.78201224215348
 20
190.78320410380269
 30
0.0
  0
VERTEX
  5
2949C
  8
0
 10
509.86822416715768
 20
190.74804170972581
 30
0.0
  0
VERTEX
  5
2949D
  8
0
 10
509.9034202157647
 20
190.7436887314197
 30
0.0
  0
SEQEND
  5
2949E
  8
0
  0
POLYLINE
  5
268E2
  8
0
 66
     1
 10
0.0
 20
0.0
 30
0.0
  0
VERTEX
  5
2949F
  8
0
 10
501.25966464464022
 20
203.65875224088089
 30
0.0
  0
VERTEX
  5
294A0
  8
0
 10
501.42649526410128
 20
203.4897874026901
 30
0.0
  0
VERTEX
  5
294A1
  8
0
 10
501.75687392399959
 20
203.1423365545979
 30
0.0
  0
VERTEX
  5
294A2
  8
0
 10
502.08274173463423
 20
202.78233269550131
 30
0.0
  0
VERTEX
  5
294A3
  8
0
 10
502.2439343082545
 20
202.5976780287765
 30
0.0
  0
VERTEX
  5
294A4
  8
0
 10
502.40393973555268
 20
202.4099514376403
 30
0.0
  0
VERTEX
  5
294A5
  8
0
 10
502.7203112442661
 20
202.02537443103211
 30
0.0
  0
VERTEX
  5
294A6
  8
0
 10
503.0317019326796
 20
201.62878927486051
 30
0.0
  0
VERTEX
  5
294A7
  8
0
 10
503.33795990237593
 20
201.220389425961
 30
0.0
  0
VERTEX
  5
294A8
  8
0
 10
503.63893575871089
 20
200.80037410445769
 30
0.0
  0
VERTEX
  5
294A9
  8
0
 10
503.93448268369059
 20
200.368948196573
 30
0.0
  0
VERTEX
  5
294AA
  8
0
 10
504.08017513850251
 20
200.14902182446889
 30
0.0
  0
VERTEX
  5
294AB
  8
0
 10
504.22445650758829
 20
199.92632215469339
 30
0.0
  0
VERTEX
  5
294AC
  8
0
 10
504.5087157792737
 20
199.4727118947003
 30
0.0
  0
VERTEX
  5
294AD
  8
0
 10
504.78712183521162
 20
199.00833869065079
 30
0.0
  0
VERTEX
  5
294AE
  8
0
 10
505.05953886710438
 20
198.5334290668352
 30
0.0
  0
VERTEX
  5
294AF
  8
0
 10
505.32583398813898
 20
198.04821468727911
 30
0.0
  0
VERTEX
  5
294B0
  8
0
 10
505.58587729781129
 20
197.5529322427364
 30
0.0
  0
VERTEX
  5
294B1
  8
0
 10
505.71351476167177
 20
197.30159080808701
 30
0.0
  0
VERTEX
  5
294B2
  8
0
 10
505.83954194529088
 20
197.0478233352278
 30
0.0
  0
VERTEX
  5
294B3
  8
0
 10
506.08670419130158
 20
196.53313436018561
 30
0.0
  0
VERTEX
  5
294B4
  8
0
 10
506.32724346848022
 20
196.00911638626619
 30
0.0
  0
VERTEX
  5
294B5
  8
0
 10
506.4449926982827
 20
195.7436887314197
 30
0.0
  0
SEQEND
  5
294B6
  8
0
  0
POLYLINE
  5
268E4
  8
0
 66
     1
 10
0.0
 20
0.0
 30
0.0
  0
VERTEX
  5
294B7
  8
0
 10
503.83191565592932
 20
195.7436887314197
 30
0.0
  0
VERTEX
  5
294B8
  8
0
 10
503.74467172771898
 20
195.9039907505493
 30
0.0
  0
VERTEX
  5
294B9
  8
0
 10
503.56792029041839
 20
196.2208479831915
 30
0.0
  0
VERTEX
  5
294BA
  8
0
 10
503.38819050059612
 20
196.5326384987502
 30
0.0
  0
VERTEX
  5
294BB
  8
0
 10
503.29722381974489
 20
196.6866074413656
 30
0.0
  0
VERTEX
  5
294BC
  8
0
 10
503.20553076540477
 20
196.83927832176869
 30
0.0
  0
VERTEX
  5
294BD
  8
0
 10
503.01999028112863
 20
197.14068486404079
 30
0.0
  0
VERTEX
  5
294BE
  8
0
 10
502.83161901993191
 20
197.43677694685721
 30
0.0
  0
VERTEX
  5
294BF
  8
0
 10
502.64046771640039
 20
197.72747482286559
 30
0.0
  0
VERTEX
  5
294C0
  8
0
 10
502.44658785387702
 20
198.01270019755151
 30
0.0
  0
VERTEX
  5
294C1
  8
0
 10
502.25003165059547
 20
198.2923762503269
 30
0.0
  0
VERTEX
  5
294C2
  8
0
 10
502.15076643685808
 20
198.43010968268931
 30
0.0
  0
VERTEX
  5
294C3
  8
0
 10
502.05085204561618
 20
198.5664276552161
 30
0.0
  0
VERTEX
  5
294C4
  8
0
 10
501.84910268456809
 20
198.8347806011497
 30
0.0
  0
VERTEX
  5
294C5
  8
0
 10
501.64483790520001
 20
199.09736281183899
 30
0.0
  0
VERTEX
  5
294C6
  8
0
 10
501.43811272274598
 20
199.3541035652442
 30
0.0
  0
VERTEX
  5
294C7
  8
0
 10
501.22898281510732
 20
199.60493371262331
 30
0.0
  0
VERTEX
  5
294C8
  8
0
 10
501.0175045078571
 20
199.8497856971544
 30
0.0
  0
VERTEX
  5
294C9
  8
0
 10
500.91090247948739
 20
199.96994920662291
 30
0.0
  0
VERTEX
  5
294CA
  8
0
 10
500.8037347590701
 20
200.08859357213259
 30
0.0
  0
VERTEX
  5
294CB
  8
0
 10
500.58773114398161
 20
200.32129301873101
 30
0.0
  0
VERTEX
  5
294CC
  8
0
 10
500.36955183948061
 20
200.54782136332321
 30
0.0
  0
VERTEX
  5
294CD
  8
0
 10
500.25966464464022
 20
200.65875224088089
 30
0.0
  0
SEQEND
  5
294CE
  8
0
  0
LINE
  5
268E5
  8
0
 10
500.25966464464022
 20
200.65875224088089
 30
0.0
 11
495.72641495980503
 21
205.1920019257168
 31
0.0
  0
LINE
  5
268E6
  8
0
 10
499.72641495980503
 20
205.1920019257168
 30
0.0
 11
501.25966464464022
 21
203.65875224088089
 31
0.0
  0
POLYLINE
  5
268E8
  8
0
 66
     1
 10
0.0
 20
0.0
 30
0.0
  0
VERTEX
  5
294CF
  8
0
 10
495.72641495980491
 20
205.1920019257168
 30
0.0
  0
VERTEX
  5
294D0
  8
0
 10
495.6131202122836
 20
205.3036228925539
 30
0.0
  0
VERTEX
  5
294D1
  8
0
 10
495.37907497344281
 20
205.52427956679821
 30
0.0
  0
VERTEX
  5
294D2
  8
0
 10
495.13522000938048
 20
205.74136636510141
 30
0.0
  0
VERTEX
  5
294D3
  8
0
 10
495.00966464464022
 20
205.84852554718421
 30
0.0
  0
SEQEND
  5
294D4
  8
0
  0
POLYLINE
  5
268E9
  8
0
 66
     1
 10
0.0
 20
0.0
 30
0.0
  0
VERTEX
  5
294D5
  8
0
 10
495.00966464464022
 20
205.84852554718421
 30
0.0
  0
VERTEX
  5
294D6
  8
0
 10
494.7286952963243
 20
206.0865343654159
 30
0.0
  0
VERTEX
  5
294D7
  8
0
 10
494.17562198042441
 20
206.56277011745081
 30
0.0
  0
VERTEX
  5
294D8
  8
0
 10
493.63881621734032
 20
207.0327475722124
 30
0.0
  0
VERTEX
  5
294D9
  8
0
 10
493.37818558552669
 20
207.26306973758159
 30
0.0
  0
SEQEND
  5
294DA
  8
0
  0
POLYLINE
  5
268EA
  8
0
 66
     1
 10
0.0
 20
0.0
 30
0.0
  0
VERTEX
  5
294DB
  8
0
 10
496.97386367372093
 20
207.26306973758159
 30
0.0
  0
VERTEX
  5
294DC
  8
0
 10
497.06260499756542
 20
207.2114609588198
 30
0.0
  0
VERTEX
  5
294DD
  8
0
 10
497.23812579824749
 20
207.10713248353929
 30
0.0
  0
VERTEX
  5
294DE
  8
0
 10
497.4109999198418
 20
207.0013412081926
 30
0.0
  0
VERTEX
  5
294DF
  8
0
 10
497.49643302604699
 20
206.94790400187321
 30
0.0
  0
VERTEX
  5
294E0
  8
0
 10
497.58119079322267
 20
206.89410951145871
 30
0.0
  0
VERTEX
  5
294E1
  8
0
 10
497.74866241686891
 20
206.78546007671679
 30
0.0
  0
VERTEX
  5
294E2
  8
0
 10
497.9133793644786
 20
206.67541588725089
 30
0.0
  0
VERTEX
  5
294E3
  8
0
 10
498.07530679246338
 20
206.56400022138399
 30
0.0
  0
VERTEX
  5
294E4
  8
0
 10
498.23441044731959
 20
206.45123664755741
 30
0.0
  0
VERTEX
  5
294E5
  8
0
 10
498.39065667287298
 20
206.3371490193413
 30
0.0
  0
VERTEX
  5
294E6
  8
0
 10
498.467697897194
 20
206.2796162158038
 30
0.0
  0
VERTEX
  5
294E7
  8
0
 10
498.5440124173993
 20
206.22176147039411
 30
0.0
  0
VERTEX
  5
294E8
  8
0
 10
498.69444524061549
 20
206.10509840935259
 30
0.0
  0
VERTEX
  5
294E9
  8
0
 10
498.84192332054181
 20
205.98718451467079
 30
0.0
  0
VERTEX
  5
294EA
  8
0
 10
498.98641546023379
 20
205.86804472940091
 30
0.0
  0
VERTEX
  5
294EB
  8
0
 10
499.12789109438108
 20
205.7477042559122
 30
0.0
  0
VERTEX
  5
294EC
  8
0
 10
499.26632029577308
 20
205.62618855056641
 30
0.0
  0
VERTEX
  5
294ED
  8
0
 10
499.33438330797401
 20
205.56499800918479
 30
0.0
  0
VERTEX
  5
294EE
  8
0
 10
499.40167378163039
 20
205.50352331832531
 30
0.0
  0
VERTEX
  5
294EF
  8
0
 10
499.53392291979799
 20
205.3797345073217
 30
0.0
  0
VERTEX
  5
294F0
  8
0
 10
499.66303973480302
 20
205.2548483033616
 30
0.0
  0
VERTEX
  5
294F1
  8
0
 10
499.72641495980503
 20
205.1920019257168
 30
0.0
  0
SEQEND
  5
294F2
  8
0
  0
LINE
  5
268EB
  8
0
 10
496.00966464464022
 20
207.81975030657401
 30
0.0
 11
496.97386367372098
 21
207.26306973758159
 31
0.0
  0
POLYLINE
  5
268ED
  8
0
 66
     1
 10
0.0
 20
0.0
 30
0.0
  0
VERTEX
  5
294F3
  8
0
 10
493.37818558552669
 20
207.26306973758159
 30
0.0
  0
VERTEX
  5
294F4
  8
0
 10
493.24411813448211
 20
207.38402928283361
 30
0.0
  0
VERTEX
  5
294F5
  8
0
 10
492.98264400502109
 20
207.63311123850141
 30
0.0
  0
VERTEX
  5
294F6
  8
0
 10
492.73033385119362
 20
207.8914716985027
 30
0.0
  0
VERTEX
  5
294F7
  8
0
 10
492.6077185685113
 20
208.02402653798339
 30
0.0
  0
VERTEX
  5
294F8
  8
0
 10
492.4875167120361
 20
208.158773733564
 30
0.0
  0
VERTEX
  5
294F9
  8
0
 10
492.25450924669377
 20
208.4346687536563
 30
0.0
  0
VERTEX
  5
294FA
  8
0
 10
492.03161532146243
 20
208.71879696258929
 30
0.0
  0
VERTEX
  5
294FB
  8
0
 10
491.81912561351612
 20
209.01078782723019
 30
0.0
  0
VERTEX
  5
294FC
  8
0
 10
491.61731723183249
 20
209.3102605607119
 30
0.0
  0
VERTEX
  5
294FD
  8
0
 10
491.42645335581381
 20
209.6168246190218
 30
0.0
  0
VERTEX
  5
294FE
  8
0
 10
491.33520395728129
 20
209.77264130710321
 30
0.0
  0
VERTEX
  5
294FF
  8
0
 10
491.2467828920735
 20
209.9300802103144
 30
0.0
  0
VERTEX
  5
29500
  8
0
 10
491.07854014983548
 20
210.24961881627769
 30
0.0
  0
VERTEX
  5
29501
  8
0
 10
490.9219445353699
 20
210.57502372488671
 30
0.0
  0
VERTEX
  5
29502
  8
0
 10
490.77720026586502
 20
210.90587057383979
 30
0.0
  0
VERTEX
  5
29503
  8
0
 10
490.6444961031055
 20
211.24172790397191
 30
0.0
  0
VERTEX
  5
29504
  8
0
 10
490.52400510730831
 20
211.58215772192031
 30
0.0
  0
VERTEX
  5
29505
  8
0
 10
490.46838927897522
 20
211.75394879460961
 30
0.0
  0
VERTEX
  5
29506
  8
0
 10
490.41588441143261
 20
211.92671607131891
 30
0.0
  0
VERTEX
  5
29507
  8
0
 10
490.32027501626311
 20
212.274953611759
 30
0.0
  0
VERTEX
  5
29508
  8
0
 10
490.23730160652917
 20
212.62641620478101
 30
0.0
  0
VERTEX
  5
29509
  8
0
 10
490.20058785830201
 20
212.8032138114059
 30
0.0
  0
SEQEND
  5
2950A
  8
0
  0
POLYLINE
  5
268EE
  8
0
 66
     1
 10
0.0
 20
0.0
 30
0.0
  0
VERTEX
  5
2950B
  8
0
 10
492.24963968332207
 20
212.8032138114059
 30
0.0
  0
VERTEX
  5
2950C
  8
0
 10
492.29486526286252
 20
212.6309106702729
 30
0.0
  0
VERTEX
  5
2950D
  8
0
 10
492.39676800647692
 20
212.2895384423955
 30
0.0
  0
VERTEX
  5
2950E
  8
0
 10
492.51376797666461
 20
211.9530415269582
 30
0.0
  0
VERTEX
  5
2950F
  8
0
 10
492.57785807154193
 20
211.7868302601091
 30
0.0
  0
VERTEX
  5
29510
  8
0
 10
492.64563314938272
 20
211.62208723502951
 30
0.0
  0
VERTEX
  5
29511
  8
0
 10
492.7921020212263
 20
211.29733188603041
 30
0.0
  0
VERTEX
  5
29512
  8
0
 10
492.95288412802029
 20
210.9794195061877
 30
0.0
  0
VERTEX
  5
29513
  8
0
 10
493.1276606208412
 20
210.66898055135249
 30
0.0
  0
VERTEX
  5
29514
  8
0
 10
493.31608489833161
 20
210.36663065673559
 30
0.0
  0
VERTEX
  5
29515
  8
0
 10
493.51778329404789
 20
210.07296941603909
 30
0.0
  0
VERTEX
  5
29516
  8
0
 10
493.62348629615178
 20
209.92957973427929
 30
0.0
  0
VERTEX
  5
29517
  8
0
 10
493.73235581748429
 20
209.7885791923872
 30
0.0
  0
VERTEX
  5
29518
  8
0
 10
493.95937694729719
 20
209.5140239634429
 30
0.0
  0
VERTEX
  5
29519
  8
0
 10
494.19839647516329
 20
209.2498482029705
 30
0.0
  0
VERTEX
  5
2951A
  8
0
 10
494.44894039859179
 20
208.99657580108851
 30
0.0
  0
VERTEX
  5
2951B
  8
0
 10
494.71051186092512
 20
208.7547090253311
 30
0.0
  0
VERTEX
  5
2951C
  8
0
 10
494.98259213666091
 20
208.52472752460201
 30
0.0
  0
VERTEX
  5
2951D
  8
0
 10
495.12240525037078
 20
208.4143372228373
 30
0.0
  0
VERTEX
  5
2951E
  8
0
 10
495.2646416601433
 20
208.3070873779707
 30
0.0
  0
VERTEX
  5
2951F
  8
0
 10
495.55610109558143
 20
208.10222019022061
 30
0.0
  0
VERTEX
  5
29520
  8
0
 10
495.85639244627538
 20
207.91053223592829
 30
0.0
  0
VERTEX
  5
29521
  8
0
 10
496.00966464464022
 20
207.81975030657401
 30
0.0
  0
SEQEND
  5
29522
  8
0
  0
POLYLINE
  5
268EF
  8
0
 66
     1
 10
0.0
 20
0.0
 30
0.0
  0
VERTEX
  5
29523
  8
0
 10
492.00966464464022
 20
215.54817315835771
 30
0.0
  0
VERTEX
  5
29524
  8
0
 10
492.00977589840039
 20
215.46132351251799
 30
0.0
  0
VERTEX
  5
29525
  8
0
 10
492.0107042717803
 20
215.28907744047501
 30
0.0
  0
VERTEX
  5
29526
  8
0
 10
492.01265936862831
 20
215.1188645024003
 30
0.0
  0
VERTEX
  5
29527
  8
0
 10
492.01405411545829
 20
215.0345557103519
 30
0.0
  0
VERTEX
  5
29528
  8
0
 10
492.01574415701327
 20
214.95079715113931
 30
0.0
  0
VERTEX
  5
29529
  8
0
 10
492.02006145926617
 20
214.78498484175091
 30
0.0
  0
VERTEX
  5
2952A
  8
0
 10
492.02571343564512
 20
214.62153344949459
 30
0.0
  0
VERTEX
  5
2952B
  8
0
 10
492.0328011568821
 20
214.4605432135622
 30
0.0
  0
VERTEX
  5
2952C
  8
0
 10
492.04142419167351
 20
214.302108470918
 30
0.0
  0
VERTEX
  5
2952D
  8
0
 10
492.05167984008563
 20
214.14632282291859
 30
0.0
  0
VERTEX
  5
2952E
  8
0
 10
492.05744953719289
 20
214.06945207686479
 30
0.0
  0
VERTEX
  5
2952F
  8
0
 10
492.0636625504348
 20
213.9932776610967
 30
0.0
  0
VERTEX
  5
29530
  8
0
 10
492.07746332736508
 20
213.84306139832461
 30
0.0
  0
VERTEX
  5
29531
  8
0
 10
492.09316916091399
 20
213.6957587243642
 30
0.0
  0
VERTEX
  5
29532
  8
0
 10
492.11086248917928
 20
213.5514498668617
 30
0.0
  0
VERTEX
  5
29533
  8
0
 10
492.13062070824037
 20
213.41020985698739
 30
0.0
  0
VERTEX
  5
29534
  8
0
 10
492.1525157448549
 20
213.27210780005231
 30
0.0
  0
VERTEX
  5
29535
  8
0
 10
492.16428546398151
 20
213.2042533009317
 30
0.0
  0
VERTEX
  5
29536
  8
0
 10
492.17662748151429
 20
213.13713337221819
 30
0.0
  0
VERTEX
  5
29537
  8
0
 10
492.20347787943109
 20
213.0031843877841
 30
0.0
  0
VERTEX
  5
29538
  8
0
 10
492.23343902876798
 20
212.8696588227476
 30
0.0
  0
VERTEX
  5
29539
  8
0
 10
492.24963968332207
 20
212.8032138114059
 30
0.0
  0
SEQEND
  5
2953A
  8
0
  0
POLYLINE
  5
268F1
  8
0
 66
     1
 10
0.0
 20
0.0
 30
0.0
  0
VERTEX
  5
2953B
  8
0
 10
490.20058785830201
 20
212.8032138114059
 30
0.0
  0
VERTEX
  5
2953C
  8
0
 10
490.18819504098383
 20
212.86737803727561
 30
0.0
  0
VERTEX
  5
2953D
  8
0
 10
490.16489283015022
 20
212.99805400334839
 30
0.0
  0
VERTEX
  5
2953E
  8
0
 10
490.14352657466549
 20
213.13181860711481
 30
0.0
  0
VERTEX
  5
2953F
  8
0
 10
490.13355259369632
 20
213.19984223544731
 30
0.0
  0
VERTEX
  5
29540
  8
0
 10
490.12404182474518
 20
213.2686170308325
 30
0.0
  0
VERTEX
  5
29541
  8
0
 10
490.10637962213252
 20
213.40838904400789
 30
0.0
  0
VERTEX
  5
29542
  8
0
 10
490.09047677646549
 20
213.55106955875181
 30
0.0
  0
VERTEX
  5
29543
  8
0
 10
490.07626619264011
 20
213.69658920147231
 30
0.0
  0
VERTEX
  5
29544
  8
0
 10
490.0636772387071
 20
213.8448748990977
 30
0.0
  0
VERTEX
  5
29545
  8
0
 10
490.05263614479929
 20
213.99585047878011
 30
0.0
  0
VERTEX
  5
29546
  8
0
 10
490.0476722376132
 20
214.072322473301
 30
0.0
  0
VERTEX
  5
29547
  8
0
 10
490.0430664245178
 20
214.14943728061101
 30
0.0
  0
VERTEX
  5
29548
  8
0
 10
490.03488929873168
 20
214.30555504232419
 30
0.0
  0
VERTEX
  5
29549
  8
0
 10
490.02802412607332
 20
214.46412317331121
 30
0.0
  0
VERTEX
  5
2954A
  8
0
 10
490.02238909200651
 20
214.6250546634883
 30
0.0
  0
VERTEX
  5
2954B
  8
0
 10
490.017901404827
 20
214.78825793566651
 30
0.0
  0
VERTEX
  5
2954C
  8
0
 10
490.0144776047336
 20
214.95363795671261
 30
0.0
  0
VERTEX
  5
2954D
  8
0
 10
490.01313848731519
 20
215.03711371822919
 30
0.0
  0
VERTEX
  5
2954E
  8
0
 10
490.01203392570488
 20
215.12109669757501
 30
0.0
  0
VERTEX
  5
2954F
  8
0
 10
490.01048666665088
 20
215.29053360376381
 30
0.0
  0
VERTEX
  5
29550
  8
0
 10
490.00975256657148
 20
215.4618460791034
 30
0.0
  0
VERTEX
  5
29551
  8
0
 10
490.00966464464022
 20
215.54817315835771
 30
0.0
  0
SEQEND
  5
29552
  8
0
  0
LINE
  5
268F6
  8
0
 10
490.00966464464022
 20
215.54817315835771
 30
0.0
 11
490.00966464464022
 21
295.74368873141981
 31
0.0
  0
LINE
  5
268FD
  8
0
 10
539.515765124729
 20
286.74368873141981
 30
0.0
 11
525.50356416455145
 21
286.74368873141981
 31
0.0
  0
POLYLINE
  5
26903
  8
0
 66
     1
 10
0.0
 20
0.0
 30
0.0
  0
VERTEX
  5
29553
  8
0
 10
539.515765124729
 20
286.74368873141981
 30
0.0
  0
VERTEX
  5
29554
  8
0
 10
539.62604198310351
 20
286.74542644644129
 30
0.0
  0
VERTEX
  5
29555
  8
0
 10
539.84615779772196
 20
286.75931781522382
 30
0.0
  0
VERTEX
  5
29556
  8
0
 10
540.06496164482905
 20
286.78704539108088
 30
0.0
  0
VERTEX
  5
29557
  8
0
 10
540.17359976512944
 20
286.80606548477323
 30
0.0
  0
VERTEX
  5
29558
  8
0
 10
540.28158466878074
 20
286.82849906963747
 30
0.0
  0
VERTEX
  5
29559
  8
0
 10
540.4951666738375
 20
286.88351424106901
 30
0.0
  0
VERTEX
  5
2955A
  8
0
 10
540.70485953994546
 20
286.95187244376029
 30
0.0
  0
VERTEX
  5
2955B
  8
0
 10
540.90983059056521
 20
287.03330223179728
 30
0.0
  0
VERTEX
  5
2955C
  8
0
 10
541.10926589917472
 20
287.12748025286152
 30
0.0
  0
VERTEX
  5
2955D
  8
0
 10
541.3023735213186
 20
287.23403253224478
 30
0.0
  0
VERTEX
  5
2955E
  8
0
 10
541.39631375394276
 20
287.29181867107491
 30
0.0
  0
VERTEX
  5
2955F
  8
0
 10
541.48838663936692
 20
287.3525359578735
 30
0.0
  0
VERTEX
  5
29560
  8
0
 10
541.66656660749754
 20
287.4825199604611
 30
0.0
  0
VERTEX
  5
29561
  8
0
 10
541.8362058848104
 20
287.6234683821076
 30
0.0
  0
VERTEX
  5
29562
  8
0
 10
541.99663084492454
 20
287.77482152592711
 30
0.0
  0
VERTEX
  5
29563
  8
0
 10
542.14720445090529
 20
287.93597837856942
 30
0.0
  0
VERTEX
  5
29564
  8
0
 10
542.28732878489575
 20
288.10629899680413
 30
0.0
  0
VERTEX
  5
29565
  8
0
 10
542.35329690982473
 20
288.19468571322523
 30
0.0
  0
VERTEX
  5
29566
  8
0
 10
542.41644742240794
 20
288.28510704868859
 30
0.0
  0
VERTEX
  5
29567
  8
0
 10
542.48647837193118
 20
288.39305024622172
 30
0.0
  0
VERTEX
  5
29568
  8
0
 10
542.50575377655514
 20
288.42435702391049
 30
0.0
  0
VERTEX
  5
29569
  8
0
 10
542.52469926813706
 20
288.45586454525619
 30
0.0
  0
VERTEX
  5
2956A
  8
0
 10
542.53404764184938
 20
288.4716924992444
 30
0.0
  0
VERTEX
  5
2956B
  8
0
 10
542.54331275624622
 20
288.48756933374352
 30
0.0
  0
VERTEX
  5
2956C
  8
0
 10
542.56159218708444
 20
288.51946789109121
 30
0.0
  0
VERTEX
  5
2956D
  8
0
 10
542.57953554371375
 20
288.55155669763741
 30
0.0
  0
VERTEX
  5
2956E
  8
0
 10
542.59714084627774
 20
288.58383221272652
 30
0.0
  0
VERTEX
  5
2956F
  8
0
 10
542.61440615222102
 20
288.61629087510391
 30
0.0
  0
VERTEX
  5
29570
  8
0
 10
542.63132955650303
 20
288.64892910330491
 30
0.0
  0
VERTEX
  5
29571
  8
0
 10
542.63966246050575
 20
288.66531442995438
 30
0.0
  0
VERTEX
  5
29572
  8
0
 10
542.64790919180848
 20
288.68174329605432
 30
0.0
  0
VERTEX
  5
29573
  8
0
 10
542.66414322875301
 20
288.71472983265812
 30
0.0
  0
VERTEX
  5
29574
  8
0
 10
542.68002987608565
 20
288.74788507340782
 30
0.0
  0
VERTEX
  5
29575
  8
0
 10
542.68784237935733
 20
288.7645248153276
 30
0.0
  0
SEQEND
  5
29576
  8
0
  0
LINE
  5
26904
  8
0
 10
542.68784237935733
 20
288.7645248153276
 30
0.0
 11
543.95941211294598
 21
291.49141490891913
 31
0.0
  0
POLYLINE
  5
26905
  8
0
 66
     1
 10
0.0
 20
0.0
 30
0.0
  0
VERTEX
  5
29577
  8
0
 10
543.95941211294598
 20
291.49141490891913
 30
0.0
  0
VERTEX
  5
29578
  8
0
 10
544.07433723789632
 20
291.73787263471519
 30
0.0
  0
VERTEX
  5
29579
  8
0
 10
544.29573752047895
 20
292.2126670729167
 30
0.0
  0
VERTEX
  5
2957A
  8
0
 10
544.50546641937399
 20
292.66243214802762
 30
0.0
  0
VERTEX
  5
2957B
  8
0
 10
544.60580835529652
 20
292.87761612403119
 30
0.0
  0
SEQEND
  5
2957C
  8
0
  0
POLYLINE
  5
26906
  8
0
 66
     1
 10
0.0
 20
0.0
 30
0.0
  0
VERTEX
  5
2957D
  8
0
 10
544.60580835529652
 20
292.87761612403119
 30
0.0
  0
VERTEX
  5
2957E
  8
0
 10
544.61259466983677
 20
292.89197057921228
 30
0.0
  0
VERTEX
  5
2957F
  8
0
 10
544.62658383208145
 20
292.92038604029312
 30
0.0
  0
VERTEX
  5
29580
  8
0
 10
544.64109982238358
 20
292.94836826550909
 30
0.0
  0
VERTEX
  5
29581
  8
0
 10
544.64854390530854
 20
292.96218180525278
 30
0.0
  0
VERTEX
  5
29582
  8
0
 10
544.65610556478168
 20
292.97586930183212
 30
0.0
  0
VERTEX
  5
29583
  8
0
 10
544.67156123703455
 20
293.00284454142462
 30
0.0
  0
VERTEX
  5
29584
  8
0
 10
544.68742480185631
 20
293.02925321505973
 30
0.0
  0
VERTEX
  5
29585
  8
0
 10
544.70365253685191
 20
293.05505873716169
 30
0.0
  0
VERTEX
  5
29586
  8
0
 10
544.72019955725364
 20
293.0802289296916
 30
0.0
  0
VERTEX
  5
29587
  8
0
 10
544.73702059228867
 20
293.10473652590548
 30
0.0
  0
VERTEX
  5
29588
  8
0
 10
544.74552034011072
 20
293.11673551123198
 30
0.0
  0
VERTEX
  5
29589
  8
0
 10
544.7540721198186
 20
293.12856138225561
 30
0.0
  0
VERTEX
  5
2958A
  8
0
 10
544.77130852778816
 20
293.15168428056307
 30
0.0
  0
VERTEX
  5
2958B
  8
0
 10
544.78868269628845
 20
293.17408769551002
 30
0.0
  0
VERTEX
  5
2958C
  8
0
 10
544.80614678250458
 20
293.19575663002342
 30
0.0
  0
VERTEX
  5
2958D
  8
0
 10
544.82365259135304
 20
293.21667876755419
 30
0.0
  0
VERTEX
  5
2958E
  8
0
 10
544.84115190920124
 20
293.236844528532
 30
0.0
  0
VERTEX
  5
2958F
  8
0
 10
544.84988413593078
 20
293.246641519072
 30
0.0
  0
VERTEX
  5
29590
  8
0
 10
544.85859680058809
 20
293.256247050902
 30
0.0
  0
VERTEX
  5
29591
  8
0
 10
544.87593986921308
 20
293.27488211195117
 30
0.0
  0
VERTEX
  5
29592
  8
0
 10
544.89313448547136
 20
293.29274800601343
 30
0.0
  0
VERTEX
  5
29593
  8
0
 10
544.90166181093525
 20
293.30139263322422
 30
0.0
  0
VERTEX
  5
29594
  8
0
 10
544.91013498359462
 20
293.30984539040583
 30
0.0
  0
VERTEX
  5
29595
  8
0
 10
544.92691650211123
 20
293.32619597803301
 30
0.0
  0
VERTEX
  5
29596
  8
0
 10
544.94363999775749
 20
293.34199290844208
 30
0.0
  0
VERTEX
  5
29597
  8
0
 10
544.95199547794232
 20
293.3497062133319
 30
0.0
  0
VERTEX
  5
29598
  8
0
 10
544.96034576972454
 20
293.35729872569482
 30
0.0
  0
VERTEX
  5
29599
  8
0
 10
544.97702791212123
 20
293.37212902885949
 30
0.0
  0
VERTEX
  5
2959A
  8
0
 10
544.99368089845132
 20
293.38649866666128
 30
0.0
  0
VERTEX
  5
2959B
  8
0
 10
545.01029952354736
 20
293.40042176917359
 30
0.0
  0
VERTEX
  5
2959C
  8
0
 10
545.02687885265073
 20
293.41391178165031
 30
0.0
  0
VERTEX
  5
2959D
  8
0
 10
545.04341417718911
 20
293.42698149986342
 30
0.0
  0
VERTEX
  5
2959E
  8
0
 10
545.05166391869705
 20
293.43336257861392
 30
0.0
  0
VERTEX
  5
2959F
  8
0
 10
545.05990097678978
 20
293.43964310634152
 30
0.0
  0
VERTEX
  5
295A0
  8
0
 10
545.07633488704676
 20
293.4519082070201
 30
0.0
  0
VERTEX
  5
295A1
  8
0
 10
545.09271167255906
 20
293.4637878678223
 30
0.0
  0
VERTEX
  5
295A2
  8
0
 10
545.14952172452934
 20
293.50247969602702
 30
0.0
  0
VERTEX
  5
295A3
  8
0
 10
545.24468890302262
 20
293.55927332809642
 30
0.0
  0
VERTEX
  5
295A4
  8
0
 10
545.33641842439215
 20
293.60550577154117
 30
0.0
  0
VERTEX
  5
295A5
  8
0
 10
545.42405431533439
 20
293.64264746700343
 30
0.0
  0
VERTEX
  5
295A6
  8
0
 10
545.46614401132229
 20
293.65821098703782
 30
0.0
  0
VERTEX
  5
295A7
  8
0
 10
545.50699007860908
 20
293.67196723395051
 30
0.0
  0
VERTEX
  5
295A8
  8
0
 10
545.58470412738234
 20
293.69460898743358
 30
0.0
  0
VERTEX
  5
295A9
  8
0
 10
545.65674204137952
 20
293.7116160036739
 30
0.0
  0
VERTEX
  5
295AA
  8
0
 10
545.72271211861505
 20
293.72394737665309
 30
0.0
  0
VERTEX
  5
295AB
  8
0
 10
545.78227528851357
 20
293.7324845275071
 30
0.0
  0
VERTEX
  5
295AC
  8
0
 10
545.83515529802457
 20
293.73803479408429
 30
0.0
  0
VERTEX
  5
295AD
  8
0
 10
545.85902268987343
 20
293.73992116706359
 30
0.0
  0
VERTEX
  5
295AE
  8
0
 10
545.88114797178105
 20
293.74132803323391
 30
0.0
  0
VERTEX
  5
295AF
  8
0
 10
545.92011668181271
 20
293.74300896893419
 30
0.0
  0
VERTEX
  5
295B0
  8
0
 10
545.95199353452028
 20
293.74362997510713
 30
0.0
  0
VERTEX
  5
295B1
  8
0
 10
545.96527003585152
 20
293.74368873141981
 30
0.0
  0
SEQEND
  5
295B2
  8
0
  0
POLYLINE
  5
26907
  8
0
 66
     1
 10
0.0
 20
0.0
 30
0.0
  0
VERTEX
  5
295B3
  8
0
 10
522.33148690992323
 20
288.7645248153276
 30
0.0
  0
VERTEX
  5
295B4
  8
0
 10
522.33929941319468
 20
288.74788507340782
 30
0.0
  0
VERTEX
  5
295B5
  8
0
 10
522.35518606052744
 20
288.71472983265812
 30
0.0
  0
VERTEX
  5
295B6
  8
0
 10
522.37142009747197
 20
288.68174329605432
 30
0.0
  0
VERTEX
  5
295B7
  8
0
 10
522.3796668287747
 20
288.66531442995438
 30
0.0
  0
VERTEX
  5
295B8
  8
0
 10
522.38799973277742
 20
288.64892910330491
 30
0.0
  0
VERTEX
  5
295B9
  8
0
 10
522.40492313705943
 20
288.61629087510391
 30
0.0
  0
VERTEX
  5
295BA
  8
0
 10
522.4221884430026
 20
288.58383221272652
 30
0.0
  0
VERTEX
  5
295BB
  8
0
 10
522.43979374556682
 20
288.55155669763741
 30
0.0
  0
VERTEX
  5
295BC
  8
0
 10
522.45773710219589
 20
288.51946789109121
 30
0.0
  0
VERTEX
  5
295BD
  8
0
 10
522.47601653303434
 20
288.48756933374352
 30
0.0
  0
VERTEX
  5
295BE
  8
0
 10
522.48528164743095
 20
288.4716924992444
 30
0.0
  0
VERTEX
  5
295BF
  8
0
 10
522.49463002114339
 20
288.45586454525619
 30
0.0
  0
VERTEX
  5
295C0
  8
0
 10
522.51357551272531
 20
288.42435702391049
 30
0.0
  0
VERTEX
  5
295C1
  8
0
 10
522.53285091734915
 20
288.39305024622172
 30
0.0
  0
VERTEX
  5
295C2
  8
0
 10
522.60288186687251
 20
288.28510704868859
 30
0.0
  0
VERTEX
  5
295C3
  8
0
 10
522.66603237945571
 20
288.19468571322523
 30
0.0
  0
VERTEX
  5
295C4
  8
0
 10
522.73200050438481
 20
288.10629899680413
 30
0.0
  0
VERTEX
  5
295C5
  8
0
 10
522.87212483837504
 20
287.93597837856942
 30
0.0
  0
VERTEX
  5
295C6
  8
0
 10
523.02269844435591
 20
287.77482152592711
 30
0.0
  0
VERTEX
  5
295C7
  8
0
 10
523.18312340447005
 20
287.6234683821076
 30
0.0
  0
VERTEX
  5
295C8
  8
0
 10
523.35276268178279
 20
287.4825199604611
 30
0.0
  0
VERTEX
  5
295C9
  8
0
 10
523.53094264991353
 20
287.3525359578735
 30
0.0
  0
VERTEX
  5
295CA
  8
0
 10
523.62301553533746
 20
287.29181867107491
 30
0.0
  0
VERTEX
  5
295CB
  8
0
 10
523.71695576796185
 20
287.23403253224478
 30
0.0
  0
VERTEX
  5
295CC
  8
0
 10
523.91006339010573
 20
287.12748025286152
 30
0.0
  0
VERTEX
  5
295CD
  8
0
 10
524.10949869871524
 20
287.03330223179728
 30
0.0
  0
VERTEX
  5
295CE
  8
0
 10
524.31446974933476
 20
286.95187244376029
 30
0.0
  0
VERTEX
  5
295CF
  8
0
 10
524.52416261544295
 20
286.88351424106901
 30
0.0
  0
VERTEX
  5
295D0
  8
0
 10
524.73774462049983
 20
286.82849906963747
 30
0.0
  0
VERTEX
  5
295D1
  8
0
 10
524.84572952415112
 20
286.80606548477323
 30
0.0
  0
VERTEX
  5
295D2
  8
0
 10
524.95436764445128
 20
286.78704539108088
 30
0.0
  0
VERTEX
  5
295D3
  8
0
 10
525.17317149155849
 20
286.75931781522382
 30
0.0
  0
VERTEX
  5
295D4
  8
0
 10
525.39328730617694
 20
286.74542644644129
 30
0.0
  0
VERTEX
  5
295D5
  8
0
 10
525.50356416455145
 20
286.74368873141981
 30
0.0
  0
SEQEND
  5
295D6
  8
0
  0
LINE
  5
26908
  8
0
 10
521.05991717633447
 20
291.49141490891913
 30
0.0
 11
522.33148690992323
 21
288.7645248153276
 31
0.0
  0
POLYLINE
  5
26909
  8
0
 66
     1
 10
0.0
 20
0.0
 30
0.0
  0
VERTEX
  5
295D7
  8
0
 10
520.41352093398393
 20
292.87761612403119
 30
0.0
  0
VERTEX
  5
295D8
  8
0
 10
520.51386286990646
 20
292.66243214802762
 30
0.0
  0
VERTEX
  5
295D9
  8
0
 10
520.72359176880138
 20
292.2126670729167
 30
0.0
  0
VERTEX
  5
295DA
  8
0
 10
520.94499205138413
 20
291.73787263471519
 30
0.0
  0
VERTEX
  5
295DB
  8
0
 10
521.05991717633447
 20
291.49141490891913
 30
0.0
  0
SEQEND
  5
295DC
  8
0
  0
POLYLINE
  5
2690A
  8
0
 66
     1
 10
0.0
 20
0.0
 30
0.0
  0
VERTEX
  5
295DD
  8
0
 10
519.05405925342905
 20
293.74368873141981
 30
0.0
  0
VERTEX
  5
295DE
  8
0
 10
519.06733575476005
 20
293.74362997510713
 30
0.0
  0
VERTEX
  5
295DF
  8
0
 10
519.09921260746785
 20
293.74300896893419
 30
0.0
  0
VERTEX
  5
295E0
  8
0
 10
519.13818131749929
 20
293.74132803323391
 30
0.0
  0
VERTEX
  5
295E1
  8
0
 10
519.16030659940702
 20
293.73992116706359
 30
0.0
  0
VERTEX
  5
295E2
  8
0
 10
519.18417399125576
 20
293.73803479408429
 30
0.0
  0
VERTEX
  5
295E3
  8
0
 10
519.23705400076665
 20
293.7324845275071
 30
0.0
  0
VERTEX
  5
295E4
  8
0
 10
519.29661717066517
 20
293.72394737665309
 30
0.0
  0
VERTEX
  5
295E5
  8
0
 10
519.36258724790105
 20
293.7116160036739
 30
0.0
  0
VERTEX
  5
295E6
  8
0
 10
519.43462516189823
 20
293.69460898743358
 30
0.0
  0
VERTEX
  5
295E7
  8
0
 10
519.51233921067126
 20
293.67196723395051
 30
0.0
  0
VERTEX
  5
295E8
  8
0
 10
519.55318527795805
 20
293.65821098703782
 30
0.0
  0
VERTEX
  5
295E9
  8
0
 10
519.59527497394606
 20
293.64264746700343
 30
0.0
  0
VERTEX
  5
295EA
  8
0
 10
519.6829108648883
 20
293.60550577154117
 30
0.0
  0
VERTEX
  5
295EB
  8
0
 10
519.77464038625783
 20
293.55927332809642
 30
0.0
  0
VERTEX
  5
295EC
  8
0
 10
519.86980756475111
 20
293.50247969602702
 30
0.0
  0
VERTEX
  5
295ED
  8
0
 10
519.92661761672139
 20
293.4637878678223
 30
0.0
  0
VERTEX
  5
295EE
  8
0
 10
519.94299440223369
 20
293.4519082070201
 30
0.0
  0
VERTEX
  5
295EF
  8
0
 10
519.95942831249056
 20
293.43964310634152
 30
0.0
  0
VERTEX
  5
295F0
  8
0
 10
519.9676653705834
 20
293.43336257861392
 30
0.0
  0
VERTEX
  5
295F1
  8
0
 10
519.97591511209146
 20
293.42698149986342
 30
0.0
  0
VERTEX
  5
295F2
  8
0
 10
519.99245043662984
 20
293.41391178165031
 30
0.0
  0
VERTEX
  5
295F3
  8
0
 10
520.00902976573309
 20
293.40042176917359
 30
0.0
  0
VERTEX
  5
295F4
  8
0
 10
520.02564839082913
 20
293.38649866666128
 30
0.0
  0
VERTEX
  5
295F5
  8
0
 10
520.04230137715922
 20
293.37212902885949
 30
0.0
  0
VERTEX
  5
295F6
  8
0
 10
520.05898351955602
 20
293.35729872569482
 30
0.0
  0
VERTEX
  5
295F7
  8
0
 10
520.06733381133813
 20
293.3497062133319
 30
0.0
  0
VERTEX
  5
295F8
  8
0
 10
520.07568929152285
 20
293.34199290844208
 30
0.0
  0
VERTEX
  5
295F9
  8
0
 10
520.09241278716922
 20
293.32619597803301
 30
0.0
  0
VERTEX
  5
295FA
  8
0
 10
520.10919430568583
 20
293.30984539040583
 30
0.0
  0
VERTEX
  5
295FB
  8
0
 10
520.1176674783452
 20
293.30139263322422
 30
0.0
  0
VERTEX
  5
295FC
  8
0
 10
520.12619480380908
 20
293.29274800601343
 30
0.0
  0
VERTEX
  5
295FD
  8
0
 10
520.14338942006736
 20
293.27488211195117
 30
0.0
  0
VERTEX
  5
295FE
  8
0
 10
520.16073248869225
 20
293.256247050902
 30
0.0
  0
VERTEX
  5
295FF
  8
0
 10
520.16944515334956
 20
293.246641519072
 30
0.0
  0
VERTEX
  5
29600
  8
0
 10
520.17817738007909
 20
293.236844528532
 30
0.0
  0
VERTEX
  5
29601
  8
0
 10
520.1956766979273
 20
293.21667876755419
 30
0.0
  0
VERTEX
  5
29602
  8
0
 10
520.21318250677587
 20
293.19575663002342
 30
0.0
  0
VERTEX
  5
29603
  8
0
 10
520.230646592992
 20
293.17408769551002
 30
0.0
  0
VERTEX
  5
29604
  8
0
 10
520.24802076149217
 20
293.15168428056307
 30
0.0
  0
VERTEX
  5
29605
  8
0
 10
520.26525716946196
 20
293.12856138225561
 30
0.0
  0
VERTEX
  5
29606
  8
0
 10
520.27380894916985
 20
293.11673551123198
 30
0.0
  0
VERTEX
  5
29607
  8
0
 10
520.28230869699166
 20
293.10473652590548
 30
0.0
  0
VERTEX
  5
29608
  8
0
 10
520.29912973202693
 20
293.0802289296916
 30
0.0
  0
VERTEX
  5
29609
  8
0
 10
520.31567675242854
 20
293.05505873716169
 30
0.0
  0
VERTEX
  5
2960A
  8
0
 10
520.33190448742425
 20
293.02925321505973
 30
0.0
  0
VERTEX
  5
2960B
  8
0
 10
520.3477680522459
 20
293.00284454142462
 30
0.0
  0
VERTEX
  5
2960C
  8
0
 10
520.36322372449865
 20
292.97586930183212
 30
0.0
  0
VERTEX
  5
2960D
  8
0
 10
520.37078538397191
 20
292.96218180525278
 30
0.0
  0
VERTEX
  5
2960E
  8
0
 10
520.37822946689676
 20
292.94836826550909
 30
0.0
  0
VERTEX
  5
2960F
  8
0
 10
520.392745457199
 20
292.92038604029312
 30
0.0
  0
VERTEX
  5
29610
  8
0
 10
520.40673461944357
 20
292.89197057921228
 30
0.0
  0
VERTEX
  5
29611
  8
0
 10
520.41352093398393
 20
292.87761612403119
 30
0.0
  0
SEQEND
  5
29612
  8
0
  0
LINE
  5
2690B
  8
0
 10
490.00966464464022
 20
295.74368873141981
 30
0.0
 11
575.00966464464022
 21
295.74368873141981
 31
0.0
  0
LINE
  5
2691B
  8
0
 10
565.00966464464022
 20
198.2436887314197
 30
0.0
 11
567.24266464464017
 21
198.2436887314197
 31
0.0
  0
LINE
  5
2691D
  8
0
 10
567.24266464464017
 20
198.2436887314197
 30
0.0
 11
568.00966464464011
 21
199.01068873142049
 31
0.0
  0
LINE
  5
2691F
  8
0
 10
555.00966464464022
 20
206.24368873141981
 30
0.0
 11
552.50966464464022
 21
206.24368873141981
 31
0.0
  0
LINE
  5
26920
  8
0
 10
552.50966464464022
 20
198.2436887314197
 30
0.0
 11
555.00966464464022
 21
198.2436887314197
 31
0.0
  0
LINE
  5
26923
  8
0
 10
562.50966464464022
 20
196.4286887314201
 30
0.0
 11
565.00966464464022
 21
196.4286887314201
 31
0.0
  0
LINE
  5
26924
  8
0
 10
512.50966464464022
 20
206.24368873141981
 30
0.0
 11
510.00966464464028
 21
206.24368873141981
 31
0.0
  0
LINE
  5
26927
  8
0
 10
510.00966464464028
 20
198.2436887314197
 30
0.0
 11
512.50966464464022
 21
198.2436887314197
 31
0.0
  0
LINE
  5
26928
  8
0
 10
552.50966464464022
 20
208.24368873141981
 30
0.0
 11
550.00966464464022
 21
208.24368873141981
 31
0.0
  0
LINE
  5
2692A
  8
0
 10
515.00966464464022
 20
208.24368873141981
 30
0.0
 11
512.50966464464022
 21
208.24368873141981
 31
0.0
  0
LINE
  5
2692B
  8
0
 10
512.50966464464022
 20
196.2436887314197
 30
0.0
 11
515.00966464464022
 21
196.2436887314197
 31
0.0
  0
LINE
  5
2692D
  8
0
 10
550.00966464464022
 20
196.2436887314197
 30
0.0
 11
552.50966464464022
 21
196.2436887314197
 31
0.0
  0
LINE
  5
2692E
  8
0
 10
567.24266464464017
 20
198.2436887314197
 30
0.0
 11
567.24266464464017
 21
203.14272735118811
 31
0.0
  0
LINE
  5
26930
  8
0
 10
568.00966464464011
 20
199.01068873142049
 30
0.0
 11
568.00966464464011
 21
203.91075362735319
 31
0.0
  0
LINE
  5
26932
  8
0
 10
502.70966464464021
 20
195.98535539808651
 30
0.0
 11
502.70966464464021
 21
197.6196545500716
 31
0.0
  0
POLYLINE
  5
26946
  8
0
 66
     1
 10
0.0
 20
0.0
 30
0.0
  0
VERTEX
  5
29613
  8
0
 10
502.96908435405572
 20
195.98535539808651
 30
0.0
  0
VERTEX
  5
29614
  8
0
 10
502.92887619311477
 20
196.2541075613772
 30
0.0
  0
VERTEX
  5
29615
  8
0
 10
502.85947274058083
 20
196.77296101007869
 30
0.0
  0
VERTEX
  5
29616
  8
0
 10
502.80391017492639
 20
197.27206663256311
 30
0.0
  0
VERTEX
  5
29617
  8
0
 10
502.78107916102078
 20
197.51600504442371
 30
0.0
  0
SEQEND
  5
29618
  8
0
  0
LINE
  5
2694F
  8
0
 10
565.00966464464022
 20
196.4286887314201
 30
0.0
 11
565.00966464464022
 21
200.9072079570569
 31
0.0
  0
LINE
  5
26950
  8
0
 10
562.50966464464022
 20
195.98535539808651
 30
0.0
 11
562.50966464464022
 21
197.91650642999409
 31
0.0
  0
POLYLINE
  5
26961
  8
0
 66
     1
 10
0.0
 20
0.0
 30
0.0
  0
VERTEX
  5
29619
  8
0
 10
562.46518833674156
 20
197.85798920482461
 30
0.0
  0
VERTEX
  5
2961A
  8
0
 10
562.4421081699104
 20
197.5606588634673
 30
0.0
  0
VERTEX
  5
2961B
  8
0
 10
562.38114003316696
 20
196.9522622797667
 30
0.0
  0
VERTEX
  5
2961C
  8
0
 10
562.29942722700048
 20
196.31678958071731
 30
0.0
  0
VERTEX
  5
2961D
  8
0
 10
562.2502449352246
 20
195.98535539808651
 30
0.0
  0
SEQEND
  5
2961E
  8
0
  0
LINE
  5
2696B
  8
0
 10
512.50966464464022
 20
196.2436887314197
 30
0.0
 11
512.50966464464022
 21
208.24368873141981
 31
0.0
  0
LINE
  5
2696C
  8
0
 10
552.50966464464022
 20
196.2436887314197
 30
0.0
 11
552.50966464464022
 21
208.24368873141981
 31
0.0
  0
LINE
  5
26973
  8
0
 10
546.48365202010598
 20
264.74368873141981
 30
0.0
 11
518.53567726917424
 21
264.74368873141981
 31
0.0
  0
LINE
  5
26974
  8
0
 10
518.53567726917424
 20
139.7436887314197
 30
0.0
 11
546.48365202010598
 21
139.7436887314197
 31
0.0
  0
ARC
  5
26975
  8
0
 10
546.48365202010598
 20
142.2436887314197
 30
0.0
 40
2.499999999999992
 50
270.0
 51
345.00000000000551
  0
ARC
  5
26976
  8
0
 10
546.48365202010598
 20
262.24368873141981
 30
0.0
 40
2.499999999999992
 50
14.99999999999447
 51
90.0
  0
LINE
  5
26977
  8
0
 10
550.00966464464022
 20
258.7436887314197
 30
0.0
 11
548.89846658582883
 21
262.89073634417667
 31
0.0
  0
LINE
  5
26978
  8
0
 10
548.89846658582883
 20
141.5966411186636
 30
0.0
 11
550.00966464464022
 21
145.7436887314197
 31
0.0
  0
LINE
  5
26980
  8
0
 10
550.00216464464029
 20
186.22868873142031
 30
0.0
 11
550.00966464464022
 21
186.22868873142031
 31
0.0
  0
LINE
  5
26982
  8
0
 10
550.00216464464029
 20
186.2436887314197
 30
0.0
 11
550.00966464464022
 21
186.2436887314197
 31
0.0
  0
LINE
  5
26989
  8
0
 10
516.12086270345173
 20
262.89073634417667
 30
0.0
 11
515.00966464464022
 21
258.7436887314197
 31
0.0
  0
LINE
  5
2698A
  8
0
 10
515.00966464464022
 20
145.7436887314197
 30
0.0
 11
516.12086270345173
 21
141.5966411186636
 31
0.0
  0
ARC
  5
2698B
  8
0
 10
518.53567726917424
 20
142.2436887314197
 30
0.0
 40
2.4999999999999778
 50
194.9999999999944
 51
270.0
  0
ARC
  5
2698C
  8
0
 10
518.53567726917424
 20
262.24368873141981
 30
0.0
 40
2.4999999999999778
 50
90.0
 51
165.00000000000551
  0
LINE
  5
2699F
  8
0
 10
546.48365202010598
 20
139.7436887314197
 30
0.0
 11
546.48365202010598
 21
264.74368873141981
 31
0.0
  0
LINE
  5
269A1
  8
0
 10
550.00966464464022
 20
145.7436887314197
 30
0.0
 11
550.00966464464022
 21
258.7436887314197
 31
0.0
  0
LINE
  5
269A4
  8
0
 10
515.00966464464022
 20
145.7436887314197
 30
0.0
 11
515.00966464464022
 21
258.7436887314197
 31
0.0
  0
LINE
  5
269A5
  8
0
 10
518.53567726917424
 20
139.7436887314197
 30
0.0
 11
518.53567726917424
 21
264.74368873141981
 31
0.0
  0
LINE
  5
26C4E
  8
0
 10
343.90231598404699
 20
443.41222016671821
 30
0.0
 11
293.90231598404699
 21
443.41222016671821
 31
0.0
  0
LINE
  5
26C4F
  8
0
 10
343.90231598404699
 20
426.1328148022007
 30
0.0
 11
293.90231598404699
 21
426.1328148022007
 31
0.0
  0
LINE
  5
26C52
  8
0
 10
345.54201866630581
 20
427.77251748445951
 30
0.0
 11
345.54201866630581
 21
441.77251748445951
 31
0.0
  0
LINE
  5
26C53
  8
0
 10
292.26261330178829
 20
427.77251748445951
 30
0.0
 11
292.26261330178829
 21
441.77251748445951
 31
0.0
  0
ARC
  5
26C56
  8
0
 10
293.90231598404699
 20
441.77251748445951
 30
0.0
 40
1.6397026822587399
 50
90.0
 51
180.0
  0
LINE
  5
26C59
  8
0
 10
350.3181235213566
 20
392.27251748445951
 30
0.0
 11
364.21320511650242
 21
392.27251748445951
 31
0.0
  0
ARC
  5
26C5A
  8
0
 10
350.3181235213566
 20
402.27251748445951
 30
0.0
 40
10.00000000000003
 50
210.0000000000002
 51
270.0
  0
LINE
  5
26C5B
  8
0
 10
338.62678057026659
 20
402.52251748445951
 30
0.0
 11
341.65786948351217
 21
397.27251748445951
 31
0.0
  0
ARC
  5
26C5C
  8
0
 10
325.2033868116078
 20
394.77251748445951
 30
0.0
 40
15.5
 50
30.000000000000231
 51
90.0
  0
LINE
  5
26C5D
  8
0
 10
312.6012451564863
 20
410.27251748445951
 30
0.0
 11
325.2033868116078
 21
410.27251748445951
 31
0.0
  0
ARC
  5
26C5E
  8
0
 10
312.6012451564863
 20
394.77251748445951
 30
0.0
 40
15.49999999999998
 50
90.0
 51
149.9999999999998
  0
LINE
  5
26C5F
  8
0
 10
296.14676248458193
 20
397.27251748445951
 30
0.0
 11
299.17785139782751
 21
402.52251748445951
 31
0.0
  0
ARC
  5
26C60
  8
0
 10
287.4865084467375
 20
402.27251748445951
 30
0.0
 40
10.00000000000003
 50
270.0
 51
329.99999999999977
  0
LINE
  5
26C61
  8
0
 10
273.59142685159168
 20
392.27251748445951
 30
0.0
 11
287.4865084467375
 21
392.27251748445951
 31
0.0
  0
LINE
  5
26C62
  8
0
 10
268.90231598404699
 20
409.77251748445951
 30
0.0
 11
273.59142685159168
 21
392.27251748445951
 31
0.0
  0
LINE
  5
26C63
  8
0
 10
268.90231598404699
 20
459.77251748445951
 30
0.0
 11
268.90231598404699
 21
409.77251748445951
 31
0.0
  0
LINE
  5
26C64
  8
0
 10
273.59142685159168
 20
477.27251748445951
 30
0.0
 11
268.90231598404699
 21
459.77251748445951
 31
0.0
  0
LINE
  5
26C65
  8
0
 10
287.4865084467375
 20
477.27251748445951
 30
0.0
 11
273.59142685159168
 21
477.27251748445951
 31
0.0
  0
ARC
  5
26C66
  8
0
 10
287.4865084467375
 20
467.27251748445951
 30
0.0
 40
10.00000000000005
 50
30.000000000000231
 51
90.0
  0
LINE
  5
26C67
  8
0
 10
299.17785139782751
 20
467.02251748445951
 30
0.0
 11
296.14676248458193
 21
472.27251748445951
 31
0.0
  0
ARC
  5
26C68
  8
0
 10
312.6012451564863
 20
474.77251748445951
 30
0.0
 40
15.49999999999997
 50
210.0000000000002
 51
270.0
  0
LINE
  5
26C69
  8
0
 10
325.2033868116078
 20
459.27251748445951
 30
0.0
 11
312.6012451564863
 21
459.27251748445951
 31
0.0
  0
ARC
  5
26C6A
  8
0
 10
325.2033868116078
 20
474.77251748445951
 30
0.0
 40
15.49999999999998
 50
270.0
 51
329.99999999999977
  0
LINE
  5
26C6B
  8
0
 10
341.65786948351217
 20
472.27251748445951
 30
0.0
 11
338.62678057026659
 21
467.02251748445951
 31
0.0
  0
ARC
  5
26C6C
  8
0
 10
350.3181235213566
 20
467.27251748445951
 30
0.0
 40
10.00000000000003
 50
90.0
 51
149.9999999999998
  0
LINE
  5
26C6D
  8
0
 10
364.21320511650242
 20
477.27251748445951
 30
0.0
 11
350.3181235213566
 21
477.27251748445951
 31
0.0
  0
LINE
  5
26C6E
  8
0
 10
368.90231598404699
 20
459.77251748445951
 30
0.0
 11
364.21320511650242
 21
477.27251748445951
 31
0.0
  0
LINE
  5
26C6F
  8
0
 10
368.90231598404699
 20
409.77251748445951
 30
0.0
 11
368.90231598404699
 21
459.77251748445951
 31
0.0
  0
LINE
  5
26C70
  8
0
 10
364.21320511650242
 20
392.27251748445951
 30
0.0
 11
368.90231598404699
 21
409.77251748445951
 31
0.0
  0
ARC
  5
26C71
  8
0
 10
278.90231598404699
 20
464.77251748445951
 30
0.0
 40
4.4999999999999876
 50
18.434948822914318
 51
198.43494882291429
  0
LINE
  5
26C72
  8
0
 10
274.63324114281971
 20
463.34949253738381
 30
0.0
 11
277.13324114281971
 21
455.84949253738381
 31
0.0
  0
ARC
  5
26C73
  8
0
 10
281.40231598404699
 20
457.2725174844594
 30
0.0
 40
4.4999999999999938
 50
198.43494882291429
 51
18.434948822914318
  0
LINE
  5
26C74
  8
0
 10
285.67139082527427
 20
458.6955424315351
 30
0.0
 11
283.17139082527427
 21
466.1955424315351
 31
0.0
  0
ARC
  5
26C75
  8
0
 10
278.90231598404699
 20
404.77251748445951
 30
0.0
 40
4.5000000000000018
 50
161.56505117708571
 51
341.56505117708571
  0
LINE
  5
26C76
  8
0
 10
283.17139082527427
 20
403.34949253738392
 30
0.0
 11
285.67139082527427
 21
410.8494925373833
 31
0.0
  0
ARC
  5
26C77
  8
0
 10
281.40231598404699
 20
412.2725174844594
 30
0.0
 40
4.5000000000000018
 50
341.56505117708571
 51
161.56505117708571
  0
LINE
  5
26C78
  8
0
 10
277.13324114281971
 20
413.6955424315351
 30
0.0
 11
274.63324114281971
 21
406.1955424315351
 31
0.0
  0
ARC
  5
26C79
  8
0
 10
356.40231598404699
 20
457.2725174844594
 30
0.0
 40
4.4999999999999973
 50
161.56505117708571
 51
341.56505117708571
  0
LINE
  5
26C7A
  8
0
 10
360.67139082527427
 20
455.84949253738341
 30
0.0
 11
363.17139082527427
 21
463.34949253738381
 31
0.0
  0
ARC
  5
26C7B
  8
0
 10
358.90231598404711
 20
464.77251748445951
 30
0.0
 40
4.5000000000000009
 50
341.56505117708571
 51
161.56505117708571
  0
LINE
  5
26C7C
  8
0
 10
354.63324114281971
 20
466.1955424315351
 30
0.0
 11
352.13324114281971
 21
458.6955424315351
 31
0.0
  0
ARC
  5
26C7D
  8
0
 10
356.40231598404699
 20
412.2725174844594
 30
0.0
 40
4.5000000000000027
 50
18.434948822914318
 51
198.43494882291429
  0
LINE
  5
26C7E
  8
0
 10
352.13324114281971
 20
410.8494925373833
 30
0.0
 11
354.63324114281971
 21
403.34949253738341
 31
0.0
  0
ARC
  5
26C7F
  8
0
 10
358.90231598404711
 20
404.77251748445951
 30
0.0
 40
4.5000000000000027
 50
198.43494882291429
 51
18.434948822914318
  0
LINE
  5
26C80
  8
0
 10
363.17139082527427
 20
406.1955424315351
 30
0.0
 11
360.67139082527427
 21
413.6955424315351
 31
0.0
  0
LINE
  5
26C81
  8
0
 10
350.63206189687332
 20
441.77251748445951
 30
0.0
 11
350.63206189687332
 21
427.77251748445951
 31
0.0
  0
LINE
  5
26C82
  8
0
 10
293.90231598404699
 20
448.50226339728579
 30
0.0
 11
343.90231598404699
 21
448.50226339728579
 31
0.0
  0
ARC
  5
26C83
  8
0
 10
293.90231598404699
 20
441.77251748445951
 30
0.0
 40
6.7297459128262069
 50
90.0
 51
180.0
  0
LINE
  5
26C84
  8
0
 10
287.17257007122078
 20
441.77251748445951
 30
0.0
 11
287.17257007122078
 21
427.77251748445951
 31
0.0
  0
LINE
  5
26C85
  8
0
 10
293.90231598404699
 20
421.04277157163318
 30
0.0
 11
343.90231598404699
 21
421.04277157163318
 31
0.0
  0
ARC
  5
26C86
  8
0
 10
293.90231598404699
 20
427.77251748445951
 30
0.0
 40
1.6397026822587499
 50
180.0
 51
270.0
  0
ARC
  5
26C89
  8
0
 10
293.90231598404699
 20
427.77251748445951
 30
0.0
 40
6.7297459128262238
 50
180.0
 51
270.0
  0
ARC
  5
26C91
  8
0
 10
343.90231598404699
 20
441.77251748445951
 30
0.0
 40
6.729745912826214
 50
0.0
 51
90.0
  0
ARC
  5
26C93
  8
0
 10
343.90231598404699
 20
441.77251748445951
 30
0.0
 40
1.6397026822587391
 50
0.0
 51
90.0
  0
ARC
  5
26C99
  8
0
 10
343.90231598404699
 20
427.77251748445951
 30
0.0
 40
1.639702682258747
 50
270.0
 51
0.0
  0
ARC
  5
26C9B
  8
0
 10
343.90231598404699
 20
427.77251748445951
 30
0.0
 40
6.7297459128262203
 50
270.0
 51
0.0000008537736463
  0
LINE
  5
26C9D
  8
1
 10
272.04382070103293
 20
464.77251748445951
 30
0.0
 11
285.76081126706117
 21
464.77251748445951
 31
0.0
  0
LINE
  5
26C9E
  8
1
 10
278.90231598404699
 20
457.91402220144522
 30
0.0
 11
278.90231598404699
 21
471.63101276747369
 31
0.0
  0
LINE
  5
26C9F
  8
1
 10
274.54382070103293
 20
457.2725174844594
 30
0.0
 11
288.26081126706117
 21
457.2725174844594
 31
0.0
  0
LINE
  5
26CA0
  8
1
 10
281.40231598404699
 20
450.41402220144522
 30
0.0
 11
281.40231598404699
 21
464.13101276747369
 31
0.0
  0
LINE
  5
26CA1
  8
1
 10
272.04382070103293
 20
404.77251748445951
 30
0.0
 11
285.76081126706117
 21
404.77251748445951
 31
0.0
  0
LINE
  5
26CA2
  8
1
 10
278.90231598404699
 20
397.91402220144528
 30
0.0
 11
278.90231598404699
 21
411.63101276747369
 31
0.0
  0
LINE
  5
26CA3
  8
1
 10
274.54382070103293
 20
412.2725174844594
 30
0.0
 11
288.26081126706117
 21
412.2725174844594
 31
0.0
  0
LINE
  5
26CA4
  8
1
 10
281.40231598404699
 20
405.41402220144522
 30
0.0
 11
281.40231598404699
 21
419.13101276747369
 31
0.0
  0
LINE
  5
26CA5
  8
1
 10
349.54382070103293
 20
457.2725174844594
 30
0.0
 11
363.26081126706117
 21
457.2725174844594
 31
0.0
  0
LINE
  5
26CA6
  8
1
 10
356.40231598404699
 20
450.41402220144522
 30
0.0
 11
356.40231598404699
 21
464.13101276747369
 31
0.0
  0
LINE
  5
26CA7
  8
1
 10
352.04382070103293
 20
464.77251748445951
 30
0.0
 11
365.76081126706117
 21
464.77251748445951
 31
0.0
  0
LINE
  5
26CA8
  8
1
 10
358.90231598404711
 20
457.91402220144522
 30
0.0
 11
358.90231598404711
 21
471.63101276747369
 31
0.0
  0
LINE
  5
26CA9
  8
1
 10
349.54382070103293
 20
412.2725174844594
 30
0.0
 11
363.26081126706117
 21
412.2725174844594
 31
0.0
  0
LINE
  5
26CAA
  8
1
 10
356.40231598404699
 20
405.41402220144522
 30
0.0
 11
356.40231598404699
 21
419.13101276747369
 31
0.0
  0
LINE
  5
26CAB
  8
1
 10
352.04382070103293
 20
404.77251748445951
 30
0.0
 11
365.76081126706117
 21
404.77251748445951
 31
0.0
  0
LINE
  5
26CAC
  8
1
 10
358.90231598404711
 20
397.91402220144528
 30
0.0
 11
358.90231598404711
 21
411.63101276747369
 31
0.0
  0
LINE
  5
26CAD
  8
0
 10
313.087315984047
 20
410.27251748445951
 30
0.0
 11
313.087315984047
 21
409.67251748445949
 31
0.0
  0
LINE
  5
26CAE
  8
0
 10
324.7173159840471
 20
409.67251748445949
 30
0.0
 11
324.7173159840471
 21
410.27251748445951
 31
0.0
  0
LINE
  5
26CAF
  8
0
 10
314.90231598404711
 20
469.50551748445918
 30
0.0
 11
314.90231598404711
 21
467.27251748445951
 31
0.0
  0
LINE
  5
26CB0
  8
0
 10
322.90231598404699
 20
467.27251748445951
 30
0.0
 11
322.90231598404699
 21
469.50551748445918
 31
0.0
  0
LINE
  5
26CB1
  8
0
 10
315.66931598404699
 20
470.2725174844594
 30
0.0
 11
314.90231598404711
 21
469.50551748445918
 31
0.0
  0
LINE
  5
26CB2
  8
0
 10
322.90231598404699
 20
469.50551748445918
 30
0.0
 11
322.13531598404711
 21
470.2725174844594
 31
0.0
  0
LINE
  5
26CB3
  8
0
 10
325.16064931738038
 20
404.97251748445927
 30
0.0
 11
326.12881685340392
 21
405.23193719387473
 31
0.0
  0
LINE
  5
26CB4
  8
0
 10
311.67581511469018
 20
405.23193719387473
 30
0.0
 11
312.64398265071372
 21
404.97251748445927
 31
0.0
  0
LINE
  5
26CB5
  8
0
 10
326.12881685340392
 20
409.4130977750437
 30
0.0
 11
325.16064931738038
 21
409.67251748445949
 31
0.0
  0
LINE
  5
26CB6
  8
0
 10
312.64398265071372
 20
409.67251748445949
 30
0.0
 11
311.67581511469018
 21
409.4130977750437
 31
0.0
  0
LINE
  5
26CB9
  8
0
 10
313.087315984047
 20
467.27251748445951
 30
0.0
 11
313.087315984047
 21
464.77251748445951
 31
0.0
  0
LINE
  5
26CBA
  8
0
 10
324.7173159840471
 20
464.77251748445951
 30
0.0
 11
324.7173159840471
 21
467.27251748445951
 31
0.0
  0
LINE
  5
26CBB
  8
0
 10
325.16064931738038
 20
459.27251748445951
 30
0.0
 11
326.12881685340392
 21
459.53193719387491
 31
0.0
  0
LINE
  5
26CBC
  8
0
 10
311.67581511469018
 20
459.53193719387491
 30
0.0
 11
312.64398265071372
 21
459.27251748445951
 31
0.0
  0
LINE
  5
26CBD
  8
0
 10
326.12881685340392
 20
464.51309777504372
 30
0.0
 11
325.16064931738038
 21
464.77251748445951
 31
0.0
  0
LINE
  5
26CBE
  8
0
 10
312.64398265071372
 20
464.77251748445951
 30
0.0
 11
311.67581511469018
 21
464.51309777504372
 31
0.0
  0
LINE
  5
26CC3
  8
0
 10
322.90231598404699
 20
469.50551748445918
 30
0.0
 11
314.90231598404711
 21
469.50551748445918
 31
0.0
  0
LINE
  5
26CC4
  8
0
 10
322.13531598404711
 20
470.2725174844594
 30
0.0
 11
315.66931598404699
 21
470.2725174844594
 31
0.0
  0
LINE
  5
26CC5
  8
0
 10
325.16064931738038
 20
404.97251748445927
 30
0.0
 11
312.64398265071372
 21
404.97251748445927
 31
0.0
  0
LINE
  5
26CC6
  8
0
 10
325.16064931738038
 20
409.67251748445949
 30
0.0
 11
312.64398265071372
 21
409.67251748445949
 31
0.0
  0
POLYLINE
  5
26CC7
  8
0
 66
     1
 10
0.0
 20
0.0
 30
0.0
  0
VERTEX
  5
2961F
  8
0
 10
315.28906554936862
 20
405.23193719387473
 30
0.0
  0
VERTEX
  5
29620
  8
0
 10
314.96449165369643
 20
405.15109254061679
 30
0.0
  0
VERTEX
  5
29621
  8
0
 10
314.35493107492459
 20
405.03648220186369
 30
0.0
  0
VERTEX
  5
29622
  8
0
 10
313.77252290334889
 20
404.97970761807932
 30
0.0
  0
VERTEX
  5
29623
  8
0
 10
313.4824403320294
 20
404.97251748445927
 30
0.0
  0
SEQEND
  5
29624
  8
0
  0
POLYLINE
  5
26CC8
  8
0
 66
     1
 10
0.0
 20
0.0
 30
0.0
  0
VERTEX
  5
29625
  8
0
 10
313.4824403320294
 20
404.97251748445927
 30
0.0
  0
VERTEX
  5
29626
  8
0
 10
313.19235776071002
 20
404.97970761807932
 30
0.0
  0
VERTEX
  5
29627
  8
0
 10
312.60994958913432
 20
405.03648220186369
 30
0.0
  0
VERTEX
  5
29628
  8
0
 10
312.00038901036243
 20
405.15109254061679
 30
0.0
  0
VERTEX
  5
29629
  8
0
 10
311.67581511469018
 20
405.23193719387473
 30
0.0
  0
SEQEND
  5
2962A
  8
0
  0
POLYLINE
  5
26CC9
  8
0
 66
     1
 10
0.0
 20
0.0
 30
0.0
  0
VERTEX
  5
2962B
  8
0
 10
311.67581511469018
 20
409.4130977750437
 30
0.0
  0
VERTEX
  5
2962C
  8
0
 10
312.00038901036243
 20
409.49394242830198
 30
0.0
  0
VERTEX
  5
2962D
  8
0
 10
312.60994958913432
 20
409.60855276705519
 30
0.0
  0
VERTEX
  5
2962E
  8
0
 10
313.19235776071002
 20
409.6653273508395
 30
0.0
  0
VERTEX
  5
2962F
  8
0
 10
313.4824403320294
 20
409.67251748445949
 30
0.0
  0
SEQEND
  5
29630
  8
0
  0
POLYLINE
  5
26CCA
  8
0
 66
     1
 10
0.0
 20
0.0
 30
0.0
  0
VERTEX
  5
29631
  8
0
 10
313.4824403320294
 20
409.67251748445949
 30
0.0
  0
VERTEX
  5
29632
  8
0
 10
313.77252290334889
 20
409.6653273508395
 30
0.0
  0
VERTEX
  5
29633
  8
0
 10
314.35493107492459
 20
409.60855276705519
 30
0.0
  0
VERTEX
  5
29634
  8
0
 10
314.96449165369643
 20
409.49394242830198
 30
0.0
  0
VERTEX
  5
29635
  8
0
 10
315.28906554936862
 20
409.4130977750437
 30
0.0
  0
SEQEND
  5
29636
  8
0
  0
LINE
  5
26CCB
  8
0
 10
311.67581511469018
 20
405.23193719387473
 30
0.0
 11
311.67581511469018
 21
409.4130977750437
 31
0.0
  0
POLYLINE
  5
26CD4
  8
0
 66
     1
 10
0.0
 20
0.0
 30
0.0
  0
VERTEX
  5
29637
  8
0
 10
324.3221916360647
 20
409.67251748445949
 30
0.0
  0
VERTEX
  5
29638
  8
0
 10
324.61227420738408
 20
409.6653273508395
 30
0.0
  0
VERTEX
  5
29639
  8
0
 10
325.19468237895978
 20
409.60855276705519
 30
0.0
  0
VERTEX
  5
2963A
  8
0
 10
325.80424295773167
 20
409.49394242830198
 30
0.0
  0
VERTEX
  5
2963B
  8
0
 10
326.12881685340392
 20
409.4130977750437
 30
0.0
  0
SEQEND
  5
2963C
  8
0
  0
POLYLINE
  5
26CD5
  8
0
 66
     1
 10
0.0
 20
0.0
 30
0.0
  0
VERTEX
  5
2963D
  8
0
 10
326.12881685340392
 20
405.23193719387473
 30
0.0
  0
VERTEX
  5
2963E
  8
0
 10
325.80424295773167
 20
405.15109254061679
 30
0.0
  0
VERTEX
  5
2963F
  8
0
 10
325.19468237895978
 20
405.03648220186369
 30
0.0
  0
VERTEX
  5
29640
  8
0
 10
324.61227420738408
 20
404.97970761807932
 30
0.0
  0
VERTEX
  5
29641
  8
0
 10
324.3221916360647
 20
404.97251748445927
 30
0.0
  0
SEQEND
  5
29642
  8
0
  0
POLYLINE
  5
26CD6
  8
0
 66
     1
 10
0.0
 20
0.0
 30
0.0
  0
VERTEX
  5
29643
  8
0
 10
324.3221916360647
 20
404.97251748445927
 30
0.0
  0
VERTEX
  5
29644
  8
0
 10
324.03210906474521
 20
404.97970761807932
 30
0.0
  0
VERTEX
  5
29645
  8
0
 10
323.44970089316951
 20
405.03648220186369
 30
0.0
  0
VERTEX
  5
29646
  8
0
 10
322.84014031439767
 20
405.15109254061679
 30
0.0
  0
VERTEX
  5
29647
  8
0
 10
322.51556641872543
 20
405.23193719387473
 30
0.0
  0
SEQEND
  5
29648
  8
0
  0
POLYLINE
  5
26CD7
  8
0
 66
     1
 10
0.0
 20
0.0
 30
0.0
  0
VERTEX
  5
29649
  8
0
 10
322.51556641872543
 20
409.4130977750437
 30
0.0
  0
VERTEX
  5
2964A
  8
0
 10
322.84014031439767
 20
409.49394242830198
 30
0.0
  0
VERTEX
  5
2964B
  8
0
 10
323.44970089316951
 20
409.60855276705519
 30
0.0
  0
VERTEX
  5
2964C
  8
0
 10
324.0321090647451
 20
409.6653273508395
 30
0.0
  0
VERTEX
  5
2964D
  8
0
 10
324.3221916360647
 20
409.67251748445949
 30
0.0
  0
SEQEND
  5
2964E
  8
0
  0
LINE
  5
26CDB
  8
0
 10
326.12881685340392
 20
405.23193719387473
 30
0.0
 11
326.12881685340392
 21
409.4130977750437
 31
0.0
  0
POLYLINE
  5
26CDD
  8
0
 66
     1
 10
0.0
 20
0.0
 30
0.0
  0
VERTEX
  5
2964F
  8
0
 10
318.90231598404699
 20
409.67251748445949
 30
0.0
  0
VERTEX
  5
29650
  8
0
 10
319.48248112668603
 20
409.6653273508395
 30
0.0
  0
VERTEX
  5
29651
  8
0
 10
320.64729746983733
 20
409.60855276705519
 30
0.0
  0
VERTEX
  5
29652
  8
0
 10
321.86641862738111
 20
409.49394242830198
 30
0.0
  0
VERTEX
  5
29653
  8
0
 10
322.51556641872543
 20
409.4130977750437
 30
0.0
  0
SEQEND
  5
29654
  8
0
  0
LINE
  5
26CDE
  8
0
 10
322.51556641872543
 20
405.23193719387473
 30
0.0
 11
322.51556641872543
 21
409.4130977750437
 31
0.0
  0
POLYLINE
  5
26CDF
  8
0
 66
     1
 10
0.0
 20
0.0
 30
0.0
  0
VERTEX
  5
29655
  8
0
 10
322.51556641872543
 20
405.23193719387473
 30
0.0
  0
VERTEX
  5
29656
  8
0
 10
321.86641862738111
 20
405.15109254061679
 30
0.0
  0
VERTEX
  5
29657
  8
0
 10
320.64729746983733
 20
405.03648220186369
 30
0.0
  0
VERTEX
  5
29658
  8
0
 10
319.48248112668603
 20
404.97970761807932
 30
0.0
  0
VERTEX
  5
29659
  8
0
 10
318.90231598404699
 20
404.97251748445927
 30
0.0
  0
SEQEND
  5
2965A
  8
0
  0
POLYLINE
  5
26CE0
  8
0
 66
     1
 10
0.0
 20
0.0
 30
0.0
  0
VERTEX
  5
2965B
  8
0
 10
318.90231598404699
 20
404.97251748445927
 30
0.0
  0
VERTEX
  5
2965C
  8
0
 10
318.32215084140819
 20
404.97970761807932
 30
0.0
  0
VERTEX
  5
2965D
  8
0
 10
317.15733449825677
 20
405.03648220186369
 30
0.0
  0
VERTEX
  5
2965E
  8
0
 10
315.93821334071311
 20
405.15109254061679
 30
0.0
  0
VERTEX
  5
2965F
  8
0
 10
315.28906554936862
 20
405.23193719387473
 30
0.0
  0
SEQEND
  5
29660
  8
0
  0
LINE
  5
26CE1
  8
0
 10
315.28906554936862
 20
405.23193719387473
 30
0.0
 11
315.28906554936862
 21
409.4130977750437
 31
0.0
  0
POLYLINE
  5
26CE2
  8
0
 66
     1
 10
0.0
 20
0.0
 30
0.0
  0
VERTEX
  5
29661
  8
0
 10
315.28906554936862
 20
409.4130977750437
 30
0.0
  0
VERTEX
  5
29662
  8
0
 10
315.93821334071311
 20
409.49394242830198
 30
0.0
  0
VERTEX
  5
29663
  8
0
 10
317.15733449825677
 20
409.60855276705519
 30
0.0
  0
VERTEX
  5
29664
  8
0
 10
318.32215084140807
 20
409.6653273508395
 30
0.0
  0
VERTEX
  5
29665
  8
0
 10
318.90231598404699
 20
409.67251748445949
 30
0.0
  0
SEQEND
  5
29666
  8
0
  0
LINE
  5
26CE3
  8
0
 10
324.7173159840471
 20
467.27251748445951
 30
0.0
 11
313.087315984047
 21
467.27251748445951
 31
0.0
  0
LINE
  5
26CE4
  8
0
 10
325.16064931738038
 20
464.77251748445951
 30
0.0
 11
312.64398265071372
 21
464.77251748445951
 31
0.0
  0
POLYLINE
  5
26CE5
  8
0
 66
     1
 10
0.0
 20
0.0
 30
0.0
  0
VERTEX
  5
29667
  8
0
 10
315.28906554936862
 20
459.53193719387491
 30
0.0
  0
VERTEX
  5
29668
  8
0
 10
314.96449165369643
 20
459.45109254061663
 30
0.0
  0
VERTEX
  5
29669
  8
0
 10
314.35493107492459
 20
459.33648220186387
 30
0.0
  0
VERTEX
  5
2966A
  8
0
 10
313.77252290334889
 20
459.2797076180791
 30
0.0
  0
VERTEX
  5
2966B
  8
0
 10
313.4824403320294
 20
459.27251748445951
 30
0.0
  0
SEQEND
  5
2966C
  8
0
  0
POLYLINE
  5
26CE6
  8
0
 66
     1
 10
0.0
 20
0.0
 30
0.0
  0
VERTEX
  5
2966D
  8
0
 10
313.4824403320294
 20
459.27251748445951
 30
0.0
  0
VERTEX
  5
2966E
  8
0
 10
313.19235776071002
 20
459.2797076180791
 30
0.0
  0
VERTEX
  5
2966F
  8
0
 10
312.60994958913432
 20
459.33648220186387
 30
0.0
  0
VERTEX
  5
29670
  8
0
 10
312.00038901036243
 20
459.45109254061663
 30
0.0
  0
VERTEX
  5
29671
  8
0
 10
311.67581511469018
 20
459.53193719387491
 30
0.0
  0
SEQEND
  5
29672
  8
0
  0
POLYLINE
  5
26CE7
  8
0
 66
     1
 10
0.0
 20
0.0
 30
0.0
  0
VERTEX
  5
29673
  8
0
 10
311.67581511469018
 20
464.51309777504372
 30
0.0
  0
VERTEX
  5
29674
  8
0
 10
312.00038901036243
 20
464.59394242830189
 30
0.0
  0
VERTEX
  5
29675
  8
0
 10
312.60994958913432
 20
464.7085527670551
 30
0.0
  0
VERTEX
  5
29676
  8
0
 10
313.19235776071002
 20
464.76532735083941
 30
0.0
  0
VERTEX
  5
29677
  8
0
 10
313.4824403320294
 20
464.77251748445951
 30
0.0
  0
SEQEND
  5
29678
  8
0
  0
POLYLINE
  5
26CE8
  8
0
 66
     1
 10
0.0
 20
0.0
 30
0.0
  0
VERTEX
  5
29679
  8
0
 10
313.4824403320294
 20
464.77251748445951
 30
0.0
  0
VERTEX
  5
2967A
  8
0
 10
313.77252290334889
 20
464.76532735083941
 30
0.0
  0
VERTEX
  5
2967B
  8
0
 10
314.35493107492459
 20
464.7085527670551
 30
0.0
  0
VERTEX
  5
2967C
  8
0
 10
314.96449165369643
 20
464.59394242830189
 30
0.0
  0
VERTEX
  5
2967D
  8
0
 10
315.28906554936862
 20
464.51309777504372
 30
0.0
  0
SEQEND
  5
2967E
  8
0
  0
LINE
  5
26CE9
  8
0
 10
311.67581511469018
 20
459.53193719387491
 30
0.0
 11
311.67581511469018
 21
464.51309777504372
 31
0.0
  0
POLYLINE
  5
26CF2
  8
0
 66
     1
 10
0.0
 20
0.0
 30
0.0
  0
VERTEX
  5
2967F
  8
0
 10
324.3221916360647
 20
464.77251748445951
 30
0.0
  0
VERTEX
  5
29680
  8
0
 10
324.61227420738408
 20
464.76532735083941
 30
0.0
  0
VERTEX
  5
29681
  8
0
 10
325.19468237895978
 20
464.7085527670551
 30
0.0
  0
VERTEX
  5
29682
  8
0
 10
325.80424295773167
 20
464.59394242830189
 30
0.0
  0
VERTEX
  5
29683
  8
0
 10
326.12881685340392
 20
464.51309777504372
 30
0.0
  0
SEQEND
  5
29684
  8
0
  0
POLYLINE
  5
26CF3
  8
0
 66
     1
 10
0.0
 20
0.0
 30
0.0
  0
VERTEX
  5
29685
  8
0
 10
326.12881685340392
 20
459.53193719387491
 30
0.0
  0
VERTEX
  5
29686
  8
0
 10
325.80424295773167
 20
459.45109254061663
 30
0.0
  0
VERTEX
  5
29687
  8
0
 10
325.19468237895978
 20
459.33648220186387
 30
0.0
  0
VERTEX
  5
29688
  8
0
 10
324.61227420738408
 20
459.2797076180791
 30
0.0
  0
VERTEX
  5
29689
  8
0
 10
324.3221916360647
 20
459.27251748445951
 30
0.0
  0
SEQEND
  5
2968A
  8
0
  0
POLYLINE
  5
26CF4
  8
0
 66
     1
 10
0.0
 20
0.0
 30
0.0
  0
VERTEX
  5
2968B
  8
0
 10
324.3221916360647
 20
459.27251748445951
 30
0.0
  0
VERTEX
  5
2968C
  8
0
 10
324.03210906474521
 20
459.2797076180791
 30
0.0
  0
VERTEX
  5
2968D
  8
0
 10
323.44970089316951
 20
459.33648220186387
 30
0.0
  0
VERTEX
  5
2968E
  8
0
 10
322.84014031439767
 20
459.45109254061663
 30
0.0
  0
VERTEX
  5
2968F
  8
0
 10
322.51556641872543
 20
459.53193719387491
 30
0.0
  0
SEQEND
  5
29690
  8
0
  0
POLYLINE
  5
26CF5
  8
0
 66
     1
 10
0.0
 20
0.0
 30
0.0
  0
VERTEX
  5
29691
  8
0
 10
322.51556641872543
 20
464.51309777504372
 30
0.0
  0
VERTEX
  5
29692
  8
0
 10
322.84014031439767
 20
464.59394242830189
 30
0.0
  0
VERTEX
  5
29693
  8
0
 10
323.44970089316951
 20
464.7085527670551
 30
0.0
  0
VERTEX
  5
29694
  8
0
 10
324.03210906474521
 20
464.76532735083941
 30
0.0
  0
VERTEX
  5
29695
  8
0
 10
324.3221916360647
 20
464.77251748445951
 30
0.0
  0
SEQEND
  5
29696
  8
0
  0
LINE
  5
26CF9
  8
0
 10
326.12881685340392
 20
459.53193719387491
 30
0.0
 11
326.12881685340392
 21
464.51309777504372
 31
0.0
  0
POLYLINE
  5
26CFB
  8
0
 66
     1
 10
0.0
 20
0.0
 30
0.0
  0
VERTEX
  5
29697
  8
0
 10
318.90231598404699
 20
464.77251748445951
 30
0.0
  0
VERTEX
  5
29698
  8
0
 10
319.48248112668603
 20
464.76532735083941
 30
0.0
  0
VERTEX
  5
29699
  8
0
 10
320.64729746983733
 20
464.7085527670551
 30
0.0
  0
VERTEX
  5
2969A
  8
0
 10
321.86641862738111
 20
464.59394242830189
 30
0.0
  0
VERTEX
  5
2969B
  8
0
 10
322.51556641872543
 20
464.51309777504372
 30
0.0
  0
SEQEND
  5
2969C
  8
0
  0
LINE
  5
26CFC
  8
0
 10
322.51556641872543
 20
459.53193719387491
 30
0.0
 11
322.51556641872543
 21
464.51309777504372
 31
0.0
  0
POLYLINE
  5
26CFD
  8
0
 66
     1
 10
0.0
 20
0.0
 30
0.0
  0
VERTEX
  5
2969D
  8
0
 10
322.51556641872543
 20
459.53193719387491
 30
0.0
  0
VERTEX
  5
2969E
  8
0
 10
321.86641862738719
 20
459.45109254061748
 30
0.0
  0
VERTEX
  5
2969F
  8
0
 10
320.64729746985449
 20
459.33648220186478
 30
0.0
  0
VERTEX
  5
296A0
  8
0
 10
319.48248112671411
 20
459.27970761808001
 30
0.0
  0
VERTEX
  5
296A1
  8
0
 10
318.90231598408099
 20
459.27251748445951
 30
0.0
  0
SEQEND
  5
296A2
  8
0
  0
POLYLINE
  5
26CFE
  8
0
 66
     1
 10
0.0
 20
0.0
 30
0.0
  0
VERTEX
  5
296A3
  8
0
 10
318.90231598404699
 20
459.27251748445951
 30
0.0
  0
VERTEX
  5
296A4
  8
0
 10
318.32215084140807
 20
459.2797076180791
 30
0.0
  0
VERTEX
  5
296A5
  8
0
 10
317.15733449825677
 20
459.33648220186387
 30
0.0
  0
VERTEX
  5
296A6
  8
0
 10
315.93821334071311
 20
459.45109254061663
 30
0.0
  0
VERTEX
  5
296A7
  8
0
 10
315.28906554936862
 20
459.53193719387491
 30
0.0
  0
SEQEND
  5
296A8
  8
0
  0
LINE
  5
26CFF
  8
0
 10
315.28906554936862
 20
459.53193719387491
 30
0.0
 11
315.28906554936862
 21
464.51309777504372
 31
0.0
  0
POLYLINE
  5
26D00
  8
0
 66
     1
 10
0.0
 20
0.0
 30
0.0
  0
VERTEX
  5
296A9
  8
0
 10
315.28906554936862
 20
464.51309777504372
 30
0.0
  0
VERTEX
  5
296AA
  8
0
 10
315.93821334071311
 20
464.59394242830189
 30
0.0
  0
VERTEX
  5
296AB
  8
0
 10
317.15733449825677
 20
464.7085527670551
 30
0.0
  0
VERTEX
  5
296AC
  8
0
 10
318.32215084140807
 20
464.76532735083941
 30
0.0
  0
VERTEX
  5
296AD
  8
0
 10
318.90231598404699
 20
464.77251748445951
 30
0.0
  0
SEQEND
  5
296AE
  8
0
  0
LINE
  5
26D09
  8
0
 10
256.40231598404699
 20
448.7465048599251
 30
0.0
 11
256.40231598404699
 21
420.79853010899342
 31
0.0
  0
LINE
  5
26D0A
  8
0
 10
381.40231598404699
 20
420.79853010899342
 30
0.0
 11
381.40231598404699
 21
448.7465048599251
 31
0.0
  0
ARC
  5
26D0B
  8
0
 10
378.90231598404699
 20
448.7465048599251
 30
0.0
 40
2.499999999999992
 50
0.0
 51
74.999999999999659
  0
ARC
  5
26D0C
  8
0
 10
258.90231598404711
 20
448.7465048599251
 30
0.0
 40
2.499999999999992
 50
105.0000000000003
 51
180.0
  0
LINE
  5
26D0D
  8
0
 10
262.40231598404699
 20
452.27251748445951
 30
0.0
 11
258.25526837129081
 21
451.16131942564778
 31
0.0
  0
LINE
  5
26D0E
  8
0
 10
379.54936359680329
 20
451.16131942564778
 30
0.0
 11
375.40231598404711
 21
452.27251748445951
 31
0.0
  0
LINE
  5
26D24
  8
0
 10
258.25526837129081
 20
418.38371554327068
 30
0.0
 11
262.40231598404699
 21
417.27251748445951
 31
0.0
  0
LINE
  5
26D25
  8
0
 10
375.40231598404711
 20
417.27251748445951
 30
0.0
 11
379.54936359680329
 21
418.38371554327068
 31
0.0
  0
ARC
  5
26D26
  8
0
 10
378.90231598404699
 20
420.79853010899342
 30
0.0
 40
2.4999999999999778
 50
284.99999999999721
 51
0.0
  0
ARC
  5
26D27
  8
0
 10
258.90231598404699
 20
420.79853010899342
 30
0.0
 40
2.4999999999999778
 50
180.0
 51
254.9999999999996
  0
LINE
  5
26D43
  8
0
 10
381.40231598404699
 20
448.7465048599251
 30
0.0
 11
368.90225153446818
 21
448.7465048599251
 31
0.0
  0
LINE
  5
26D45
  8
0
 10
268.90238043362592
 20
448.7465048599251
 30
0.0
 11
256.40231598404699
 21
448.7465048599251
 31
0.0
  0
LINE
  5
26D49
  8
0
 10
375.40231598404711
 20
452.27251748445951
 30
0.0
 11
368.91871474552528
 21
452.27251748445951
 31
0.0
  0
LINE
  5
26D4A
  8
0
 10
268.88591722256882
 20
452.27251748445951
 30
0.0
 11
262.40231598404699
 21
452.27251748445951
 31
0.0
  0
LINE
  5
26D4F
  8
0
 10
375.40231598404711
 20
417.27251748445951
 30
0.0
 11
368.91871474552528
 21
417.27251748445951
 31
0.0
  0
LINE
  5
26D50
  8
0
 10
268.88591722256882
 20
417.27251748445951
 30
0.0
 11
262.40231598404699
 21
417.27251748445951
 31
0.0
  0
LINE
  5
26D51
  8
0
 10
381.40231598404699
 20
420.79853010899342
 30
0.0
 11
368.90225153446818
 21
420.79853010899342
 31
0.0
  0
LINE
  5
26D53
  8
0
 10
268.90238043362592
 20
420.79853010899342
 30
0.0
 11
256.40231598404699
 21
420.79853010899342
 31
0.0
  0
LINE
  5
26FA0
  8
0
 10
315.2890655493689
 20
208.50202206475299
 30
0.0
 11
322.51556641872571
 21
208.50202206475299
 31
0.0
  0
LINE
  5
26FA1
  8
0
 10
315.2890655493689
 20
195.98535539808651
 30
0.0
 11
322.51556641872571
 21
195.98535539808651
 31
0.0
  0
LINE
  5
26FA2
  8
0
 10
326.12881685340409
 20
202.24368873141981
 30
0.0
 11
322.51556641872571
 21
195.98535539808651
 31
0.0
  0
LINE
  5
26FA3
  8
0
 10
322.51556641872571
 20
208.50202206475299
 30
0.0
 11
326.12881685340409
 21
202.24368873141981
 31
0.0
  0
LINE
  5
26FA4
  8
0
 10
311.67581511469052
 20
202.24368873141981
 30
0.0
 11
315.28906554936879
 21
195.98535539808651
 31
0.0
  0
LINE
  5
26FA5
  8
0
 10
315.28906554936879
 20
208.50202206475299
 30
0.0
 11
311.67581511469052
 21
202.24368873141981
 31
0.0
  0
LINE
  5
26FA7
  8
1
 10
318.90231598404728
 20
124.9505923813831
 30
0.0
 11
318.90231598404728
 21
310.5367850814564
 31
0.0
  0
LINE
  5
26FA9
  8
0
 10
502.70966464464021
 20
195.98535539808651
 30
0.0
 11
503.6992843515884
 21
195.98535539808651
 31
0.0
  0
LINE
  5
26FAA
  8
0
 10
562.50966464464022
 20
195.98535539808651
 30
0.0
 11
561.32004493769205
 21
195.98535539808651
 31
0.0
  0
LINE
  5
26FAB
  8
3
 10
315.66931598404699
 20
470.2725174844594
 30
0.0
 11
315.66931598404699
 21
467.27251748445951
 31
0.0
  0
LINE
  5
26FAC
  8
3
 10
322.13531598404711
 20
470.2725174844594
 30
0.0
 11
322.13531598404711
 21
467.27251748445951
 31
0.0
  0
LINE
  5
26FAD
  8
3
 10
568.00966464464011
 20
199.01068873142049
 30
0.0
 11
565.00966464464034
 21
199.01068873142049
 31
0.0
  0
LINE
  5
26FAE
  8
3
 10
512.50966464464034
 20
199.01068873142049
 30
0.0
 11
510.00966464464028
 21
199.01068873142049
 31
0.0
  0
LINE
  5
26FAF
  8
3
 10
555.00966464464022
 20
199.0106887314214
 30
0.0
 11
552.50966464464
 21
199.01068873142049
 31
0.0
  0
LINE
  5
26FB0
  8
3
 10
555.00966464464022
 20
205.47668873141811
 30
0.0
 11
552.50966464464
 21
205.47668873141899
 31
0.0
  0
LINE
  5
26FB1
  8
3
 10
512.50966464464034
 20
205.47668873141899
 30
0.0
 11
510.00966464464028
 21
205.47668873141899
 31
0.0
  0
LINE
  5
26FB2
  8
1
 10
480.86984526166691
 20
202.24368873141981
 30
0.0
 11
584.14948402761354
 21
202.24368873141981
 31
0.0
  0
LINE
  5
26FB3
  8
1
 10
532.50966464464022
 20
124.9505923813831
 30
0.0
 11
532.50966464464022
 21
310.5367850814564
 31
0.0
  0
LINE
  5
26FB6
  8
0
 10
145.7949673234543
 20
293.74368873141981
 30
0.0
 11
145.7949673234543
 21
215.54817315835771
 31
0.0
  0
LINE
  5
26FB7
  8
0
 10
145.7949673234543
 20
293.74368873141981
 30
0.0
 11
64.79496732345433
 21
293.74368873141981
 31
0.0
  0
LINE
  5
26FB8
  8
0
 10
127.7949673234542
 20
293.74368873141981
 30
0.0
 11
127.7949673234542
 21
190.7436887314197
 31
0.0
  0
LINE
  5
26FB9
  8
0
 10
64.79496732345433
 20
293.74368873141981
 30
0.0
 11
64.79496732345433
 21
215.54817315835771
 31
0.0
  0
LINE
  5
26FBA
  8
0
 10
82.794967323454344
 20
293.74368873141981
 30
0.0
 11
82.794967323454344
 21
190.7436887314197
 31
0.0
  0
POLYLINE
  5
26FBB
  8
0
 66
     1
 10
0.0
 20
0.0
 30
0.0
  0
VERTEX
  5
296AF
  8
0
 10
62.985890537116013
 20
212.8032138114049
 30
0.0
  0
VERTEX
  5
296B0
  8
0
 10
62.973497719797813
 20
212.86737803727561
 30
0.0
  0
VERTEX
  5
296B1
  8
0
 10
62.950195508964157
 20
212.99805400334839
 30
0.0
  0
VERTEX
  5
296B2
  8
0
 10
62.928829253479527
 20
213.1318186071139
 30
0.0
  0
VERTEX
  5
296B3
  8
0
 10
62.918855272510307
 20
213.19984223544731
 30
0.0
  0
VERTEX
  5
296B4
  8
0
 10
62.909344503559169
 20
213.2686170308325
 30
0.0
  0
VERTEX
  5
296B5
  8
0
 10
62.891682300946513
 20
213.40838904400789
 30
0.0
  0
VERTEX
  5
296B6
  8
0
 10
62.875779455279492
 20
213.55106955875181
 30
0.0
  0
VERTEX
  5
296B7
  8
0
 10
62.861568871454089
 20
213.6965892014714
 30
0.0
  0
VERTEX
  5
296B8
  8
0
 10
62.848979917521092
 20
213.8448748990977
 30
0.0
  0
VERTEX
  5
296B9
  8
0
 10
62.837938823613293
 20
213.9958504787792
 30
0.0
  0
VERTEX
  5
296BA
  8
0
 10
62.832974916427361
 20
214.072322473301
 30
0.0
  0
VERTEX
  5
296BB
  8
0
 10
62.828369103331852
 20
214.14943728061101
 30
0.0
  0
VERTEX
  5
296BC
  8
0
 10
62.820191977545853
 20
214.30555504232419
 30
0.0
  0
VERTEX
  5
296BD
  8
0
 10
62.813326804887311
 20
214.46412317331121
 30
0.0
  0
VERTEX
  5
296BE
  8
0
 10
62.807691770820611
 20
214.62505466348739
 30
0.0
  0
VERTEX
  5
296BF
  8
0
 10
62.803204083641162
 20
214.78825793566651
 30
0.0
  0
VERTEX
  5
296C0
  8
0
 10
62.799780283547761
 20
214.95363795671261
 30
0.0
  0
VERTEX
  5
296C1
  8
0
 10
62.798441166129237
 20
215.03711371822919
 30
0.0
  0
VERTEX
  5
296C2
  8
0
 10
62.797336604519039
 20
215.12109669757501
 30
0.0
  0
VERTEX
  5
296C3
  8
0
 10
62.795789345464982
 20
215.29053360376381
 30
0.0
  0
VERTEX
  5
296C4
  8
0
 10
62.79505524538547
 20
215.4618460791034
 30
0.0
  0
VERTEX
  5
296C5
  8
0
 10
62.79496732345433
 20
215.54817315835771
 30
0.0
  0
SEQEND
  5
296C6
  8
0
  0
POLYLINE
  5
26FBC
  8
0
 66
     1
 10
0.0
 20
0.0
 30
0.0
  0
VERTEX
  5
296C7
  8
0
 10
66.163488264340685
 20
207.26306973758159
 30
0.0
  0
VERTEX
  5
296C8
  8
0
 10
66.029420813296156
 20
207.38402928283361
 30
0.0
  0
VERTEX
  5
296C9
  8
0
 10
65.767946683835135
 20
207.63311123850141
 30
0.0
  0
VERTEX
  5
296CA
  8
0
 10
65.515636530007669
 20
207.8914716985027
 30
0.0
  0
VERTEX
  5
296CB
  8
0
 10
65.39302124732535
 20
208.02402653798339
 30
0.0
  0
VERTEX
  5
296CC
  8
0
 10
65.272819390850259
 20
208.158773733564
 30
0.0
  0
VERTEX
  5
296CD
  8
0
 10
65.039811925507806
 20
208.4346687536563
 30
0.0
  0
VERTEX
  5
296CE
  8
0
 10
64.816918000276473
 20
208.71879696258929
 30
0.0
  0
VERTEX
  5
296CF
  8
0
 10
64.604428292330226
 20
209.01078782723019
 30
0.0
  0
VERTEX
  5
296D0
  8
0
 10
64.402619910646536
 20
209.3102605607119
 30
0.0
  0
VERTEX
  5
296D1
  8
0
 10
64.211756034627911
 20
209.6168246190218
 30
0.0
  0
VERTEX
  5
296D2
  8
0
 10
64.120506636095342
 20
209.77264130710321
 30
0.0
  0
VERTEX
  5
296D3
  8
0
 10
64.032085570887602
 20
209.9300802103144
 30
0.0
  0
VERTEX
  5
296D4
  8
0
 10
63.863842828649581
 20
210.24961881627769
 30
0.0
  0
VERTEX
  5
296D5
  8
0
 10
63.707247214184008
 20
210.57502372488671
 30
0.0
  0
VERTEX
  5
296D6
  8
0
 10
63.562502944679068
 20
210.90587057383979
 30
0.0
  0
VERTEX
  5
296D7
  8
0
 10
63.429798781919651
 20
211.24172790397191
 30
0.0
  0
VERTEX
  5
296D8
  8
0
 10
63.30930778612241
 20
211.58215772192031
 30
0.0
  0
VERTEX
  5
296D9
  8
0
 10
63.253691957789322
 20
211.75394879460961
 30
0.0
  0
VERTEX
  5
296DA
  8
0
 10
63.201187090246769
 20
211.926716071318
 30
0.0
  0
VERTEX
  5
296DB
  8
0
 10
63.105577695077159
 20
212.274953611759
 30
0.0
  0
VERTEX
  5
296DC
  8
0
 10
63.022604285343157
 20
212.62641620478101
 30
0.0
  0
VERTEX
  5
296DD
  8
0
 10
62.985890537116013
 20
212.8032138114049
 30
0.0
  0
SEQEND
  5
296DE
  8
0
  0
POLYLINE
  5
26FBD
  8
0
 66
     1
 10
0.0
 20
0.0
 30
0.0
  0
VERTEX
  5
296DF
  8
0
 10
67.79496732345433
 20
205.84852554718421
 30
0.0
  0
VERTEX
  5
296E0
  8
0
 10
67.513997975138295
 20
206.0865343654159
 30
0.0
  0
VERTEX
  5
296E1
  8
0
 10
66.960924659238458
 20
206.56277011745081
 30
0.0
  0
VERTEX
  5
296E2
  8
0
 10
66.424118896154368
 20
207.0327475722124
 30
0.0
  0
VERTEX
  5
296E3
  8
0
 10
66.163488264340685
 20
207.26306973758159
 30
0.0
  0
SEQEND
  5
296E4
  8
0
  0
LINE
  5
26FBE
  8
0
 10
82.794967323454344
 20
190.7436887314197
 30
0.0
 11
80.674913125310226
 21
190.7436887314197
 31
0.0
  0
POLYLINE
  5
26FBF
  8
0
 66
     1
 10
0.0
 20
0.0
 30
0.0
  0
VERTEX
  5
296E5
  8
0
 10
82.688722894578746
 20
190.7436887314197
 30
0.0
  0
VERTEX
  5
296E6
  8
0
 10
82.653526845971655
 20
190.74804170972581
 30
0.0
  0
VERTEX
  5
296E7
  8
0
 10
82.567314920967519
 20
190.78320410380269
 30
0.0
  0
VERTEX
  5
296E8
  8
0
 10
82.460048951934027
 20
190.85410181597311
 30
0.0
  0
VERTEX
  5
296E9
  8
0
 10
82.398642845200015
 20
190.9029958474384
 30
0.0
  0
VERTEX
  5
296EA
  8
0
 10
82.332172760131684
 20
190.96081428588971
 30
0.0
  0
VERTEX
  5
296EB
  8
0
 10
82.184540509244357
 20
191.1029412344887
 30
0.0
  0
VERTEX
  5
296EC
  8
0
 10
82.018414784195556
 20
191.27962900835431
 30
0.0
  0
VERTEX
  5
296ED
  8
0
 10
81.835457844397297
 20
191.4895813346975
 30
0.0
  0
VERTEX
  5
296EE
  8
0
 10
81.637608586782576
 20
191.73119794542711
 30
0.0
  0
VERTEX
  5
296EF
  8
0
 10
81.426978500481937
 20
192.00271595188681
 30
0.0
  0
VERTEX
  5
296F0
  8
0
 10
81.317644421687419
 20
192.1490052585095
 30
0.0
  0
VERTEX
  5
296F1
  8
0
 10
81.206076429065774
 20
192.3019084193001
 30
0.0
  0
VERTEX
  5
296F2
  8
0
 10
80.977644940073773
 20
192.62623435239939
 30
0.0
  0
VERTEX
  5
296F3
  8
0
 10
80.744586377833116
 20
192.97288859687251
 30
0.0
  0
VERTEX
  5
296F4
  8
0
 10
80.509945528813091
 20
193.33875664060719
 30
0.0
  0
VERTEX
  5
296F5
  8
0
 10
80.276849234302617
 20
193.7204075171303
 30
0.0
  0
VERTEX
  5
296F6
  8
0
 10
80.04345775818183
 20
194.12289991024591
 30
0.0
  0
VERTEX
  5
296F7
  8
0
 10
79.925584376516085
 20
194.33487412040631
 30
0.0
  0
VERTEX
  5
296F8
  8
0
 10
79.807504657024651
 20
194.55374328828739
 30
0.0
  0
VERTEX
  5
296F9
  8
0
 10
79.572556350388481
 20
195.01130185110469
 30
0.0
  0
VERTEX
  5
296FA
  8
0
 10
79.342379276414135
 20
195.4937473707632
 30
0.0
  0
VERTEX
  5
296FB
  8
0
 10
79.230295377096795
 20
195.7436887314197
 30
0.0
  0
SEQEND
  5
296FC
  8
0
  0
POLYLINE
  5
26FC0
  8
0
 66
     1
 10
0.0
 20
0.0
 30
0.0
  0
VERTEX
  5
296FD
  8
0
 10
76.61721833474337
 20
195.7436887314197
 30
0.0
  0
VERTEX
  5
296FE
  8
0
 10
76.753121850167872
 20
195.49689219877109
 30
0.0
  0
VERTEX
  5
296FF
  8
0
 10
77.030477445993938
 20
195.0203040209644
 30
0.0
  0
VERTEX
  5
29700
  8
0
 10
77.31148207992976
 20
194.5678459570845
 30
0.0
  0
VERTEX
  5
29701
  8
0
 10
77.452008386242483
 20
194.35119633595599
 30
0.0
  0
VERTEX
  5
29702
  8
0
 10
77.591868633712224
 20
194.14120586004259
 30
0.0
  0
VERTEX
  5
29703
  8
0
 10
77.867672182378101
 20
193.74195812431299
 30
0.0
  0
VERTEX
  5
29704
  8
0
 10
78.141878878849965
 20
193.36255098790201
 30
0.0
  0
VERTEX
  5
29705
  8
0
 10
78.416969016783014
 20
192.99776518222089
 30
0.0
  0
VERTEX
  5
29706
  8
0
 10
78.689400196963902
 20
192.65109875124739
 30
0.0
  0
VERTEX
  5
29707
  8
0
 10
78.955754929367231
 20
192.32576915286239
 30
0.0
  0
VERTEX
  5
29708
  8
0
 10
79.085635656500813
 20
192.1720335136861
 30
0.0
  0
VERTEX
  5
29709
  8
0
 10
79.212797709922597
 20
192.0247167855577
 30
0.0
  0
VERTEX
  5
2970A
  8
0
 10
79.457483837624864
 20
191.75064570373971
 30
0.0
  0
VERTEX
  5
2970B
  8
0
 10
79.687033749865563
 20
191.50597082993221
 30
0.0
  0
VERTEX
  5
2970C
  8
0
 10
79.899115770185176
 20
191.2926593133561
 30
0.0
  0
VERTEX
  5
2970D
  8
0
 10
80.091571074128638
 20
191.1125398053818
 30
0.0
  0
VERTEX
  5
2970E
  8
0
 10
80.262531722857148
 20
190.96715409833629
 30
0.0
  0
VERTEX
  5
2970F
  8
0
 10
80.339485529045078
 20
190.90785010443591
 30
0.0
  0
VERTEX
  5
29710
  8
0
 10
80.3517432297607
 20
190.89884502425409
 30
0.0
  0
VERTEX
  5
29711
  8
0
 10
80.375766573631367
 20
190.88159177279979
 30
0.0
  0
VERTEX
  5
29712
  8
0
 10
80.399130289875544
 20
190.8653499949514
 30
0.0
  0
VERTEX
  5
29713
  8
0
 10
80.410563530254194
 20
190.8576091765762
 30
0.0
  0
VERTEX
  5
29714
  8
0
 10
80.421830395606776
 20
190.850122103925
 30
0.0
  0
VERTEX
  5
29715
  8
0
 10
80.443863237670143
 20
190.8359101545839
 30
0.0
  0
VERTEX
  5
29716
  8
0
 10
80.465225504947057
 20
190.82271582853079
 30
0.0
  0
VERTEX
  5
29717
  8
0
 10
80.485914239714575
 20
190.81054042054711
 30
0.0
  0
VERTEX
  5
29718
  8
0
 10
80.505926848018021
 20
190.799384826455
 30
0.0
  0
VERTEX
  5
29719
  8
0
 10
80.525261109019198
 20
190.78924953242861
 30
0.0
  0
VERTEX
  5
2971A
  8
0
 10
80.534673269355025
 20
190.78456453556279
 30
0.0
  0
VERTEX
  5
2971B
  8
0
 10
80.543915183282593
 20
190.78013460580399
 30
0.0
  0
VERTEX
  5
2971C
  8
0
 10
80.561887619964068
 20
190.77203968744379
 30
0.0
  0
VERTEX
  5
2971D
  8
0
 10
80.579177362870382
 20
190.7649639856881
 30
0.0
  0
VERTEX
  5
2971E
  8
0
 10
80.595783755355924
 20
190.75890627194801
 30
0.0
  0
VERTEX
  5
2971F
  8
0
 10
80.611706544030085
 20
190.75386487797181
 30
0.0
  0
VERTEX
  5
29720
  8
0
 10
80.626945881246002
 20
190.7498376948397
 30
0.0
  0
VERTEX
  5
29721
  8
0
 10
80.634309414446065
 20
190.74820365295631
 30
0.0
  0
VERTEX
  5
29722
  8
0
 10
80.641502326348473
 20
190.74682217371989
 30
0.0
  0
VERTEX
  5
29723
  8
0
 10
80.655376845657202
 20
190.74481532842671
 30
0.0
  0
VERTEX
  5
29724
  8
0
 10
80.668570811167214
 20
190.743813739823
 30
0.0
  0
VERTEX
  5
29725
  8
0
 10
80.674913125310127
 20
190.7436887314197
 30
0.0
  0
SEQEND
  5
29726
  8
0
  0
POLYLINE
  5
26FC1
  8
0
 66
     1
 10
0.0
 20
0.0
 30
0.0
  0
VERTEX
  5
29727
  8
0
 10
79.230295377096795
 20
195.7436887314197
 30
0.0
  0
VERTEX
  5
29728
  8
0
 10
79.112546147294211
 20
196.00911638626619
 30
0.0
  0
VERTEX
  5
29729
  8
0
 10
78.872006870115555
 20
196.53313436018561
 30
0.0
  0
VERTEX
  5
2972A
  8
0
 10
78.624844624105094
 20
197.0478233352278
 30
0.0
  0
VERTEX
  5
2972B
  8
0
 10
78.498817440485936
 20
197.30159080808599
 30
0.0
  0
VERTEX
  5
2972C
  8
0
 10
78.371179976625285
 20
197.5529322427364
 30
0.0
  0
VERTEX
  5
2972D
  8
0
 10
78.111136666953144
 20
198.04821468727911
 30
0.0
  0
VERTEX
  5
2972E
  8
0
 10
77.844841545918371
 20
198.5334290668352
 30
0.0
  0
VERTEX
  5
2972F
  8
0
 10
77.572424514025784
 20
199.00833869065079
 30
0.0
  0
VERTEX
  5
29730
  8
0
 10
77.294018458087749
 20
199.4727118947003
 30
0.0
  0
VERTEX
  5
29731
  8
0
 10
77.009759186402448
 20
199.92632215469339
 30
0.0
  0
VERTEX
  5
29732
  8
0
 10
76.865477817316673
 20
200.14902182446889
 30
0.0
  0
VERTEX
  5
29733
  8
0
 10
76.719785362504581
 20
200.368948196573
 30
0.0
  0
VERTEX
  5
29734
  8
0
 10
76.424238437525105
 20
200.80037410445769
 30
0.0
  0
VERTEX
  5
29735
  8
0
 10
76.123262581190033
 20
201.220389425961
 30
0.0
  0
VERTEX
  5
29736
  8
0
 10
75.817004611493644
 20
201.62878927486051
 30
0.0
  0
VERTEX
  5
29737
  8
0
 10
75.505613923080091
 20
202.02537443103211
 30
0.0
  0
VERTEX
  5
29738
  8
0
 10
75.189242414366845
 20
202.4099514376403
 30
0.0
  0
VERTEX
  5
29739
  8
0
 10
75.029236987068657
 20
202.5976780287765
 30
0.0
  0
VERTEX
  5
2973A
  8
0
 10
74.868044413448388
 20
202.78233269550131
 30
0.0
  0
VERTEX
  5
2973B
  8
0
 10
74.542176602813583
 20
203.1423365545979
 30
0.0
  0
VERTEX
  5
2973C
  8
0
 10
74.211797942915382
 20
203.4897874026901
 30
0.0
  0
VERTEX
  5
2973D
  8
0
 10
74.04496732345433
 20
203.65875224088089
 30
0.0
  0
SEQEND
  5
2973E
  8
0
  0
LINE
  5
26FC2
  8
0
 10
74.04496732345433
 20
203.65875224088089
 30
0.0
 11
72.511717638619075
 21
205.1920019257168
 31
0.0
  0
LINE
  5
26FC3
  8
0
 10
68.511717638619075
 20
205.1920019257168
 30
0.0
 11
73.04496732345433
 21
200.65875224088089
 31
0.0
  0
POLYLINE
  5
26FC4
  8
0
 66
     1
 10
0.0
 20
0.0
 30
0.0
  0
VERTEX
  5
2973F
  8
0
 10
73.04496732345433
 20
200.65875224088089
 30
0.0
  0
VERTEX
  5
29740
  8
0
 10
73.154854518294769
 20
200.54782136332321
 30
0.0
  0
VERTEX
  5
29741
  8
0
 10
73.373033822795705
 20
200.32129301873101
 30
0.0
  0
VERTEX
  5
29742
  8
0
 10
73.589037437884258
 20
200.08859357213259
 30
0.0
  0
VERTEX
  5
29743
  8
0
 10
73.696205158301382
 20
199.96994920662291
 30
0.0
  0
VERTEX
  5
29744
  8
0
 10
73.802807186671203
 20
199.8497856971544
 30
0.0
  0
VERTEX
  5
29745
  8
0
 10
74.014285493921307
 20
199.60493371262331
 30
0.0
  0
VERTEX
  5
29746
  8
0
 10
74.223415401560032
 20
199.3541035652442
 30
0.0
  0
VERTEX
  5
29747
  8
0
 10
74.430140584014225
 20
199.09736281183899
 30
0.0
  0
VERTEX
  5
29748
  8
0
 10
74.634405363382257
 20
198.8347806011497
 30
0.0
  0
VERTEX
  5
29749
  8
0
 10
74.836154724430344
 20
198.5664276552161
 30
0.0
  0
VERTEX
  5
2974A
  8
0
 10
74.93606911567224
 20
198.43010968268931
 30
0.0
  0
VERTEX
  5
2974B
  8
0
 10
75.035334329409579
 20
198.2923762503269
 30
0.0
  0
VERTEX
  5
2974C
  8
0
 10
75.231890532691054
 20
198.01270019755151
 30
0.0
  0
VERTEX
  5
2974D
  8
0
 10
75.425770395214499
 20
197.72747482286559
 30
0.0
  0
VERTEX
  5
2974E
  8
0
 10
75.616921698745955
 20
197.43677694685721
 30
0.0
  0
VERTEX
  5
2974F
  8
0
 10
75.80529295994279
 20
197.14068486404079
 30
0.0
  0
VERTEX
  5
29750
  8
0
 10
75.990833444218993
 20
196.83927832176869
 30
0.0
  0
VERTEX
  5
29751
  8
0
 10
76.082526498558877
 20
196.6866074413656
 30
0.0
  0
VERTEX
  5
29752
  8
0
 10
76.173493179410116
 20
196.5326384987502
 30
0.0
  0
VERTEX
  5
29753
  8
0
 10
76.353222969232547
 20
196.2208479831915
 30
0.0
  0
VERTEX
  5
29754
  8
0
 10
76.529974406533142
 20
195.9039907505493
 30
0.0
  0
VERTEX
  5
29755
  8
0
 10
76.61721833474337
 20
195.7436887314197
 30
0.0
  0
SEQEND
  5
29756
  8
0
  0
POLYLINE
  5
26FC5
  8
0
 66
     1
 10
0.0
 20
0.0
 30
0.0
  0
VERTEX
  5
29757
  8
0
 10
72.511717638619075
 20
205.1920019257168
 30
0.0
  0
VERTEX
  5
29758
  8
0
 10
72.44834241361707
 20
205.2548483033616
 30
0.0
  0
VERTEX
  5
29759
  8
0
 10
72.319225598611979
 20
205.3797345073217
 30
0.0
  0
VERTEX
  5
2975A
  8
0
 10
72.186976460444384
 20
205.50352331832531
 30
0.0
  0
VERTEX
  5
2975B
  8
0
 10
72.119685986787999
 20
205.56499800918479
 30
0.0
  0
VERTEX
  5
2975C
  8
0
 10
72.05162297458719
 20
205.62618855056641
 30
0.0
  0
VERTEX
  5
2975D
  8
0
 10
71.913193773195076
 20
205.7477042559122
 30
0.0
  0
VERTEX
  5
2975E
  8
0
 10
71.771718139047948
 20
205.86804472940091
 30
0.0
  0
VERTEX
  5
2975F
  8
0
 10
71.627225999355915
 20
205.98718451467079
 30
0.0
  0
VERTEX
  5
29760
  8
0
 10
71.479747919429656
 20
206.10509840935259
 30
0.0
  0
VERTEX
  5
29761
  8
0
 10
71.329315096213463
 20
206.22176147039411
 30
0.0
  0
VERTEX
  5
29762
  8
0
 10
71.253000576008048
 20
206.2796162158038
 30
0.0
  0
VERTEX
  5
29763
  8
0
 10
71.175959351687084
 20
206.3371490193413
 30
0.0
  0
VERTEX
  5
29764
  8
0
 10
71.019713126133638
 20
206.45123664755741
 30
0.0
  0
VERTEX
  5
29765
  8
0
 10
70.860609471277485
 20
206.56400022138399
 30
0.0
  0
VERTEX
  5
29766
  8
0
 10
70.698682043292592
 20
206.67541588725089
 30
0.0
  0
VERTEX
  5
29767
  8
0
 10
70.533965095682902
 20
206.78546007671679
 30
0.0
  0
VERTEX
  5
29768
  8
0
 10
70.366493472036723
 20
206.89410951145871
 30
0.0
  0
VERTEX
  5
29769
  8
0
 10
70.281735704861148
 20
206.94790400187321
 30
0.0
  0
VERTEX
  5
2976A
  8
0
 10
70.196302598655848
 20
207.0013412081926
 30
0.0
  0
VERTEX
  5
2976B
  8
0
 10
70.023428477061543
 20
207.10713248353929
 30
0.0
  0
VERTEX
  5
2976C
  8
0
 10
69.84790767637935
 20
207.2114609588198
 30
0.0
  0
VERTEX
  5
2976D
  8
0
 10
69.759166352534976
 20
207.26306973758159
 30
0.0
  0
SEQEND
  5
2976E
  8
0
  0
POLYLINE
  5
26FC6
  8
0
 66
     1
 10
0.0
 20
0.0
 30
0.0
  0
VERTEX
  5
2976F
  8
0
 10
66.163488264340799
 20
207.26306973758159
 30
0.0
  0
VERTEX
  5
29770
  8
0
 10
66.424118896154013
 20
207.0327475722124
 30
0.0
  0
VERTEX
  5
29771
  8
0
 10
66.960924659240618
 20
206.56277011744899
 30
0.0
  0
VERTEX
  5
29772
  8
0
 10
67.513997975139887
 20
206.08653436541499
 30
0.0
  0
VERTEX
  5
29773
  8
0
 10
67.79496732345433
 20
205.84852554718421
 30
0.0
  0
SEQEND
  5
29774
  8
0
  0
POLYLINE
  5
26FC7
  8
0
 66
     1
 10
0.0
 20
0.0
 30
0.0
  0
VERTEX
  5
29775
  8
0
 10
67.79496732345433
 20
205.84852554718421
 30
0.0
  0
VERTEX
  5
29776
  8
0
 10
67.920522688194637
 20
205.74136636510141
 30
0.0
  0
VERTEX
  5
29777
  8
0
 10
68.164377652256803
 20
205.52427956679821
 30
0.0
  0
VERTEX
  5
29778
  8
0
 10
68.398422891097653
 20
205.3036228925539
 30
0.0
  0
VERTEX
  5
29779
  8
0
 10
68.511717638619075
 20
205.1920019257168
 30
0.0
  0
SEQEND
  5
2977A
  8
0
  0
LINE
  5
26FC8
  8
0
 10
69.759166352534976
 20
207.26306973758159
 30
0.0
 11
68.79496732345433
 21
207.81975030657401
 31
0.0
  0
POLYLINE
  5
26FC9
  8
0
 66
     1
 10
0.0
 20
0.0
 30
0.0
  0
VERTEX
  5
2977B
  8
0
 10
68.79496732345433
 20
207.81975030657401
 30
0.0
  0
VERTEX
  5
2977C
  8
0
 10
68.641695125089427
 20
207.91053223592829
 30
0.0
  0
VERTEX
  5
2977D
  8
0
 10
68.34140377439553
 20
208.10222019022061
 30
0.0
  0
VERTEX
  5
2977E
  8
0
 10
68.049944338957403
 20
208.3070873779707
 30
0.0
  0
VERTEX
  5
2977F
  8
0
 10
67.90770792918488
 20
208.4143372228373
 30
0.0
  0
VERTEX
  5
29780
  8
0
 10
67.767894815475074
 20
208.52472752460201
 30
0.0
  0
VERTEX
  5
29781
  8
0
 10
67.495814539739285
 20
208.7547090253311
 30
0.0
  0
VERTEX
  5
29782
  8
0
 10
67.234243077405949
 20
208.99657580108851
 30
0.0
  0
VERTEX
  5
29783
  8
0
 10
66.983699153977454
 20
209.2498482029705
 30
0.0
  0
VERTEX
  5
29784
  8
0
 10
66.744679626111292
 20
209.5140239634429
 30
0.0
  0
VERTEX
  5
29785
  8
0
 10
66.517658496298282
 20
209.7885791923872
 30
0.0
  0
VERTEX
  5
29786
  8
0
 10
66.408788974965887
 20
209.92957973427929
 30
0.0
  0
VERTEX
  5
29787
  8
0
 10
66.30308597286205
 20
210.07296941603909
 30
0.0
  0
VERTEX
  5
29788
  8
0
 10
66.101387577145715
 20
210.36663065673559
 30
0.0
  0
VERTEX
  5
29789
  8
0
 10
65.912963299655416
 20
210.66898055135249
 30
0.0
  0
VERTEX
  5
2978A
  8
0
 10
65.738186806834392
 20
210.9794195061877
 30
0.0
  0
VERTEX
  5
2978B
  8
0
 10
65.577404700040461
 20
211.29733188603041
 30
0.0
  0
VERTEX
  5
2978C
  8
0
 10
65.430935828196766
 20
211.62208723502951
 30
0.0
  0
VERTEX
  5
2978D
  8
0
 10
65.363160750355846
 20
211.7868302601091
 30
0.0
  0
VERTEX
  5
2978E
  8
0
 10
65.299070655478772
 20
211.9530415269582
 30
0.0
  0
VERTEX
  5
2978F
  8
0
 10
65.18207068529091
 20
212.2895384423955
 30
0.0
  0
VERTEX
  5
29790
  8
0
 10
65.080167941676677
 20
212.6309106702729
 30
0.0
  0
VERTEX
  5
29791
  8
0
 10
65.034942362136235
 20
212.8032138114059
 30
0.0
  0
SEQEND
  5
29792
  8
0
  0
POLYLINE
  5
26FCA
  8
0
 66
     1
 10
0.0
 20
0.0
 30
0.0
  0
VERTEX
  5
29793
  8
0
 10
62.985890537116013
 20
212.8032138114059
 30
0.0
  0
VERTEX
  5
29794
  8
0
 10
63.022604285343157
 20
212.62641620478101
 30
0.0
  0
VERTEX
  5
29795
  8
0
 10
63.105577695077159
 20
212.274953611759
 30
0.0
  0
VERTEX
  5
29796
  8
0
 10
63.201187090246769
 20
211.92671607131891
 30
0.0
  0
VERTEX
  5
29797
  8
0
 10
63.253691957789322
 20
211.75394879460961
 30
0.0
  0
VERTEX
  5
29798
  8
0
 10
63.30930778612241
 20
211.58215772192031
 30
0.0
  0
VERTEX
  5
29799
  8
0
 10
63.429798781919651
 20
211.24172790397191
 30
0.0
  0
VERTEX
  5
2979A
  8
0
 10
63.562502944679068
 20
210.90587057383979
 30
0.0
  0
VERTEX
  5
2979B
  8
0
 10
63.707247214184008
 20
210.57502372488671
 30
0.0
  0
VERTEX
  5
2979C
  8
0
 10
63.863842828649581
 20
210.24961881627769
 30
0.0
  0
VERTEX
  5
2979D
  8
0
 10
64.032085570887602
 20
209.9300802103144
 30
0.0
  0
VERTEX
  5
2979E
  8
0
 10
64.120506636095342
 20
209.77264130710321
 30
0.0
  0
VERTEX
  5
2979F
  8
0
 10
64.211756034627911
 20
209.6168246190218
 30
0.0
  0
VERTEX
  5
297A0
  8
0
 10
64.402619910646536
 20
209.3102605607119
 30
0.0
  0
VERTEX
  5
297A1
  8
0
 10
64.604428292330226
 20
209.01078782723019
 30
0.0
  0
VERTEX
  5
297A2
  8
0
 10
64.816918000276587
 20
208.71879696258929
 30
0.0
  0
VERTEX
  5
297A3
  8
0
 10
65.039811925507806
 20
208.4346687536563
 30
0.0
  0
VERTEX
  5
297A4
  8
0
 10
65.272819390850259
 20
208.158773733564
 30
0.0
  0
VERTEX
  5
297A5
  8
0
 10
65.393021247325464
 20
208.02402653798339
 30
0.0
  0
VERTEX
  5
297A6
  8
0
 10
65.515636530007669
 20
207.8914716985027
 30
0.0
  0
VERTEX
  5
297A7
  8
0
 10
65.767946683835234
 20
207.63311123850141
 30
0.0
  0
VERTEX
  5
297A8
  8
0
 10
66.029420813296269
 20
207.38402928283361
 30
0.0
  0
VERTEX
  5
297A9
  8
0
 10
66.163488264340799
 20
207.26306973758159
 30
0.0
  0
SEQEND
  5
297AA
  8
0
  0
POLYLINE
  5
26FCB
  8
0
 66
     1
 10
0.0
 20
0.0
 30
0.0
  0
VERTEX
  5
297AB
  8
0
 10
65.034942362136235
 20
212.8032138114059
 30
0.0
  0
VERTEX
  5
297AC
  8
0
 10
65.01874170758208
 20
212.8696588227476
 30
0.0
  0
VERTEX
  5
297AD
  8
0
 10
64.988780558245139
 20
213.0031843877841
 30
0.0
  0
VERTEX
  5
297AE
  8
0
 10
64.961930160328393
 20
213.13713337221819
 30
0.0
  0
VERTEX
  5
297AF
  8
0
 10
64.949588142795506
 20
213.2042533009317
 30
0.0
  0
VERTEX
  5
297B0
  8
0
 10
64.937818423668887
 20
213.27210780005231
 30
0.0
  0
VERTEX
  5
297B1
  8
0
 10
64.915923387054363
 20
213.41020985698739
 30
0.0
  0
VERTEX
  5
297B2
  8
0
 10
64.896165167993445
 20
213.5514498668617
 30
0.0
  0
VERTEX
  5
297B3
  8
0
 10
64.878471839728149
 20
213.69575872436511
 30
0.0
  0
VERTEX
  5
297B4
  8
0
 10
64.862766006179186
 20
213.84306139832461
 30
0.0
  0
VERTEX
  5
297B5
  8
0
 10
64.848965229248833
 20
213.9932776610967
 30
0.0
  0
VERTEX
  5
297B6
  8
0
 10
64.842752216007057
 20
214.06945207686479
 30
0.0
  0
VERTEX
  5
297B7
  8
0
 10
64.836982518899731
 20
214.14632282291859
 30
0.0
  0
VERTEX
  5
297B8
  8
0
 10
64.826726870487505
 20
214.302108470918
 30
0.0
  0
VERTEX
  5
297B9
  8
0
 10
64.818103835696206
 20
214.4605432135622
 30
0.0
  0
VERTEX
  5
297BA
  8
0
 10
64.811016114459107
 20
214.62153344949459
 30
0.0
  0
VERTEX
  5
297BB
  8
0
 10
64.805364138080222
 20
214.78498484175091
 30
0.0
  0
VERTEX
  5
297BC
  8
0
 10
64.801046835827492
 20
214.95079715113931
 30
0.0
  0
VERTEX
  5
297BD
  8
0
 10
64.799356794272285
 20
215.0345557103519
 30
0.0
  0
VERTEX
  5
297BE
  8
0
 10
64.797962047442283
 20
215.1188645024003
 30
0.0
  0
VERTEX
  5
297BF
  8
0
 10
64.79600695059446
 20
215.28907744047501
 30
0.0
  0
VERTEX
  5
297C0
  8
0
 10
64.795078577214426
 20
215.46132351251799
 30
0.0
  0
VERTEX
  5
297C1
  8
0
 10
64.79496732345433
 20
215.54817315835771
 30
0.0
  0
SEQEND
  5
297C2
  8
0
  0
POLYLINE
  5
26FCC
  8
0
 66
     1
 10
0.0
 20
0.0
 30
0.0
  0
VERTEX
  5
297C3
  8
0
 10
62.79496732345433
 20
215.54817315835771
 30
0.0
  0
VERTEX
  5
297C4
  8
0
 10
62.79505524538547
 20
215.4618460791034
 30
0.0
  0
VERTEX
  5
297C5
  8
0
 10
62.795789345464982
 20
215.29053360376381
 30
0.0
  0
VERTEX
  5
297C6
  8
0
 10
62.797336604519039
 20
215.12109669757501
 30
0.0
  0
VERTEX
  5
297C7
  8
0
 10
62.798441166129237
 20
215.03711371822919
 30
0.0
  0
VERTEX
  5
297C8
  8
0
 10
62.799780283547761
 20
214.95363795671261
 30
0.0
  0
VERTEX
  5
297C9
  8
0
 10
62.803204083641162
 20
214.78825793566651
 30
0.0
  0
VERTEX
  5
297CA
  8
0
 10
62.807691770820611
 20
214.6250546634883
 30
0.0
  0
VERTEX
  5
297CB
  8
0
 10
62.813326804887311
 20
214.46412317331121
 30
0.0
  0
VERTEX
  5
297CC
  8
0
 10
62.820191977545853
 20
214.30555504232419
 30
0.0
  0
VERTEX
  5
297CD
  8
0
 10
62.828369103331852
 20
214.14943728061101
 30
0.0
  0
VERTEX
  5
297CE
  8
0
 10
62.832974916427361
 20
214.072322473301
 30
0.0
  0
VERTEX
  5
297CF
  8
0
 10
62.837938823613293
 20
213.99585047878011
 30
0.0
  0
VERTEX
  5
297D0
  8
0
 10
62.848979917521092
 20
213.8448748990977
 30
0.0
  0
VERTEX
  5
297D1
  8
0
 10
62.861568871454089
 20
213.69658920147231
 30
0.0
  0
VERTEX
  5
297D2
  8
0
 10
62.875779455279492
 20
213.55106955875181
 30
0.0
  0
VERTEX
  5
297D3
  8
0
 10
62.891682300946513
 20
213.40838904400789
 30
0.0
  0
VERTEX
  5
297D4
  8
0
 10
62.909344503559169
 20
213.2686170308325
 30
0.0
  0
VERTEX
  5
297D5
  8
0
 10
62.918855272510307
 20
213.19984223544731
 30
0.0
  0
VERTEX
  5
297D6
  8
0
 10
62.928829253479527
 20
213.13181860711481
 30
0.0
  0
VERTEX
  5
297D7
  8
0
 10
62.950195508964157
 20
212.99805400334839
 30
0.0
  0
VERTEX
  5
297D8
  8
0
 10
62.973497719797813
 20
212.86737803727561
 30
0.0
  0
VERTEX
  5
297D9
  8
0
 10
62.985890537116013
 20
212.8032138114059
 30
0.0
  0
SEQEND
  5
297DA
  8
0
  0
LINE
  5
26FCD
  8
0
 10
62.79496732345433
 20
295.74368873141981
 30
0.0
 11
62.79496732345433
 21
215.54817315835771
 31
0.0
  0
POLYLINE
  5
26FCE
  8
0
 66
     1
 10
0.0
 20
0.0
 30
0.0
  0
VERTEX
  5
297DB
  8
0
 10
147.7949673234543
 20
215.54817315835771
 30
0.0
  0
VERTEX
  5
297DC
  8
0
 10
147.79476758394671
 20
215.41884779915469
 30
0.0
  0
VERTEX
  5
297DD
  8
0
 10
147.7930656337326
 20
215.16327444767921
 30
0.0
  0
VERTEX
  5
297DE
  8
0
 10
147.7893935735645
 20
214.91209419539251
 30
0.0
  0
VERTEX
  5
297DF
  8
0
 10
147.7867305632675
 20
214.78825793567009
 30
0.0
  0
SEQEND
  5
297E0
  8
0
  0
POLYLINE
  5
26FCF
  8
0
 66
     1
 10
0.0
 20
0.0
 30
0.0
  0
VERTEX
  5
297E1
  8
0
 10
147.7867305632675
 20
214.78825793567009
 30
0.0
  0
VERTEX
  5
297E2
  8
0
 10
147.78517684803381
 20
214.72679644634539
 30
0.0
  0
VERTEX
  5
297E3
  8
0
 10
147.78160294811349
 20
214.60481207600969
 30
0.0
  0
VERTEX
  5
297E4
  8
0
 10
147.77737780498271
 20
214.48411220569511
 30
0.0
  0
VERTEX
  5
297E5
  8
0
 10
147.7750100886893
 20
214.4242560808288
 30
0.0
  0
VERTEX
  5
297E6
  8
0
 10
147.77246648287201
 20
214.3647354799441
 30
0.0
  0
VERTEX
  5
297E7
  8
0
 10
147.766834354216
 20
214.2467193244465
 30
0.0
  0
VERTEX
  5
297E8
  8
0
 10
147.7604471215385
 20
214.13009886697549
 30
0.0
  0
VERTEX
  5
297E9
  8
0
 10
147.7532709088585
 20
214.01490766380451
 30
0.0
  0
VERTEX
  5
297EA
  8
0
 10
147.7452724760991
 20
213.90117969798209
 30
0.0
  0
VERTEX
  5
297EB
  8
0
 10
147.7364192874835
 20
213.7889483899435
 30
0.0
  0
VERTEX
  5
297EC
  8
0
 10
147.73166221055669
 20
213.73340423542601
 30
0.0
  0
VERTEX
  5
297ED
  8
0
 10
147.72667961571381
 20
213.6782464466624
 30
0.0
  0
VERTEX
  5
297EE
  8
0
 10
147.7160226440929
 20
213.5691057147115
 30
0.0
  0
VERTEX
  5
297EF
  8
0
 10
147.70441856553921
 20
213.46155703562911
 30
0.0
  0
VERTEX
  5
297F0
  8
0
 10
147.6918386774386
 20
213.3556301036005
 30
0.0
  0
VERTEX
  5
297F1
  8
0
 10
147.67825547119219
 20
213.25135332550241
 30
0.0
  0
VERTEX
  5
297F2
  8
0
 10
147.66364271522261
 20
213.1487536834484
 30
0.0
  0
VERTEX
  5
297F3
  8
0
 10
147.65594242658321
 20
213.0980907975345
 30
0.0
  0
VERTEX
  5
297F4
  8
0
 10
147.64797553010681
 20
213.04785659999831
 30
0.0
  0
VERTEX
  5
297F5
  8
0
 10
147.63123045440591
 20
212.9486858063164
 30
0.0
  0
VERTEX
  5
297F6
  8
0
 10
147.6133854996674
 20
212.8512632136044
 30
0.0
  0
VERTEX
  5
297F7
  8
0
 10
147.60404410979251
 20
212.8032138114049
 30
0.0
  0
SEQEND
  5
297F8
  8
0
  0
POLYLINE
  5
26FD0
  8
0
 66
     1
 10
0.0
 20
0.0
 30
0.0
  0
VERTEX
  5
297F9
  8
0
 10
147.60404410979251
 20
212.8032138114049
 30
0.0
  0
VERTEX
  5
297FA
  8
0
 10
147.5673303615653
 20
212.62641620478101
 30
0.0
  0
VERTEX
  5
297FB
  8
0
 10
147.48435695183139
 20
212.274953611759
 30
0.0
  0
VERTEX
  5
297FC
  8
0
 10
147.38874755666191
 20
211.926716071318
 30
0.0
  0
VERTEX
  5
297FD
  8
0
 10
147.3362426891193
 20
211.75394879460961
 30
0.0
  0
VERTEX
  5
297FE
  8
0
 10
147.28062686078621
 20
211.58215772192031
 30
0.0
  0
VERTEX
  5
297FF
  8
0
 10
147.160135864989
 20
211.24172790397191
 30
0.0
  0
VERTEX
  5
29800
  8
0
 10
147.02743170222959
 20
210.90587057383979
 30
0.0
  0
VERTEX
  5
29801
  8
0
 10
146.88268743272451
 20
210.57502372488671
 30
0.0
  0
VERTEX
  5
29802
  8
0
 10
146.72609181825911
 20
210.24961881627769
 30
0.0
  0
VERTEX
  5
29803
  8
0
 10
146.55784907602089
 20
209.9300802103144
 30
0.0
  0
VERTEX
  5
29804
  8
0
 10
146.4694280108132
 20
209.77264130710321
 30
0.0
  0
VERTEX
  5
29805
  8
0
 10
146.37817861228069
 20
209.6168246190218
 30
0.0
  0
VERTEX
  5
29806
  8
0
 10
146.1873147362621
 20
209.3102605607119
 30
0.0
  0
VERTEX
  5
29807
  8
0
 10
145.9855063545784
 20
209.01078782723019
 30
0.0
  0
VERTEX
  5
29808
  8
0
 10
145.77301664663199
 20
208.71879696258929
 30
0.0
  0
VERTEX
  5
29809
  8
0
 10
145.55012272140081
 20
208.4346687536563
 30
0.0
  0
VERTEX
  5
2980A
  8
0
 10
145.3171152560584
 20
208.158773733564
 30
0.0
  0
VERTEX
  5
2980B
  8
0
 10
145.1969133995832
 20
208.02402653798339
 30
0.0
  0
VERTEX
  5
2980C
  8
0
 10
145.07429811690099
 20
207.8914716985027
 30
0.0
  0
VERTEX
  5
2980D
  8
0
 10
144.82198796307341
 20
207.63311123850141
 30
0.0
  0
VERTEX
  5
2980E
  8
0
 10
144.56051383361239
 20
207.38402928283361
 30
0.0
  0
VERTEX
  5
2980F
  8
0
 10
144.4264463825678
 20
207.26306973758159
 30
0.0
  0
SEQEND
  5
29810
  8
0
  0
POLYLINE
  5
26FD1
  8
0
 66
     1
 10
0.0
 20
0.0
 30
0.0
  0
VERTEX
  5
29811
  8
0
 10
133.97271631216529
 20
195.7436887314197
 30
0.0
  0
VERTEX
  5
29812
  8
0
 10
133.93055212763699
 20
195.66607092646521
 30
0.0
  0
VERTEX
  5
29813
  8
0
 10
133.84551376265699
 20
195.51240742246861
 30
0.0
  0
VERTEX
  5
29814
  8
0
 10
133.7596460501704
 20
195.36088493802609
 30
0.0
  0
VERTEX
  5
29815
  8
0
 10
133.7164446947229
 20
195.28594330027681
 30
0.0
  0
VERTEX
  5
29816
  8
0
 10
133.67308793270411
 20
195.2115569143798
 30
0.0
  0
VERTEX
  5
29817
  8
0
 10
133.58597604735289
 20
195.06447613930499
 30
0.0
  0
VERTEX
  5
29818
  8
0
 10
133.4984440523391
 20
194.91969380846331
 30
0.0
  0
VERTEX
  5
29819
  8
0
 10
133.4106231331416
 20
194.77726055030871
 30
0.0
  0
VERTEX
  5
2981A
  8
0
 10
133.32264226391311
 20
194.63722691138531
 30
0.0
  0
VERTEX
  5
2981B
  8
0
 10
133.234627985868
 20
194.49964301109409
 30
0.0
  0
VERTEX
  5
2981C
  8
0
 10
133.1906471554864
 20
194.4317851950172
 30
0.0
  0
VERTEX
  5
2981D
  8
0
 10
133.14670423647311
 20
194.36455828323599
 30
0.0
  0
VERTEX
  5
2981E
  8
0
 10
133.0589921731584
 20
194.2320212091945
 30
0.0
  0
VERTEX
  5
2981F
  8
0
 10
132.97160999086449
 20
194.10207904253551
 30
0.0
  0
VERTEX
  5
29820
  8
0
 10
132.88467273271871
 20
193.97477752479509
 30
0.0
  0
VERTEX
  5
29821
  8
0
 10
132.79829209308249
 20
193.85016059224651
 30
0.0
  0
VERTEX
  5
29822
  8
0
 10
132.7125762121704
 20
193.72827007341041
 30
0.0
  0
VERTEX
  5
29823
  8
0
 10
132.6699995375007
 20
193.6683585324981
 30
0.0
  0
VERTEX
  5
29824
  8
0
 10
132.62745276863291
 20
193.608899286698
 30
0.0
  0
VERTEX
  5
29825
  8
0
 10
132.5421050045928
 20
193.4908344186733
 30
0.0
  0
VERTEX
  5
29826
  8
0
 10
132.4565103906908
 20
193.37400664202229
 30
0.0
  0
VERTEX
  5
29827
  8
0
 10
132.41365511958321
 20
193.31609322976959
 30
0.0
  0
SEQEND
  5
29828
  8
0
  0
POLYLINE
  5
26FD2
  8
0
 66
     1
 10
0.0
 20
0.0
 30
0.0
  0
VERTEX
  5
29829
  8
0
 10
129.9568381472844
 20
190.74845791626919
 30
0.0
  0
VERTEX
  5
2982A
  8
0
 10
129.94941808255561
 20
190.74699840402349
 30
0.0
  0
VERTEX
  5
2982B
  8
0
 10
129.93511935666319
 20
190.7448785153037
 30
0.0
  0
VERTEX
  5
2982C
  8
0
 10
129.92154110384919
 20
190.74382073064129
 30
0.0
  0
VERTEX
  5
2982D
  8
0
 10
129.9150215215997
 20
190.7436887314197
 30
0.0
  0
SEQEND
  5
2982E
  8
0
  0
LINE
  5
26FD3
  8
0
 10
129.91502152159839
 20
190.7436887314197
 30
0.0
 11
127.7949673234542
 21
190.7436887314197
 31
0.0
  0
POLYLINE
  5
26FD4
  8
0
 66
     1
 10
0.0
 20
0.0
 30
0.0
  0
VERTEX
  5
2982F
  8
0
 10
129.91502152159839
 20
190.7436887314197
 30
0.0
  0
VERTEX
  5
29830
  8
0
 10
129.9213638357414
 20
190.743813739823
 30
0.0
  0
VERTEX
  5
29831
  8
0
 10
129.93455780125129
 20
190.74481532842671
 30
0.0
  0
VERTEX
  5
29832
  8
0
 10
129.9484323205601
 20
190.74682217371989
 30
0.0
  0
VERTEX
  5
29833
  8
0
 10
129.95562523246261
 20
190.74820365295631
 30
0.0
  0
VERTEX
  5
29834
  8
0
 10
129.96298876566249
 20
190.7498376948397
 30
0.0
  0
VERTEX
  5
29835
  8
0
 10
129.9782281028784
 20
190.75386487797181
 30
0.0
  0
VERTEX
  5
29836
  8
0
 10
129.99415089155261
 20
190.75890627194801
 30
0.0
  0
VERTEX
  5
29837
  8
0
 10
130.01075728403831
 20
190.7649639856881
 30
0.0
  0
VERTEX
  5
29838
  8
0
 10
130.02804702694451
 20
190.77203968744379
 30
0.0
  0
VERTEX
  5
29839
  8
0
 10
130.04601946362601
 20
190.78013460580399
 30
0.0
  0
VERTEX
  5
2983A
  8
0
 10
130.05526137755351
 20
190.78456453556279
 30
0.0
  0
VERTEX
  5
2983B
  8
0
 10
130.06467353788929
 20
190.78924953242861
 30
0.0
  0
VERTEX
  5
2983C
  8
0
 10
130.08400779889061
 20
190.799384826455
 30
0.0
  0
VERTEX
  5
2983D
  8
0
 10
130.10402040719401
 20
190.81054042054711
 30
0.0
  0
VERTEX
  5
2983E
  8
0
 10
130.12470914196149
 20
190.82271582853079
 30
0.0
  0
VERTEX
  5
2983F
  8
0
 10
130.14607140923849
 20
190.8359101545839
 30
0.0
  0
VERTEX
  5
29840
  8
0
 10
130.16810425130191
 20
190.850122103925
 30
0.0
  0
VERTEX
  5
29841
  8
0
 10
130.17937111665429
 20
190.8576091765762
 30
0.0
  0
VERTEX
  5
29842
  8
0
 10
130.1908043570331
 20
190.8653499949514
 30
0.0
  0
VERTEX
  5
29843
  8
0
 10
130.21416807327711
 20
190.88159177279979
 30
0.0
  0
VERTEX
  5
29844
  8
0
 10
130.2381914171479
 20
190.89884502425409
 30
0.0
  0
VERTEX
  5
29845
  8
0
 10
130.25044911786361
 20
190.90785010443591
 30
0.0
  0
VERTEX
  5
29846
  8
0
 10
130.32740292405151
 20
190.96715409833629
 30
0.0
  0
VERTEX
  5
29847
  8
0
 10
130.49836357277999
 20
191.1125398053818
 30
0.0
  0
VERTEX
  5
29848
  8
0
 10
130.69081887672351
 20
191.2926593133561
 30
0.0
  0
VERTEX
  5
29849
  8
0
 10
130.90290089704311
 20
191.50597082993221
 30
0.0
  0
VERTEX
  5
2984A
  8
0
 10
131.1324508092838
 20
191.75064570373971
 30
0.0
  0
VERTEX
  5
2984B
  8
0
 10
131.37713693698601
 20
192.0247167855577
 30
0.0
  0
VERTEX
  5
2984C
  8
0
 10
131.50429899040779
 20
192.1720335136861
 30
0.0
  0
VERTEX
  5
2984D
  8
0
 10
131.63417971754129
 20
192.32576915286239
 30
0.0
  0
VERTEX
  5
2984E
  8
0
 10
131.90053444994459
 20
192.65109875124739
 30
0.0
  0
VERTEX
  5
2984F
  8
0
 10
132.1729656301255
 20
192.99776518222089
 30
0.0
  0
VERTEX
  5
29850
  8
0
 10
132.44805576805871
 20
193.36255098790201
 30
0.0
  0
VERTEX
  5
29851
  8
0
 10
132.7222624645305
 20
193.74195812431299
 30
0.0
  0
VERTEX
  5
29852
  8
0
 10
132.99806601319639
 20
194.14120586004259
 30
0.0
  0
VERTEX
  5
29853
  8
0
 10
133.13792626066621
 20
194.35119633595599
 30
0.0
  0
VERTEX
  5
29854
  8
0
 10
133.2784525669789
 20
194.5678459570845
 30
0.0
  0
VERTEX
  5
29855
  8
0
 10
133.55945720091469
 20
195.0203040209644
 30
0.0
  0
VERTEX
  5
29856
  8
0
 10
133.83681279674079
 20
195.49689219877109
 30
0.0
  0
VERTEX
  5
29857
  8
0
 10
133.97271631216529
 20
195.7436887314197
 30
0.0
  0
SEQEND
  5
29858
  8
0
  0
POLYLINE
  5
26FD5
  8
0
 66
     1
 10
0.0
 20
0.0
 30
0.0
  0
VERTEX
  5
29859
  8
0
 10
131.35963926981179
 20
195.7436887314197
 30
0.0
  0
VERTEX
  5
2985A
  8
0
 10
131.2475553704945
 20
195.4937473707632
 30
0.0
  0
VERTEX
  5
2985B
  8
0
 10
131.01737829652001
 20
195.01130185110469
 30
0.0
  0
VERTEX
  5
2985C
  8
0
 10
130.78242998988389
 20
194.55374328828739
 30
0.0
  0
VERTEX
  5
2985D
  8
0
 10
130.66435027039239
 20
194.33487412040631
 30
0.0
  0
VERTEX
  5
2985E
  8
0
 10
130.54647688872669
 20
194.12289991024591
 30
0.0
  0
VERTEX
  5
2985F
  8
0
 10
130.313085412606
 20
193.7204075171303
 30
0.0
  0
VERTEX
  5
29860
  8
0
 10
130.07998911809551
 20
193.33875664060719
 30
0.0
  0
VERTEX
  5
29861
  8
0
 10
129.8453482690754
 20
192.97288859687251
 30
0.0
  0
VERTEX
  5
29862
  8
0
 10
129.6122897068347
 20
192.62623435239939
 30
0.0
  0
VERTEX
  5
29863
  8
0
 10
129.38385821784291
 20
192.3019084193001
 30
0.0
  0
VERTEX
  5
29864
  8
0
 10
129.2722902252211
 20
192.1490052585095
 30
0.0
  0
VERTEX
  5
29865
  8
0
 10
129.16295614642661
 20
192.00271595188681
 30
0.0
  0
VERTEX
  5
29866
  8
0
 10
128.95232606012601
 20
191.73119794542711
 30
0.0
  0
VERTEX
  5
29867
  8
0
 10
128.75447680251119
 20
191.4895813346975
 30
0.0
  0
VERTEX
  5
29868
  8
0
 10
128.5715198627131
 20
191.27962900835431
 30
0.0
  0
VERTEX
  5
29869
  8
0
 10
128.40539413766419
 20
191.1029412344887
 30
0.0
  0
VERTEX
  5
2986A
  8
0
 10
128.2577618867769
 20
190.96081428588971
 30
0.0
  0
VERTEX
  5
2986B
  8
0
 10
128.1912918017085
 20
190.9029958474384
 30
0.0
  0
VERTEX
  5
2986C
  8
0
 10
128.12988569497449
 20
190.85410181597311
 30
0.0
  0
VERTEX
  5
2986D
  8
0
 10
128.02261972594101
 20
190.78320410380269
 30
0.0
  0
VERTEX
  5
2986E
  8
0
 10
127.93640780093681
 20
190.74804170972581
 30
0.0
  0
VERTEX
  5
2986F
  8
0
 10
127.9012117523298
 20
190.7436887314197
 30
0.0
  0
SEQEND
  5
29870
  8
0
  0
POLYLINE
  5
26FD6
  8
0
 66
     1
 10
0.0
 20
0.0
 30
0.0
  0
VERTEX
  5
29871
  8
0
 10
136.5449673234543
 20
203.65875224088089
 30
0.0
  0
VERTEX
  5
29872
  8
0
 10
136.37813670399311
 20
203.4897874026901
 30
0.0
  0
VERTEX
  5
29873
  8
0
 10
136.04775804409491
 20
203.1423365545979
 30
0.0
  0
VERTEX
  5
29874
  8
0
 10
135.7218902334603
 20
202.78233269550131
 30
0.0
  0
VERTEX
  5
29875
  8
0
 10
135.56069765984
 20
202.5976780287765
 30
0.0
  0
VERTEX
  5
29876
  8
0
 10
135.40069223254179
 20
202.4099514376403
 30
0.0
  0
VERTEX
  5
29877
  8
0
 10
135.0843207238284
 20
202.02537443103211
 30
0.0
  0
VERTEX
  5
29878
  8
0
 10
134.7729300354149
 20
201.62878927486051
 30
0.0
  0
VERTEX
  5
29879
  8
0
 10
134.4666720657186
 20
201.220389425961
 30
0.0
  0
VERTEX
  5
2987A
  8
0
 10
134.1656962093835
 20
200.80037410445769
 30
0.0
  0
VERTEX
  5
2987B
  8
0
 10
133.87014928440391
 20
200.368948196573
 30
0.0
  0
VERTEX
  5
2987C
  8
0
 10
133.72445682959199
 20
200.14902182446889
 30
0.0
  0
VERTEX
  5
2987D
  8
0
 10
133.58017546050621
 20
199.92632215469339
 30
0.0
  0
VERTEX
  5
2987E
  8
0
 10
133.2959161888208
 20
199.4727118947003
 30
0.0
  0
VERTEX
  5
2987F
  8
0
 10
133.01751013288279
 20
199.00833869065079
 30
0.0
  0
VERTEX
  5
29880
  8
0
 10
132.7450931009902
 20
198.5334290668352
 30
0.0
  0
VERTEX
  5
29881
  8
0
 10
132.47879797995549
 20
198.04821468727911
 30
0.0
  0
VERTEX
  5
29882
  8
0
 10
132.2187546702832
 20
197.5529322427364
 30
0.0
  0
VERTEX
  5
29883
  8
0
 10
132.09111720642269
 20
197.30159080808701
 30
0.0
  0
VERTEX
  5
29884
  8
0
 10
131.96509002280351
 20
197.0478233352278
 30
0.0
  0
VERTEX
  5
29885
  8
0
 10
131.717927776793
 20
196.53313436018561
 30
0.0
  0
VERTEX
  5
29886
  8
0
 10
131.47738849961431
 20
196.00911638626619
 30
0.0
  0
VERTEX
  5
29887
  8
0
 10
131.35963926981179
 20
195.7436887314197
 30
0.0
  0
SEQEND
  5
29888
  8
0
  0
POLYLINE
  5
26FD7
  8
0
 66
     1
 10
0.0
 20
0.0
 30
0.0
  0
VERTEX
  5
29889
  8
0
 10
133.97271631216529
 20
195.7436887314197
 30
0.0
  0
VERTEX
  5
2988A
  8
0
 10
134.05996024037549
 20
195.9039907505493
 30
0.0
  0
VERTEX
  5
2988B
  8
0
 10
134.23671167767611
 20
196.2208479831915
 30
0.0
  0
VERTEX
  5
2988C
  8
0
 10
134.4164414674984
 20
196.5326384987502
 30
0.0
  0
VERTEX
  5
2988D
  8
0
 10
134.50740814834961
 20
196.6866074413656
 30
0.0
  0
VERTEX
  5
2988E
  8
0
 10
134.59910120268961
 20
196.83927832176869
 30
0.0
  0
VERTEX
  5
2988F
  8
0
 10
134.78464168696581
 20
197.14068486404079
 30
0.0
  0
VERTEX
  5
29890
  8
0
 10
134.97301294816259
 20
197.43677694685721
 30
0.0
  0
VERTEX
  5
29891
  8
0
 10
135.1641642516941
 20
197.72747482286559
 30
0.0
  0
VERTEX
  5
29892
  8
0
 10
135.35804411421751
 20
198.01270019755151
 30
0.0
  0
VERTEX
  5
29893
  8
0
 10
135.55460031749891
 20
198.2923762503269
 30
0.0
  0
VERTEX
  5
29894
  8
0
 10
135.65386553123639
 20
198.43010968268931
 30
0.0
  0
VERTEX
  5
29895
  8
0
 10
135.75377992247829
 20
198.5664276552161
 30
0.0
  0
VERTEX
  5
29896
  8
0
 10
135.9555292835264
 20
198.8347806011497
 30
0.0
  0
VERTEX
  5
29897
  8
0
 10
136.15979406289441
 20
199.09736281183899
 30
0.0
  0
VERTEX
  5
29898
  8
0
 10
136.36651924534851
 20
199.3541035652442
 30
0.0
  0
VERTEX
  5
29899
  8
0
 10
136.57564915298721
 20
199.60493371262331
 30
0.0
  0
VERTEX
  5
2989A
  8
0
 10
136.7871274602374
 20
199.8497856971544
 30
0.0
  0
VERTEX
  5
2989B
  8
0
 10
136.89372948860711
 20
199.96994920662291
 30
0.0
  0
VERTEX
  5
2989C
  8
0
 10
137.0008972090244
 20
200.08859357213259
 30
0.0
  0
VERTEX
  5
2989D
  8
0
 10
137.2169008241128
 20
200.32129301873101
 30
0.0
  0
VERTEX
  5
2989E
  8
0
 10
137.43508012861389
 20
200.54782136332321
 30
0.0
  0
VERTEX
  5
2989F
  8
0
 10
137.5449673234543
 20
200.65875224088089
 30
0.0
  0
SEQEND
  5
298A0
  8
0
  0
LINE
  5
26FD8
  8
0
 10
137.5449673234543
 20
200.65875224088089
 30
0.0
 11
142.07821700828941
 21
205.1920019257168
 31
0.0
  0
LINE
  5
26FD9
  8
0
 10
138.0782170082895
 20
205.1920019257168
 30
0.0
 11
136.5449673234543
 21
203.65875224088089
 31
0.0
  0
POLYLINE
  5
26FDA
  8
0
 66
     1
 10
0.0
 20
0.0
 30
0.0
  0
VERTEX
  5
298A1
  8
0
 10
142.07821700828961
 20
205.1920019257168
 30
0.0
  0
VERTEX
  5
298A2
  8
0
 10
142.19151175581089
 20
205.3036228925539
 30
0.0
  0
VERTEX
  5
298A3
  8
0
 10
142.42555699465171
 20
205.52427956679821
 30
0.0
  0
VERTEX
  5
298A4
  8
0
 10
142.66941195871399
 20
205.74136636510141
 30
0.0
  0
VERTEX
  5
298A5
  8
0
 10
142.7949673234543
 20
205.84852554718421
 30
0.0
  0
SEQEND
  5
298A6
  8
0
  0
POLYLINE
  5
26FDB
  8
0
 66
     1
 10
0.0
 20
0.0
 30
0.0
  0
VERTEX
  5
298A7
  8
0
 10
142.7949673234543
 20
205.84852554718421
 30
0.0
  0
VERTEX
  5
298A8
  8
0
 10
143.07593667177019
 20
206.0865343654159
 30
0.0
  0
VERTEX
  5
298A9
  8
0
 10
143.62900998767009
 20
206.56277011745081
 30
0.0
  0
VERTEX
  5
298AA
  8
0
 10
144.16581575075421
 20
207.0327475722124
 30
0.0
  0
VERTEX
  5
298AB
  8
0
 10
144.4264463825678
 20
207.26306973758159
 30
0.0
  0
SEQEND
  5
298AC
  8
0
  0
POLYLINE
  5
26FDC
  8
0
 66
     1
 10
0.0
 20
0.0
 30
0.0
  0
VERTEX
  5
298AD
  8
0
 10
140.83076829437371
 20
207.26306973758159
 30
0.0
  0
VERTEX
  5
298AE
  8
0
 10
140.7420269705292
 20
207.2114609588198
 30
0.0
  0
VERTEX
  5
298AF
  8
0
 10
140.566506169847
 20
207.10713248353929
 30
0.0
  0
VERTEX
  5
298B0
  8
0
 10
140.3936320482527
 20
207.0013412081926
 30
0.0
  0
VERTEX
  5
298B1
  8
0
 10
140.30819894204751
 20
206.94790400187321
 30
0.0
  0
VERTEX
  5
298B2
  8
0
 10
140.22344117487179
 20
206.89410951145871
 30
0.0
  0
VERTEX
  5
298B3
  8
0
 10
140.05596955122559
 20
206.78546007671679
 30
0.0
  0
VERTEX
  5
298B4
  8
0
 10
139.8912526036159
 20
206.67541588725089
 30
0.0
  0
VERTEX
  5
298B5
  8
0
 10
139.729325175631
 20
206.56400022138399
 30
0.0
  0
VERTEX
  5
298B6
  8
0
 10
139.57022152077491
 20
206.45123664755741
 30
0.0
  0
VERTEX
  5
298B7
  8
0
 10
139.41397529522141
 20
206.3371490193413
 30
0.0
  0
VERTEX
  5
298B8
  8
0
 10
139.3369340709005
 20
206.2796162158038
 30
0.0
  0
VERTEX
  5
298B9
  8
0
 10
139.2606195506952
 20
206.22176147039411
 30
0.0
  0
VERTEX
  5
298BA
  8
0
 10
139.110186727479
 20
206.10509840935259
 30
0.0
  0
VERTEX
  5
298BB
  8
0
 10
138.9627086475526
 20
205.98718451467079
 30
0.0
  0
VERTEX
  5
298BC
  8
0
 10
138.81821650786071
 20
205.86804472940091
 30
0.0
  0
VERTEX
  5
298BD
  8
0
 10
138.67674087371341
 20
205.7477042559122
 30
0.0
  0
VERTEX
  5
298BE
  8
0
 10
138.5383116723213
 20
205.62618855056641
 30
0.0
  0
VERTEX
  5
298BF
  8
0
 10
138.47024866012049
 20
205.56499800918479
 30
0.0
  0
VERTEX
  5
298C0
  8
0
 10
138.4029581864641
 20
205.50352331832531
 30
0.0
  0
VERTEX
  5
298C1
  8
0
 10
138.27070904829651
 20
205.3797345073217
 30
0.0
  0
VERTEX
  5
298C2
  8
0
 10
138.14159223329139
 20
205.2548483033616
 30
0.0
  0
VERTEX
  5
298C3
  8
0
 10
138.0782170082895
 20
205.1920019257168
 30
0.0
  0
SEQEND
  5
298C4
  8
0
  0
LINE
  5
26FDD
  8
0
 10
141.7949673234543
 20
207.81975030657401
 30
0.0
 11
140.83076829437351
 21
207.26306973758159
 31
0.0
  0
POLYLINE
  5
26FDE
  8
0
 66
     1
 10
0.0
 20
0.0
 30
0.0
  0
VERTEX
  5
298C5
  8
0
 10
144.4264463825678
 20
207.26306973758159
 30
0.0
  0
VERTEX
  5
298C6
  8
0
 10
144.56051383361239
 20
207.38402928283361
 30
0.0
  0
VERTEX
  5
298C7
  8
0
 10
144.82198796307341
 20
207.63311123850141
 30
0.0
  0
VERTEX
  5
298C8
  8
0
 10
145.07429811690099
 20
207.8914716985027
 30
0.0
  0
VERTEX
  5
298C9
  8
0
 10
145.1969133995832
 20
208.02402653798339
 30
0.0
  0
VERTEX
  5
298CA
  8
0
 10
145.3171152560584
 20
208.158773733564
 30
0.0
  0
VERTEX
  5
298CB
  8
0
 10
145.5501227214007
 20
208.4346687536563
 30
0.0
  0
VERTEX
  5
298CC
  8
0
 10
145.77301664663199
 20
208.71879696258929
 30
0.0
  0
VERTEX
  5
298CD
  8
0
 10
145.9855063545784
 20
209.01078782723019
 30
0.0
  0
VERTEX
  5
298CE
  8
0
 10
146.18731473626201
 20
209.3102605607119
 30
0.0
  0
VERTEX
  5
298CF
  8
0
 10
146.37817861228069
 20
209.6168246190218
 30
0.0
  0
VERTEX
  5
298D0
  8
0
 10
146.4694280108132
 20
209.77264130710321
 30
0.0
  0
VERTEX
  5
298D1
  8
0
 10
146.55784907602089
 20
209.9300802103144
 30
0.0
  0
VERTEX
  5
298D2
  8
0
 10
146.72609181825911
 20
210.24961881627769
 30
0.0
  0
VERTEX
  5
298D3
  8
0
 10
146.88268743272451
 20
210.57502372488671
 30
0.0
  0
VERTEX
  5
298D4
  8
0
 10
147.02743170222939
 20
210.90587057383979
 30
0.0
  0
VERTEX
  5
298D5
  8
0
 10
147.160135864989
 20
211.24172790397191
 30
0.0
  0
VERTEX
  5
298D6
  8
0
 10
147.28062686078621
 20
211.58215772192031
 30
0.0
  0
VERTEX
  5
298D7
  8
0
 10
147.3362426891193
 20
211.75394879460961
 30
0.0
  0
VERTEX
  5
298D8
  8
0
 10
147.38874755666191
 20
211.92671607131891
 30
0.0
  0
VERTEX
  5
298D9
  8
0
 10
147.48435695183139
 20
212.274953611759
 30
0.0
  0
VERTEX
  5
298DA
  8
0
 10
147.5673303615653
 20
212.62641620478101
 30
0.0
  0
VERTEX
  5
298DB
  8
0
 10
147.60404410979251
 20
212.8032138114059
 30
0.0
  0
SEQEND
  5
298DC
  8
0
  0
POLYLINE
  5
26FDF
  8
0
 66
     1
 10
0.0
 20
0.0
 30
0.0
  0
VERTEX
  5
298DD
  8
0
 10
145.5549922847724
 20
212.8032138114059
 30
0.0
  0
VERTEX
  5
298DE
  8
0
 10
145.50976670523201
 20
212.6309106702729
 30
0.0
  0
VERTEX
  5
298DF
  8
0
 10
145.40786396161761
 20
212.2895384423955
 30
0.0
  0
VERTEX
  5
298E0
  8
0
 10
145.29086399142989
 20
211.9530415269582
 30
0.0
  0
VERTEX
  5
298E1
  8
0
 10
145.22677389655269
 20
211.7868302601091
 30
0.0
  0
VERTEX
  5
298E2
  8
0
 10
145.15899881871189
 20
211.62208723502951
 30
0.0
  0
VERTEX
  5
298E3
  8
0
 10
145.0125299468682
 20
211.29733188603041
 30
0.0
  0
VERTEX
  5
298E4
  8
0
 10
144.85174784007421
 20
210.9794195061877
 30
0.0
  0
VERTEX
  5
298E5
  8
0
 10
144.67697134725319
 20
210.66898055135249
 30
0.0
  0
VERTEX
  5
298E6
  8
0
 10
144.48854706976289
 20
210.36663065673559
 30
0.0
  0
VERTEX
  5
298E7
  8
0
 10
144.28684867404661
 20
210.07296941603909
 30
0.0
  0
VERTEX
  5
298E8
  8
0
 10
144.1811456719428
 20
209.92957973427929
 30
0.0
  0
VERTEX
  5
298E9
  8
0
 10
144.07227615061021
 20
209.7885791923872
 30
0.0
  0
VERTEX
  5
298EA
  8
0
 10
143.8452550207972
 20
209.5140239634429
 30
0.0
  0
VERTEX
  5
298EB
  8
0
 10
143.60623549293121
 20
209.2498482029705
 30
0.0
  0
VERTEX
  5
298EC
  8
0
 10
143.35569156950271
 20
208.99657580108851
 30
0.0
  0
VERTEX
  5
298ED
  8
0
 10
143.0941201071694
 20
208.7547090253311
 30
0.0
  0
VERTEX
  5
298EE
  8
0
 10
142.8220398314335
 20
208.52472752460201
 30
0.0
  0
VERTEX
  5
298EF
  8
0
 10
142.68222671772361
 20
208.4143372228373
 30
0.0
  0
VERTEX
  5
298F0
  8
0
 10
142.53999030795109
 20
208.3070873779707
 30
0.0
  0
VERTEX
  5
298F1
  8
0
 10
142.2485308725131
 20
208.10222019022061
 30
0.0
  0
VERTEX
  5
298F2
  8
0
 10
141.94823952181909
 20
207.91053223592829
 30
0.0
  0
VERTEX
  5
298F3
  8
0
 10
141.7949673234543
 20
207.81975030657401
 30
0.0
  0
SEQEND
  5
298F4
  8
0
  0
POLYLINE
  5
26FE0
  8
0
 66
     1
 10
0.0
 20
0.0
 30
0.0
  0
VERTEX
  5
298F5
  8
0
 10
145.7949673234543
 20
215.54817315835771
 30
0.0
  0
VERTEX
  5
298F6
  8
0
 10
145.79485606969411
 20
215.46132351251799
 30
0.0
  0
VERTEX
  5
298F7
  8
0
 10
145.7939276963142
 20
215.28907744047501
 30
0.0
  0
VERTEX
  5
298F8
  8
0
 10
145.79197259946619
 20
215.1188645024003
 30
0.0
  0
VERTEX
  5
298F9
  8
0
 10
145.7905778526362
 20
215.0345557103519
 30
0.0
  0
VERTEX
  5
298FA
  8
0
 10
145.78888781108111
 20
214.95079715113931
 30
0.0
  0
VERTEX
  5
298FB
  8
0
 10
145.7845705088283
 20
214.78498484175091
 30
0.0
  0
VERTEX
  5
298FC
  8
0
 10
145.77891853244941
 20
214.62153344949459
 30
0.0
  0
VERTEX
  5
298FD
  8
0
 10
145.7718308112124
 20
214.4605432135622
 30
0.0
  0
VERTEX
  5
298FE
  8
0
 10
145.76320777642101
 20
214.302108470918
 30
0.0
  0
VERTEX
  5
298FF
  8
0
 10
145.7529521280089
 20
214.14632282291859
 30
0.0
  0
VERTEX
  5
29900
  8
0
 10
145.7471824309016
 20
214.06945207686479
 30
0.0
  0
VERTEX
  5
29901
  8
0
 10
145.7409694176597
 20
213.9932776610967
 30
0.0
  0
VERTEX
  5
29902
  8
0
 10
145.7271686407293
 20
213.84306139832461
 30
0.0
  0
VERTEX
  5
29903
  8
0
 10
145.71146280718051
 20
213.6957587243642
 30
0.0
  0
VERTEX
  5
29904
  8
0
 10
145.69376947891519
 20
213.5514498668617
 30
0.0
  0
VERTEX
  5
29905
  8
0
 10
145.6740112598541
 20
213.41020985698739
 30
0.0
  0
VERTEX
  5
29906
  8
0
 10
145.6521162232396
 20
213.27210780005231
 30
0.0
  0
VERTEX
  5
29907
  8
0
 10
145.64034650411301
 20
213.2042533009317
 30
0.0
  0
VERTEX
  5
29908
  8
0
 10
145.6280044865801
 20
213.13713337221819
 30
0.0
  0
VERTEX
  5
29909
  8
0
 10
145.60115408866341
 20
213.0031843877841
 30
0.0
  0
VERTEX
  5
2990A
  8
0
 10
145.57119293932641
 20
212.8696588227476
 30
0.0
  0
VERTEX
  5
2990B
  8
0
 10
145.5549922847724
 20
212.8032138114059
 30
0.0
  0
SEQEND
  5
2990C
  8
0
  0
POLYLINE
  5
26FE1
  8
0
 66
     1
 10
0.0
 20
0.0
 30
0.0
  0
VERTEX
  5
2990D
  8
0
 10
147.60404410979251
 20
212.8032138114059
 30
0.0
  0
VERTEX
  5
2990E
  8
0
 10
147.6164369271107
 20
212.86737803727561
 30
0.0
  0
VERTEX
  5
2990F
  8
0
 10
147.63973913794439
 20
212.99805400334839
 30
0.0
  0
VERTEX
  5
29910
  8
0
 10
147.66110539342901
 20
213.13181860711481
 30
0.0
  0
VERTEX
  5
29911
  8
0
 10
147.6710793743982
 20
213.19984223544731
 30
0.0
  0
VERTEX
  5
29912
  8
0
 10
147.68059014334929
 20
213.2686170308325
 30
0.0
  0
VERTEX
  5
29913
  8
0
 10
147.698252345962
 20
213.40838904400789
 30
0.0
  0
VERTEX
  5
29914
  8
0
 10
147.714155191629
 20
213.55106955875181
 30
0.0
  0
VERTEX
  5
29915
  8
0
 10
147.72836577545439
 20
213.69658920147231
 30
0.0
  0
VERTEX
  5
29916
  8
0
 10
147.7409547293874
 20
213.8448748990977
 30
0.0
  0
VERTEX
  5
29917
  8
0
 10
147.7519958232952
 20
213.99585047878011
 30
0.0
  0
VERTEX
  5
29918
  8
0
 10
147.7569597304813
 20
214.072322473301
 30
0.0
  0
VERTEX
  5
29919
  8
0
 10
147.76156554357669
 20
214.14943728061101
 30
0.0
  0
VERTEX
  5
2991A
  8
0
 10
147.76974266936281
 20
214.30555504232419
 30
0.0
  0
VERTEX
  5
2991B
  8
0
 10
147.77660784202121
 20
214.46412317331121
 30
0.0
  0
VERTEX
  5
2991C
  8
0
 10
147.78224287608799
 20
214.6250546634883
 30
0.0
  0
VERTEX
  5
2991D
  8
0
 10
147.7867305632675
 20
214.78825793566651
 30
0.0
  0
VERTEX
  5
2991E
  8
0
 10
147.7901543633609
 20
214.95363795671261
 30
0.0
  0
VERTEX
  5
2991F
  8
0
 10
147.79149348077931
 20
215.03711371822919
 30
0.0
  0
VERTEX
  5
29920
  8
0
 10
147.79259804238961
 20
215.12109669757501
 30
0.0
  0
VERTEX
  5
29921
  8
0
 10
147.79414530144371
 20
215.29053360376381
 30
0.0
  0
VERTEX
  5
29922
  8
0
 10
147.79487940152299
 20
215.4618460791034
 30
0.0
  0
VERTEX
  5
29923
  8
0
 10
147.7949673234543
 20
215.54817315835771
 30
0.0
  0
SEQEND
  5
29924
  8
0
  0
LINE
  5
26FE2
  8
0
 10
147.7949673234543
 20
215.54817315835771
 30
0.0
 11
147.7949673234543
 21
295.74368873141981
 31
0.0
  0
LINE
  5
26FE3
  8
0
 10
98.288866843365554
 20
286.74368873141981
 30
0.0
 11
112.30106780354311
 21
286.74368873141981
 31
0.0
  0
POLYLINE
  5
26FE4
  8
0
 66
     1
 10
0.0
 20
0.0
 30
0.0
  0
VERTEX
  5
29925
  8
0
 10
98.288866843365554
 20
286.74368873141981
 30
0.0
  0
VERTEX
  5
29926
  8
0
 10
98.178589984991035
 20
286.74542644644129
 30
0.0
  0
VERTEX
  5
29927
  8
0
 10
97.958474170372597
 20
286.75931781522382
 30
0.0
  0
VERTEX
  5
29928
  8
0
 10
97.739670323265514
 20
286.78704539108088
 30
0.0
  0
VERTEX
  5
29929
  8
0
 10
97.631032202965116
 20
286.80606548477323
 30
0.0
  0
VERTEX
  5
2992A
  8
0
 10
97.523047299313816
 20
286.82849906963747
 30
0.0
  0
VERTEX
  5
2992B
  8
0
 10
97.309465294257066
 20
286.88351424106901
 30
0.0
  0
VERTEX
  5
2992C
  8
0
 10
97.099772428148995
 20
286.95187244376029
 30
0.0
  0
VERTEX
  5
2992D
  8
0
 10
96.894801377529234
 20
287.03330223179728
 30
0.0
  0
VERTEX
  5
2992E
  8
0
 10
96.695366068919839
 20
287.12748025286152
 30
0.0
  0
VERTEX
  5
2992F
  8
0
 10
96.502258446775954
 20
287.23403253224478
 30
0.0
  0
VERTEX
  5
29930
  8
0
 10
96.408318214151691
 20
287.29181867107491
 30
0.0
  0
VERTEX
  5
29931
  8
0
 10
96.316245328727632
 20
287.3525359578735
 30
0.0
  0
VERTEX
  5
29932
  8
0
 10
96.138065360596912
 20
287.4825199604611
 30
0.0
  0
VERTEX
  5
29933
  8
0
 10
95.968426083284143
 20
287.6234683821076
 30
0.0
  0
VERTEX
  5
29934
  8
0
 10
95.808001123170015
 20
287.77482152592711
 30
0.0
  0
VERTEX
  5
29935
  8
0
 10
95.657427517189134
 20
287.93597837856942
 30
0.0
  0
VERTEX
  5
29936
  8
0
 10
95.517303183198806
 20
288.10629899680413
 30
0.0
  0
VERTEX
  5
29937
  8
0
 10
95.451335058269805
 20
288.19468571322523
 30
0.0
  0
VERTEX
  5
29938
  8
0
 10
95.388184545686599
 20
288.28510704868859
 30
0.0
  0
VERTEX
  5
29939
  8
0
 10
95.318153596163256
 20
288.39305024622172
 30
0.0
  0
VERTEX
  5
2993A
  8
0
 10
95.298878191539416
 20
288.42435702391049
 30
0.0
  0
VERTEX
  5
2993B
  8
0
 10
95.279932699957499
 20
288.45586454525619
 30
0.0
  0
VERTEX
  5
2993C
  8
0
 10
95.270584326245171
 20
288.4716924992444
 30
0.0
  0
VERTEX
  5
2993D
  8
0
 10
95.261319211848317
 20
288.48756933374352
 30
0.0
  0
VERTEX
  5
2993E
  8
0
 10
95.243039781010111
 20
288.51946789109121
 30
0.0
  0
VERTEX
  5
2993F
  8
0
 10
95.225096424380794
 20
288.55155669763741
 30
0.0
  0
VERTEX
  5
29940
  8
0
 10
95.207491121816815
 20
288.58383221272652
 30
0.0
  0
VERTEX
  5
29941
  8
0
 10
95.190225815873532
 20
288.61629087510391
 30
0.0
  0
VERTEX
  5
29942
  8
0
 10
95.173302411591521
 20
288.64892910330491
 30
0.0
  0
VERTEX
  5
29943
  8
0
 10
95.164969507588808
 20
288.66531442995438
 30
0.0
  0
VERTEX
  5
29944
  8
0
 10
95.156722776286074
 20
288.68174329605432
 30
0.0
  0
VERTEX
  5
29945
  8
0
 10
95.140488739341549
 20
288.71472983265812
 30
0.0
  0
VERTEX
  5
29946
  8
0
 10
95.124602092008899
 20
288.74788507340782
 30
0.0
  0
VERTEX
  5
29947
  8
0
 10
95.116789588737205
 20
288.7645248153276
 30
0.0
  0
SEQEND
  5
29948
  8
0
  0
LINE
  5
26FE5
  8
0
 10
95.116789588737205
 20
288.7645248153276
 30
0.0
 11
93.845219855148457
 21
291.49141490891913
 31
0.0
  0
POLYLINE
  5
26FE6
  8
0
 66
     1
 10
0.0
 20
0.0
 30
0.0
  0
VERTEX
  5
29949
  8
0
 10
93.845219855148457
 20
291.49141490891913
 30
0.0
  0
VERTEX
  5
2994A
  8
0
 10
93.730294730198239
 20
291.73787263471519
 30
0.0
  0
VERTEX
  5
2994B
  8
0
 10
93.508894447615475
 20
292.2126670729167
 30
0.0
  0
VERTEX
  5
2994C
  8
0
 10
93.299165548720453
 20
292.66243214802762
 30
0.0
  0
VERTEX
  5
2994D
  8
0
 10
93.198823612798037
 20
292.87761612403119
 30
0.0
  0
SEQEND
  5
2994E
  8
0
  0
POLYLINE
  5
26FE7
  8
0
 66
     1
 10
0.0
 20
0.0
 30
0.0
  0
VERTEX
  5
2994F
  8
0
 10
93.198823612798037
 20
292.87761612403119
 30
0.0
  0
VERTEX
  5
29950
  8
0
 10
93.192037298257773
 20
292.89197057921228
 30
0.0
  0
VERTEX
  5
29951
  8
0
 10
93.178048136013103
 20
292.92038604029312
 30
0.0
  0
VERTEX
  5
29952
  8
0
 10
93.163532145710974
 20
292.94836826550909
 30
0.0
  0
VERTEX
  5
29953
  8
0
 10
93.156088062786026
 20
292.96218180525278
 30
0.0
  0
VERTEX
  5
29954
  8
0
 10
93.148526403312758
 20
292.97586930183212
 30
0.0
  0
VERTEX
  5
29955
  8
0
 10
93.133070731059874
 20
293.00284454142462
 30
0.0
  0
VERTEX
  5
29956
  8
0
 10
93.117207166238245
 20
293.02925321505973
 30
0.0
  0
VERTEX
  5
29957
  8
0
 10
93.100979431242649
 20
293.05505873716169
 30
0.0
  0
VERTEX
  5
29958
  8
0
 10
93.084432410840904
 20
293.0802289296916
 30
0.0
  0
VERTEX
  5
29959
  8
0
 10
93.067611375805882
 20
293.10473652590548
 30
0.0
  0
VERTEX
  5
2995A
  8
0
 10
93.059111627983839
 20
293.11673551123198
 30
0.0
  0
VERTEX
  5
2995B
  8
0
 10
93.050559848275938
 20
293.12856138225561
 30
0.0
  0
VERTEX
  5
2995C
  8
0
 10
93.033323440306276
 20
293.15168428056307
 30
0.0
  0
VERTEX
  5
2995D
  8
0
 10
93.015949271806107
 20
293.17408769551002
 30
0.0
  0
VERTEX
  5
2995E
  8
0
 10
92.998485185589971
 20
293.19575663002342
 30
0.0
  0
VERTEX
  5
2995F
  8
0
 10
92.980979376741516
 20
293.21667876755419
 30
0.0
  0
VERTEX
  5
29960
  8
0
 10
92.96348005889331
 20
293.236844528532
 30
0.0
  0
VERTEX
  5
29961
  8
0
 10
92.954747832163775
 20
293.246641519072
 30
0.0
  0
VERTEX
  5
29962
  8
0
 10
92.946035167506466
 20
293.256247050902
 30
0.0
  0
VERTEX
  5
29963
  8
0
 10
92.928692098881356
 20
293.27488211195117
 30
0.0
  0
VERTEX
  5
29964
  8
0
 10
92.911497482623076
 20
293.29274800601343
 30
0.0
  0
VERTEX
  5
29965
  8
0
 10
92.902970157159189
 20
293.30139263322422
 30
0.0
  0
VERTEX
  5
29966
  8
0
 10
92.894496984499938
 20
293.30984539040583
 30
0.0
  0
VERTEX
  5
29967
  8
0
 10
92.877715465983329
 20
293.32619597803301
 30
0.0
  0
VERTEX
  5
29968
  8
0
 10
92.860991970336954
 20
293.34199290844208
 30
0.0
  0
VERTEX
  5
29969
  8
0
 10
92.852636490152236
 20
293.3497062133319
 30
0.0
  0
VERTEX
  5
2996A
  8
0
 10
92.844286198370014
 20
293.35729872569482
 30
0.0
  0
VERTEX
  5
2996B
  8
0
 10
92.827604055973325
 20
293.37212902885949
 30
0.0
  0
VERTEX
  5
2996C
  8
0
 10
92.810951069643238
 20
293.38649866666128
 30
0.0
  0
VERTEX
  5
2996D
  8
0
 10
92.794332444547081
 20
293.40042176917359
 30
0.0
  0
VERTEX
  5
2996E
  8
0
 10
92.777753115443829
 20
293.41391178165031
 30
0.0
  0
VERTEX
  5
2996F
  8
0
 10
92.761217790905434
 20
293.42698149986342
 30
0.0
  0
VERTEX
  5
29970
  8
0
 10
92.752968049397509
 20
293.43336257861392
 30
0.0
  0
VERTEX
  5
29971
  8
0
 10
92.744730991304664
 20
293.43964310634152
 30
0.0
  0
VERTEX
  5
29972
  8
0
 10
92.728297081047785
 20
293.4519082070201
 30
0.0
  0
VERTEX
  5
29973
  8
0
 10
92.711920295535492
 20
293.4637878678223
 30
0.0
  0
VERTEX
  5
29974
  8
0
 10
92.655110243565218
 20
293.50247969602702
 30
0.0
  0
VERTEX
  5
29975
  8
0
 10
92.559943065071934
 20
293.55927332809642
 30
0.0
  0
VERTEX
  5
29976
  8
0
 10
92.468213543702404
 20
293.60550577154117
 30
0.0
  0
VERTEX
  5
29977
  8
0
 10
92.380577652760167
 20
293.64264746700343
 30
0.0
  0
VERTEX
  5
29978
  8
0
 10
92.338487956772155
 20
293.65821098703782
 30
0.0
  0
VERTEX
  5
29979
  8
0
 10
92.297641889485362
 20
293.67196723395051
 30
0.0
  0
VERTEX
  5
2997A
  8
0
 10
92.219927840712216
 20
293.69460898743358
 30
0.0
  0
VERTEX
  5
2997B
  8
0
 10
92.147889926715038
 20
293.7116160036739
 30
0.0
  0
VERTEX
  5
2997C
  8
0
 10
92.081919849479391
 20
293.72394737665309
 30
0.0
  0
VERTEX
  5
2997D
  8
0
 10
92.022356679580867
 20
293.7324845275071
 30
0.0
  0
VERTEX
  5
2997E
  8
0
 10
91.969476670069866
 20
293.73803479408429
 30
0.0
  0
VERTEX
  5
2997F
  8
0
 10
91.945609278221127
 20
293.73992116706359
 30
0.0
  0
VERTEX
  5
29980
  8
0
 10
91.923483996313507
 20
293.74132803323391
 30
0.0
  0
VERTEX
  5
29981
  8
0
 10
91.884515286281825
 20
293.74300896893419
 30
0.0
  0
VERTEX
  5
29982
  8
0
 10
91.85263843357427
 20
293.74362997510713
 30
0.0
  0
VERTEX
  5
29983
  8
0
 10
91.839361932243037
 20
293.74368873141981
 30
0.0
  0
SEQEND
  5
29984
  8
0
  0
POLYLINE
  5
26FE8
  8
0
 66
     1
 10
0.0
 20
0.0
 30
0.0
  0
VERTEX
  5
29985
  8
0
 10
115.4731450581713
 20
288.7645248153276
 30
0.0
  0
VERTEX
  5
29986
  8
0
 10
115.4653325548997
 20
288.74788507340782
 30
0.0
  0
VERTEX
  5
29987
  8
0
 10
115.4494459075671
 20
288.71472983265812
 30
0.0
  0
VERTEX
  5
29988
  8
0
 10
115.4332118706224
 20
288.68174329605432
 30
0.0
  0
VERTEX
  5
29989
  8
0
 10
115.4249651393198
 20
288.66531442995438
 30
0.0
  0
VERTEX
  5
2998A
  8
0
 10
115.4166322353171
 20
288.64892910330491
 30
0.0
  0
VERTEX
  5
2998B
  8
0
 10
115.3997088310351
 20
288.61629087510391
 30
0.0
  0
VERTEX
  5
2998C
  8
0
 10
115.3824435250918
 20
288.58383221272652
 30
0.0
  0
VERTEX
  5
2998D
  8
0
 10
115.36483822252769
 20
288.55155669763741
 30
0.0
  0
VERTEX
  5
2998E
  8
0
 10
115.34689486589851
 20
288.51946789109121
 30
0.0
  0
VERTEX
  5
2998F
  8
0
 10
115.3286154350602
 20
288.48756933374352
 30
0.0
  0
VERTEX
  5
29990
  8
0
 10
115.3193503206635
 20
288.4716924992444
 30
0.0
  0
VERTEX
  5
29991
  8
0
 10
115.3100019469511
 20
288.45586454525619
 30
0.0
  0
VERTEX
  5
29992
  8
0
 10
115.2910564553692
 20
288.42435702391049
 30
0.0
  0
VERTEX
  5
29993
  8
0
 10
115.2717810507454
 20
288.39305024622172
 30
0.0
  0
VERTEX
  5
29994
  8
0
 10
115.201750101222
 20
288.28510704868859
 30
0.0
  0
VERTEX
  5
29995
  8
0
 10
115.1385995886388
 20
288.19468571322523
 30
0.0
  0
VERTEX
  5
29996
  8
0
 10
115.0726314637097
 20
288.10629899680413
 30
0.0
  0
VERTEX
  5
29997
  8
0
 10
114.9325071297195
 20
287.93597837856942
 30
0.0
  0
VERTEX
  5
29998
  8
0
 10
114.7819335237386
 20
287.77482152592711
 30
0.0
  0
VERTEX
  5
29999
  8
0
 10
114.6215085636245
 20
287.6234683821076
 30
0.0
  0
VERTEX
  5
2999A
  8
0
 10
114.45186928631171
 20
287.4825199604611
 30
0.0
  0
VERTEX
  5
2999B
  8
0
 10
114.273689318181
 20
287.3525359578735
 30
0.0
  0
VERTEX
  5
2999C
  8
0
 10
114.181616432757
 20
287.29181867107491
 30
0.0
  0
VERTEX
  5
2999D
  8
0
 10
114.08767620013271
 20
287.23403253224478
 30
0.0
  0
VERTEX
  5
2999E
  8
0
 10
113.89456857798881
 20
287.12748025286152
 30
0.0
  0
VERTEX
  5
2999F
  8
0
 10
113.6951332693793
 20
287.03330223179728
 30
0.0
  0
VERTEX
  5
299A0
  8
0
 10
113.49016221875959
 20
286.95187244376029
 30
0.0
  0
VERTEX
  5
299A1
  8
0
 10
113.28046935265159
 20
286.88351424106901
 30
0.0
  0
VERTEX
  5
299A2
  8
0
 10
113.0668873475947
 20
286.82849906963747
 30
0.0
  0
VERTEX
  5
299A3
  8
0
 10
112.9589024439434
 20
286.80606548477323
 30
0.0
  0
VERTEX
  5
299A4
  8
0
 10
112.8502643236431
 20
286.78704539108088
 30
0.0
  0
VERTEX
  5
299A5
  8
0
 10
112.63146047653591
 20
286.75931781522382
 30
0.0
  0
VERTEX
  5
299A6
  8
0
 10
112.4113446619176
 20
286.74542644644129
 30
0.0
  0
VERTEX
  5
299A7
  8
0
 10
112.30106780354311
 20
286.74368873141981
 30
0.0
  0
SEQEND
  5
299A8
  8
0
  0
LINE
  5
26FE9
  8
0
 10
116.7447147917601
 20
291.49141490891913
 30
0.0
 11
115.4731450581713
 21
288.7645248153276
 31
0.0
  0
POLYLINE
  5
26FEA
  8
0
 66
     1
 10
0.0
 20
0.0
 30
0.0
  0
VERTEX
  5
299A9
  8
0
 10
117.39111103411059
 20
292.87761612403119
 30
0.0
  0
VERTEX
  5
299AA
  8
0
 10
117.29076909818809
 20
292.66243214802762
 30
0.0
  0
VERTEX
  5
299AB
  8
0
 10
117.0810401992931
 20
292.2126670729167
 30
0.0
  0
VERTEX
  5
299AC
  8
0
 10
116.85963991671041
 20
291.73787263471519
 30
0.0
  0
VERTEX
  5
299AD
  8
0
 10
116.7447147917601
 20
291.49141490891913
 30
0.0
  0
SEQEND
  5
299AE
  8
0
  0
POLYLINE
  5
26FEB
  8
0
 66
     1
 10
0.0
 20
0.0
 30
0.0
  0
VERTEX
  5
299AF
  8
0
 10
118.75057271466549
 20
293.74368873141981
 30
0.0
  0
VERTEX
  5
299B0
  8
0
 10
118.7372962133344
 20
293.74362997510713
 30
0.0
  0
VERTEX
  5
299B1
  8
0
 10
118.70541936062671
 20
293.74300896893419
 30
0.0
  0
VERTEX
  5
299B2
  8
0
 10
118.6664506505951
 20
293.74132803323391
 30
0.0
  0
VERTEX
  5
299B3
  8
0
 10
118.6443253686875
 20
293.73992116706359
 30
0.0
  0
VERTEX
  5
299B4
  8
0
 10
118.62045797683869
 20
293.73803479408429
 30
0.0
  0
VERTEX
  5
299B5
  8
0
 10
118.56757796732779
 20
293.7324845275071
 30
0.0
  0
VERTEX
  5
299B6
  8
0
 10
118.5080147974292
 20
293.72394737665309
 30
0.0
  0
VERTEX
  5
299B7
  8
0
 10
118.44204472019349
 20
293.7116160036739
 30
0.0
  0
VERTEX
  5
299B8
  8
0
 10
118.3700068061963
 20
293.69460898743358
 30
0.0
  0
VERTEX
  5
299B9
  8
0
 10
118.2922927574233
 20
293.67196723395051
 30
0.0
  0
VERTEX
  5
299BA
  8
0
 10
118.2514466901365
 20
293.65821098703782
 30
0.0
  0
VERTEX
  5
299BB
  8
0
 10
118.20935699414839
 20
293.64264746700343
 30
0.0
  0
VERTEX
  5
299BC
  8
0
 10
118.1217211032061
 20
293.60550577154117
 30
0.0
  0
VERTEX
  5
299BD
  8
0
 10
118.0299915818367
 20
293.55927332809642
 30
0.0
  0
VERTEX
  5
299BE
  8
0
 10
117.9348244033434
 20
293.50247969602702
 30
0.0
  0
VERTEX
  5
299BF
  8
0
 10
117.878014351373
 20
293.4637878678223
 30
0.0
  0
VERTEX
  5
299C0
  8
0
 10
117.8616375658608
 20
293.4519082070201
 30
0.0
  0
VERTEX
  5
299C1
  8
0
 10
117.845203655604
 20
293.43964310634152
 30
0.0
  0
VERTEX
  5
299C2
  8
0
 10
117.83696659751109
 20
293.43336257861392
 30
0.0
  0
VERTEX
  5
299C3
  8
0
 10
117.8287168560031
 20
293.42698149986342
 30
0.0
  0
VERTEX
  5
299C4
  8
0
 10
117.8121815314647
 20
293.41391178165031
 30
0.0
  0
VERTEX
  5
299C5
  8
0
 10
117.79560220236139
 20
293.40042176917359
 30
0.0
  0
VERTEX
  5
299C6
  8
0
 10
117.77898357726539
 20
293.38649866666128
 30
0.0
  0
VERTEX
  5
299C7
  8
0
 10
117.76233059093531
 20
293.37212902885949
 30
0.0
  0
VERTEX
  5
299C8
  8
0
 10
117.7456484485385
 20
293.35729872569482
 30
0.0
  0
VERTEX
  5
299C9
  8
0
 10
117.7372981567564
 20
293.3497062133319
 30
0.0
  0
VERTEX
  5
299CA
  8
0
 10
117.72894267657171
 20
293.34199290844208
 30
0.0
  0
VERTEX
  5
299CB
  8
0
 10
117.7122191809253
 20
293.32619597803301
 30
0.0
  0
VERTEX
  5
299CC
  8
0
 10
117.69543766240869
 20
293.30984539040583
 30
0.0
  0
VERTEX
  5
299CD
  8
0
 10
117.6869644897493
 20
293.30139263322422
 30
0.0
  0
VERTEX
  5
299CE
  8
0
 10
117.6784371642854
 20
293.29274800601343
 30
0.0
  0
VERTEX
  5
299CF
  8
0
 10
117.6612425480272
 20
293.27488211195117
 30
0.0
  0
VERTEX
  5
299D0
  8
0
 10
117.64389947940219
 20
293.256247050902
 30
0.0
  0
VERTEX
  5
299D1
  8
0
 10
117.6351868147449
 20
293.246641519072
 30
0.0
  0
VERTEX
  5
299D2
  8
0
 10
117.62645458801531
 20
293.236844528532
 30
0.0
  0
VERTEX
  5
299D3
  8
0
 10
117.6089552701671
 20
293.21667876755419
 30
0.0
  0
VERTEX
  5
299D4
  8
0
 10
117.5914494613186
 20
293.19575663002342
 30
0.0
  0
VERTEX
  5
299D5
  8
0
 10
117.5739853751025
 20
293.17408769551002
 30
0.0
  0
VERTEX
  5
299D6
  8
0
 10
117.5566112066024
 20
293.15168428056307
 30
0.0
  0
VERTEX
  5
299D7
  8
0
 10
117.53937479863259
 20
293.12856138225561
 30
0.0
  0
VERTEX
  5
299D8
  8
0
 10
117.53082301892471
 20
293.11673551123198
 30
0.0
  0
VERTEX
  5
299D9
  8
0
 10
117.52232327110281
 20
293.10473652590548
 30
0.0
  0
VERTEX
  5
299DA
  8
0
 10
117.5055022360676
 20
293.0802289296916
 30
0.0
  0
VERTEX
  5
299DB
  8
0
 10
117.4889552156659
 20
293.05505873716169
 30
0.0
  0
VERTEX
  5
299DC
  8
0
 10
117.4727274806703
 20
293.02925321505973
 30
0.0
  0
VERTEX
  5
299DD
  8
0
 10
117.4568639158486
 20
293.00284454142462
 30
0.0
  0
VERTEX
  5
299DE
  8
0
 10
117.4414082435958
 20
292.97586930183212
 30
0.0
  0
VERTEX
  5
299DF
  8
0
 10
117.43384658412261
 20
292.96218180525278
 30
0.0
  0
VERTEX
  5
299E0
  8
0
 10
117.4264025011977
 20
292.94836826550909
 30
0.0
  0
VERTEX
  5
299E1
  8
0
 10
117.4118865108954
 20
292.92038604029312
 30
0.0
  0
VERTEX
  5
299E2
  8
0
 10
117.3978973486508
 20
292.89197057921228
 30
0.0
  0
VERTEX
  5
299E3
  8
0
 10
117.39111103411059
 20
292.87761612403119
 30
0.0
  0
SEQEND
  5
299E4
  8
0
  0
LINE
  5
26FEC
  8
0
 10
147.7949673234543
 20
295.74368873141981
 30
0.0
 11
62.79496732345433
 21
295.74368873141981
 31
0.0
  0
LINE
  5
26FED
  8
0
 10
72.79496732345433
 20
198.2436887314197
 30
0.0
 11
70.561967323454255
 21
198.2436887314197
 31
0.0
  0
LINE
  5
26FEE
  8
0
 10
70.561967323454255
 20
198.2436887314197
 30
0.0
 11
69.79496732345433
 21
199.01068873142049
 31
0.0
  0
LINE
  5
26FEF
  8
0
 10
82.794967323454344
 20
206.24368873141981
 30
0.0
 11
85.294967323454344
 21
206.24368873141981
 31
0.0
  0
LINE
  5
26FF0
  8
0
 10
85.294967323454344
 20
198.2436887314197
 30
0.0
 11
82.794967323454344
 21
198.2436887314197
 31
0.0
  0
LINE
  5
26FF1
  8
0
 10
75.29496732345433
 20
196.4286887314201
 30
0.0
 11
72.79496732345433
 21
196.4286887314201
 31
0.0
  0
LINE
  5
26FF2
  8
0
 10
125.2949673234543
 20
206.24368873141981
 30
0.0
 11
127.7949673234542
 21
206.24368873141981
 31
0.0
  0
LINE
  5
26FF3
  8
0
 10
127.7949673234542
 20
198.2436887314197
 30
0.0
 11
125.2949673234543
 21
198.2436887314197
 31
0.0
  0
LINE
  5
26FF4
  8
0
 10
85.294967323454344
 20
208.24368873141981
 30
0.0
 11
87.794967323454344
 21
208.24368873141981
 31
0.0
  0
LINE
  5
26FF5
  8
0
 10
122.7949673234543
 20
208.24368873141981
 30
0.0
 11
125.2949673234543
 21
208.24368873141981
 31
0.0
  0
LINE
  5
26FF6
  8
0
 10
125.2949673234543
 20
196.2436887314197
 30
0.0
 11
122.7949673234543
 21
196.2436887314197
 31
0.0
  0
LINE
  5
26FF7
  8
0
 10
87.794967323454344
 20
196.2436887314197
 30
0.0
 11
85.294967323454344
 21
196.2436887314197
 31
0.0
  0
LINE
  5
26FF8
  8
0
 10
70.561967323454255
 20
198.2436887314197
 30
0.0
 11
70.561967323454255
 21
203.14272735118811
 31
0.0
  0
LINE
  5
26FF9
  8
0
 10
69.79496732345433
 20
199.01068873142049
 30
0.0
 11
69.79496732345433
 21
203.91075362735319
 31
0.0
  0
LINE
  5
26FFA
  8
0
 10
135.09496732345431
 20
195.98535539808651
 30
0.0
 11
135.09496732345431
 21
197.6196545500716
 31
0.0
  0
POLYLINE
  5
26FFB
  8
0
 66
     1
 10
0.0
 20
0.0
 30
0.0
  0
VERTEX
  5
299E5
  8
0
 10
134.83554761403869
 20
195.98535539808651
 30
0.0
  0
VERTEX
  5
299E6
  8
0
 10
134.87575577497961
 20
196.2541075613772
 30
0.0
  0
VERTEX
  5
299E7
  8
0
 10
134.9451592275137
 20
196.77296101007869
 30
0.0
  0
VERTEX
  5
299E8
  8
0
 10
135.000721793168
 20
197.27206663256311
 30
0.0
  0
VERTEX
  5
299E9
  8
0
 10
135.02355280707371
 20
197.51600504442371
 30
0.0
  0
SEQEND
  5
299EA
  8
0
  0
LINE
  5
26FFC
  8
0
 10
72.79496732345433
 20
196.4286887314201
 30
0.0
 11
72.79496732345433
 21
200.9072079570569
 31
0.0
  0
LINE
  5
26FFD
  8
0
 10
75.29496732345433
 20
195.98535539808651
 30
0.0
 11
75.29496732345433
 21
197.91650642999409
 31
0.0
  0
POLYLINE
  5
26FFE
  8
0
 66
     1
 10
0.0
 20
0.0
 30
0.0
  0
VERTEX
  5
299EB
  8
0
 10
75.339443631352879
 20
197.85798920482461
 30
0.0
  0
VERTEX
  5
299EC
  8
0
 10
75.362523798184156
 20
197.5606588634673
 30
0.0
  0
VERTEX
  5
299ED
  8
0
 10
75.423491934927483
 20
196.9522622797667
 30
0.0
  0
VERTEX
  5
299EE
  8
0
 10
75.505204741094076
 20
196.31678958071731
 30
0.0
  0
VERTEX
  5
299EF
  8
0
 10
75.55438703286984
 20
195.98535539808651
 30
0.0
  0
SEQEND
  5
299F0
  8
0
  0
LINE
  5
26FFF
  8
0
 10
125.2949673234543
 20
196.2436887314197
 30
0.0
 11
125.2949673234543
 21
208.24368873141981
 31
0.0
  0
LINE
  5
27000
  8
0
 10
85.294967323454344
 20
196.2436887314197
 30
0.0
 11
85.294967323454344
 21
208.24368873141981
 31
0.0
  0
LINE
  5
27001
  8
0
 10
91.320979947988448
 20
264.74368873141981
 30
0.0
 11
119.2689546989202
 21
264.74368873141981
 31
0.0
  0
LINE
  5
27002
  8
0
 10
119.2689546989202
 20
139.7436887314197
 30
0.0
 11
91.320979947988448
 21
139.7436887314197
 31
0.0
  0
ARC
  5
27003
  8
0
 10
91.320979947988448
 20
142.2436887314197
 30
0.0
 40
2.499999999999992
 50
194.9999999999944
 51
270.0
  0
ARC
  5
27004
  8
0
 10
91.320979947988448
 20
262.24368873141981
 30
0.0
 40
2.499999999999992
 50
90.0
 51
165.00000000000551
  0
LINE
  5
27005
  8
0
 10
87.794967323454344
 20
258.7436887314197
 30
0.0
 11
88.906165382265726
 21
262.89073634417667
 31
0.0
  0
LINE
  5
27006
  8
0
 10
88.906165382265726
 20
141.5966411186636
 30
0.0
 11
87.794967323454344
 21
145.7436887314197
 31
0.0
  0
LINE
  5
27007
  8
0
 10
87.802467323454266
 20
186.22868873142031
 30
0.0
 11
87.794967323454344
 21
186.22868873142031
 31
0.0
  0
LINE
  5
27008
  8
0
 10
87.802467323454266
 20
186.2436887314197
 30
0.0
 11
87.794967323454344
 21
186.2436887314197
 31
0.0
  0
LINE
  5
27009
  8
0
 10
121.68376926464281
 20
262.89073634417667
 30
0.0
 11
122.7949673234543
 21
258.7436887314197
 31
0.0
  0
LINE
  5
2700A
  8
0
 10
122.7949673234543
 20
145.7436887314197
 30
0.0
 11
121.68376926464281
 21
141.5966411186636
 31
0.0
  0
ARC
  5
2700B
  8
0
 10
119.2689546989202
 20
142.2436887314197
 30
0.0
 40
2.4999999999999778
 50
270.0
 51
345.00000000000563
  0
ARC
  5
2700C
  8
0
 10
119.2689546989202
 20
262.24368873141981
 30
0.0
 40
2.4999999999999778
 50
14.99999999999446
 51
90.0
  0
LINE
  5
2700D
  8
0
 10
91.320979947988448
 20
139.7436887314197
 30
0.0
 11
91.320979947988448
 21
264.74368873141981
 31
0.0
  0
LINE
  5
2700E
  8
0
 10
87.794967323454344
 20
145.7436887314197
 30
0.0
 11
87.794967323454344
 21
258.7436887314197
 31
0.0
  0
LINE
  5
2700F
  8
0
 10
122.7949673234543
 20
145.7436887314197
 30
0.0
 11
122.7949673234543
 21
258.7436887314197
 31
0.0
  0
LINE
  5
27010
  8
0
 10
119.2689546989202
 20
139.7436887314197
 30
0.0
 11
119.2689546989202
 21
264.74368873141981
 31
0.0
  0
LINE
  5
27011
  8
0
 10
135.09496732345431
 20
195.98535539808651
 30
0.0
 11
134.10534761650609
 21
195.98535539808651
 31
0.0
  0
LINE
  5
27012
  8
0
 10
75.29496732345433
 20
195.98535539808651
 30
0.0
 11
76.484587030402508
 21
195.98535539808651
 31
0.0
  0
LINE
  5
27013
  8
3
 10
69.79496732345433
 20
199.01068873142049
 30
0.0
 11
72.794967323454216
 21
199.01068873142049
 31
0.0
  0
LINE
  5
27014
  8
3
 10
82.794967323454344
 20
199.0106887314214
 30
0.0
 11
85.294967323454443
 21
199.01068873142049
 31
0.0
  0
LINE
  5
27015
  8
3
 10
125.2949673234542
 20
199.01068873142049
 30
0.0
 11
127.7949673234542
 21
199.01068873142049
 31
0.0
  0
LINE
  5
27016
  8
3
 10
82.794967323454344
 20
205.47668873141811
 30
0.0
 11
85.294967323454443
 21
205.47668873141899
 31
0.0
  0
LINE
  5
27017
  8
3
 10
125.2949673234542
 20
205.47668873141899
 30
0.0
 11
127.7949673234542
 21
205.47668873141899
 31
0.0
  0
LINE
  5
27018
  8
1
 10
156.93478670642759
 20
202.24368873141981
 30
0.0
 11
53.655147940481022
 21
202.24368873141981
 31
0.0
  0
LINE
  5
27019
  8
1
 10
105.2949673234543
 20
124.9505923813831
 30
0.0
 11
105.2949673234543
 21
310.5367850814564
 31
0.0
  0
LINE
  5
2701A
  8
1
 10
241.6092196340106
 20
434.772517484459
 30
0.0
 11
396.19541233408353
 21
434.772517484459
 31
0.0
  0
LINE
  5
2701B
  8
1
 10
318.90231598404699
 20
386.91534085170679
 30
0.0
 11
318.90231598404699
 21
482.62969411721127
 31
0.0
  0
TEXT
  5
29180
  8
0
 62
     3
 10
0.0
 20
0.0
 30
0.0
 40
10.0
  1
CAF5-125PSL
  7
STANDARD1
  0
ENDSEC
  0
EOF
