  0
SECTION
  2
HEADER
  9
$ACADVER
  1
AC1009
  9
$INSBASE
 10
0.0
 20
0.0
 30
0.0
  9
$EXTMIN
 10
0.0
 20
-2.960436562073669
 30
0.0
  9
$EXTMAX
 10
623.32338669459375
 20
568.08921396455753
 30
0.0
  9
$LIMMIN
 10
0.0
 20
0.0
  9
$LIMMAX
 10
375.0
 20
270.0
  9
$ORTHOMODE
 70
     1
  9
$REGENMODE
 70
     1
  9
$FILLMODE
 70
     1
  9
$QTEXTMODE
 70
     0
  9
$MIRRTEXT
 70
     1
  9
$DRAGMODE
 70
     2
  9
$LTSCALE
 40
10.0
  9
$OSMODE
 70
  3071
  9
$ATTMODE
 70
     1
  9
$TEXTSIZE
 40
5.0
  9
$TRACEWID
 40
0.05
  9
$TEXTSTYLE
  7
STANDARD
  9
$CLAYER
  8
0
  9
$CELTYPE
  6
BYLAYER
  9
$CECOLOR
 62
   256
  9
$DIMSCALE
 40
2.0
  9
$DIMASZ
 40
3.0
  9
$DIMEXO
 40
2.0
  9
$DIMDLI
 40
0.38
  9
$DIMRND
 40
0.0
  9
$DIMDLE
 40
0.0
  9
$DIMEXE
 40
2.0
  9
$DIMTP
 40
0.0
  9
$DIMTM
 40
0.0
  9
$DIMTXT
 40
3.2000000000000002
  9
$DIMCEN
 40
0.0
  9
$DIMTSZ
 40
0.0
  9
$DIMTOL
 70
     0
  9
$DIMLIM
 70
     0
  9
$DIMTIH
 70
     0
  9
$DIMTOH
 70
     0
  9
$DIMSE1
 70
     0
  9
$DIMSE2
 70
     0
  9
$DIMTAD
 70
     1
  9
$DIMZIN
 70
     8
  9
$DIMBLK
  1

  9
$DIMASO
 70
     0
  9
$DIMSHO
 70
     0
  9
$DIMPOST
  1

  9
$DIMAPOST
  1

  9
$DIMALT
 70
     0
  9
$DIMALTD
 70
     2
  9
$DIMALTF
 40
25.399999999999999
  9
$DIMLFAC
 40
1.0
  9
$DIMTOFL
 70
     0
  9
$DIMTVP
 40
1.6000000000000001
  9
$DIMTIX
 70
     1
  9
$DIMSOXD
 70
     0
  9
$DIMSAH
 70
     0
  9
$DIMBLK1
  1

  9
$DIMBLK2
  1

  9
$DIMSTYLE
  2
STANDARD
  9
$DIMCLRD
 70
     0
  9
$DIMCLRE
 70
     0
  9
$DIMCLRT
 70
     0
  9
$DIMTFAC
 40
1.0
  9
$DIMGAP
 40
1.1999999999999991
  9
$LUNITS
 70
     2
  9
$LUPREC
 70
     4
  9
$SKETCHINC
 40
0.1
  9
$FILLETRAD
 40
0.0
  9
$AUNITS
 70
     0
  9
$AUPREC
 70
     4
  9
$MENU
  1
ACAD
  9
$ELEVATION
 40
0.0
  9
$PELEVATION
 40
0.0
  9
$THICKNESS
 40
0.0
  9
$LIMCHECK
 70
     0
  9
$BLIPMODE
 70
     0
  9
$CHAMFERA
 40
0.0
  9
$CHAMFERB
 40
0.0
  9
$SKPOLY
 70
     0
  9
$TDCREATE
 40
2448055.7149187499
  9
$TDUPDATE
 40
2456598.56005265
  9
$TDINDWG
 40
3.1688017476999999
  9
$TDUSRTIMER
 40
3.1688017476999999
  9
$USRTIMER
 70
     1
  9
$ANGBASE
 50
0.0
  9
$ANGDIR
 70
     0
  9
$PDMODE
 70
     0
  9
$PDSIZE
 40
0.0
  9
$PLINEWID
 40
0.0
  9
$COORDS
 70
     1
  9
$SPLFRAME
 70
     0
  9
$SPLINETYPE
 70
     6
  9
$SPLINESEGS
 70
     8
  9
$ATTDIA
 70
     0
  9
$ATTREQ
 70
     1
  9
$HANDLING
 70
     1
  9
$HANDSEED
  5
32276
  9
$SURFTAB1
 70
     6
  9
$SURFTAB2
 70
     6
  9
$SURFTYPE
 70
     6
  9
$SURFU
 70
     6
  9
$SURFV
 70
     6
  9
$UCSNAME
  2

  9
$UCSORG
 10
0.0
 20
0.0
 30
0.0
  9
$UCSXDIR
 10
1.0
 20
0.0
 30
0.0
  9
$UCSYDIR
 10
0.0
 20
1.0
 30
0.0
  9
$PUCSNAME
  2

  9
$PUCSORG
 10
0.0
 20
0.0
 30
0.0
  9
$PUCSXDIR
 10
1.0
 20
0.0
 30
0.0
  9
$PUCSYDIR
 10
0.0
 20
1.0
 30
0.0
  9
$USERI1
 70
     0
  9
$USERI2
 70
     0
  9
$USERI3
 70
     0
  9
$USERI4
 70
     0
  9
$USERI5
 70
     0
  9
$USERR1
 40
0.0
  9
$USERR2
 40
0.0
  9
$USERR3
 40
0.0
  9
$USERR4
 40
0.0
  9
$USERR5
 40
0.0
  9
$WORLDVIEW
 70
     1
  9
$SHADEDGE
 70
     3
  9
$SHADEDIF
 70
    70
  9
$TILEMODE
 70
     1
  9
$MAXACTVP
 70
    16
  9
$PLIMCHECK
 70
     0
  9
$PEXTMIN
 10
1.0000000000000000E+020
 20
1.0000000000000000E+020
 30
1.0000000000000000E+020
  9
$PEXTMAX
 10
-1.0000000000000000E+020
 20
-1.0000000000000000E+020
 30
-1.0000000000000000E+020
  9
$PLIMMIN
 10
0.0
 20
0.0
  9
$PLIMMAX
 10
12.0
 20
9.0
  9
$UNITMODE
 70
     0
  9
$VISRETAIN
 70
     0
  9
$PLINEGEN
 70
     1
  9
$PSLTSCALE
 70
     0
  0
ENDSEC
  0
SECTION
  2
TABLES
  0
TABLE
  2
VPORT
 70
     1
  0
VPORT
  2
*ACTIVE
 70
     0
 10
0.0
 20
0.0
 11
1.0
 21
1.0
 12
327.48545906357162
 22
282.57098821087271
 13
0.0
 23
0.0
 14
5.0
 24
5.0
 15
10.0
 25
10.0
 16
0.0
 26
0.0
 36
1.0
 17
0.0
 27
0.0
 37
0.0
 40
576.19284171530035
 41
1.8318713450292401
 42
50.0
 43
0.0
 44
0.0
 50
0.0
 51
0.0
 71
     0
 72
   500
 73
     1
 74
     1
 75
     0
 76
     0
 77
     0
 78
     2
  0
ENDTAB
  0
TABLE
  2
LTYPE
 70
     3
  0
LTYPE
  2
CONTINUOUS
 70
     0
  3
実線
 72
    65
 73
     0
 40
0.0
  0
LTYPE
  2
CENTER
 70
     0
  3
____ _ ____ _ ____ _ ____ _ ____ _ ____ _ ____
 72
    65
 73
     4
 40
2.0
 49
1.25
 49
-0.25
 49
0.25
 49
-0.25
  0
LTYPE
  2
PHANTOM2
 70
     0
  3
___ _ _ ___ _ _ ___ _ _ ___ _ _
 72
    65
 73
     6
 40
1.25
 49
0.625
 49
-0.125
 49
0.125
 49
-0.125
 49
0.125
 49
-0.125
  0
ENDTAB
  0
TABLE
  2
LAYER
 70
     4
  0
LAYER
  2
0
 70
     0
 62
     7
  6
CONTINUOUS
  0
LAYER
  2
1
 70
     0
 62
     1
  6
CENTER
  0
LAYER
  2
DEFPOINTS
 70
     0
 62
     7
  6
CONTINUOUS
  0
LAYER
  2
3
 70
     0
 62
     3
  6
CONTINUOUS
  0
ENDTAB
  0
TABLE
  2
STYLE
 70
     3
  0
STYLE
  2
STANDARD
 70
     0
 40
0.0
 41
1.0
 50
0.0
 71
     0
 42
5.0
  3
simplex.shx
  4
bigfont.shx
  0
STYLE
  2
07500
 70
     0
 40
0.0
 41
0.75
 50
0.0
 71
     0
 42
0.2
  3
simplex.shx
  4
bigfont.shx
  0
STYLE
  2
STANDARD1
 70
     0
 40
0.0
 41
1.0
 50
0.0
 71
     0
 42
3.0
  3
txt
  4

  0
ENDTAB
  0
TABLE
  2
VIEW
 70
     2
  0
VIEW
  2
ALL
 70
     0
 40
270.0
 10
220.99159663865549
 20
135.0
 41
0.0
 11
0.0
 21
0.0
 31
1.0
 12
0.0
 22
0.0
 32
0.0
 42
0.0
 43
0.0
 44
0.0
 50
0.0
 71
     0
  0
VIEW
  2
OLE1
 70
     0
 40
168.2487151179721
 10
2892.3009567448912
 20
702.51600084347126
 41
162.5749581879237
 11
0.0
 21
0.0
 31
1.0
 12
0.0
 22
0.0
 32
0.0
 42
50.0
 43
0.0
 44
0.0
 50
0.0
 71
     0
  0
ENDTAB
  0
TABLE
  2
UCS
 70
     0
  0
ENDTAB
  0
TABLE
  2
APPID
 70
    48
  0
APPID
  2
ACAD
 70
     0
  0
APPID
  2
DCO15
 70
     0
  0
APPID
  2
GENIUS_GENOREF_13
 70
     0
  0
APPID
  2
GENIUS_GENOENT_13
 70
     0
  0
APPID
  2
GENIUS_GENBH_13
 70
     0
  0
APPID
  2
GENIUS_GENOBJ_13
 70
     0
  0
APPID
  2
GENIUS_GENODEF_13
 70
     0
  0
APPID
  2
GENIUS_GENOLIS_13
 70
     0
  0
APPID
  2
GENIUS_GENOBJ-NBEHI-BHF_13
 70
     0
  0
APPID
  2
GENIUS_GENOBJ-NBEHI-BHB_13
 70
     0
  0
APPID
  2
GENIUS_GENOBJ-F-PART_13
 70
     0
  0
APPID
  2
GENIUS_GEFSTDP_13
 70
     0
  0
APPID
  2
GENIUS_GENOBJ-N-RSSYM_13
 70
     0
  0
APPID
  2
GENIUS_GENSYMENT_13
 70
     0
  0
APPID
  2
GENIUS_GENOBJ-N-TIT_13
 70
     0
  0
APPID
  2
GENIUS_GENTITLE_13
 70
     0
  0
APPID
  2
GENIUS_GENZVEED_13
 70
     0
  0
APPID
  2
GENIUS_GENOBJ-N-LEADER_13
 70
     0
  0
APPID
  2
GENIUS_GENOBJ-N-FIL_13
 70
     0
  0
APPID
  2
GENIUS_GENOBJ-N-SEC_13
 70
     0
  0
APPID
  2
GENIUS_GENOBJ-N-CRS_13
 70
     0
  0
APPID
  2
GENIUS_GENOBJ-N-ZOO_13
 70
     0
  0
APPID
  2
GENIUS_GENZOO_13
 70
     0
  0
APPID
  2
GENIUS_GENOBJ-F-TOL_13
 70
     0
  0
APPID
  2
GENIUS_GENFIL_13
 70
     0
  0
APPID
  2
GENIUS_GENOBJ-N-CHA_13
 70
     0
  0
APPID
  2
_CALL_MAC$
 70
     0
  0
APPID
  2
ASM_BASE
 70
     0
  0
APPID
  2
ASM_EXPLO_VER_2_00
 70
     0
  0
APPID
  2
ASM_CADM_VER_12_00
 70
     0
  0
APPID
  2
ASM_BASEFORO
 70
     0
  0
APPID
  2
ASM_BASETRAVI
 70
     0
  0
APPID
  2
ASM_BASETRAVI1
 70
     0
  0
APPID
  2
ASM_GRUPPI
 70
     0
  0
APPID
  2
ASM_CADM_ALBERO
 70
     0
  0
APPID
  2
ASM_GOLE
 70
     0
  0
APPID
  2
ACAD_MLEADERVER
 70
     0
  0
APPID
  2
ACAD_DSTYLE_DIMJAG
 70
     0
  0
APPID
  2
ACAD_DSTYLE_DIMTALN
 70
     0
  0
APPID
  2
ACAD_EXEMPT_FROM_CAD_STANDARDS
 70
     0
  0
APPID
  2
ACAD_DSTYLE_DIMRADIAL_EXTENSION
 70
     0
  0
APPID
  2
ACAD_PSEXT
 70
     0
  0
APPID
  2
ACAD_DSTYLE_DIMBREAK
 70
     0
  0
APPID
  2
ACAECLAYERSTANDARD
 70
     0
  0
APPID
  2
ACCMTRANSPARENCY
 70
     0
  0
APPID
  2
GRADIENTCOLOR1ACI
 70
     0
  0
APPID
  2
GRADIENTCOLOR2ACI
 70
     0
  0
APPID
  2
ACAD_NAV_VCDISPLAY
 70
     0
  0
ENDTAB
  0
TABLE
  2
DIMSTYLE
 70
     1
  0
DIMSTYLE
  2
STANDARD
 70
     0
  3

  4

  5

  6

  7

 40
1.0
 41
0.18
 42
0.0625
 43
0.38
 44
0.18
 45
0.0
 46
0.0
 47
0.0
 48
0.0
140
0.18
141
0.09
142
0.0
143
25.399999999999999
144
1.0
145
0.0
146
1.0
147
0.09
 71
     0
 72
     0
 73
     1
 74
     1
 75
     0
 76
     0
 77
     0
 78
     0
170
     0
171
     2
172
     0
173
     0
174
     0
175
     0
176
     0
177
     0
178
     0
  0
ENDTAB
  0
ENDSEC
  0
SECTION
  2
BLOCKS
  0
BLOCK
  8
0
  2
$MODEL_SPACE
 70
     0
 10
0.0
 20
0.0
 30
0.0
  3
$MODEL_SPACE
  1

  0
ENDBLK
  5
36
  8
0
  0
BLOCK
 67
     1
  8
0
  2
$PAPER_SPACE
 70
     0
 10
0.0
 20
0.0
 30
0.0
  3
$PAPER_SPACE
  1

  0
ENDBLK
  5
34
 67
     1
  8
0
  0
ENDSEC
  0
SECTION
  2
ENTITIES
  0
LINE
  5
31B3B
  8
0
 10
373.66491345615259
 20
347.11739688357551
 30
0.0
 11
373.66491345615259
 21
343.11739622792442
 31
0.0
  0
LINE
  5
31B3C
  8
0
 10
449.6649166002976
 20
343.11739622792442
 30
0.0
 11
449.6649166002976
 21
347.11739688357551
 31
0.0
  0
LINE
  5
31B3D
  8
0
 10
375.28834281415811
 20
354.11739616831977
 30
0.0
 11
376.52263114155397
 21
347.11739688357551
 31
0.0
  0
LINE
  5
31B3E
  8
0
 10
446.80719425828329
 20
347.11739688357551
 30
0.0
 11
448.04148724229208
 21
354.11739616831977
 31
0.0
  0
LINE
  5
31B43
  8
0
 10
461.66491111667028
 20
354.11739616831977
 30
0.0
 11
461.66491111667028
 21
358.11739682397092
 31
0.0
  0
LINE
  5
31B46
  8
0
 10
361.66491358467511
 20
354.11739616831977
 30
0.0
 11
361.66491358467511
 21
358.11739682397092
 31
0.0
  0
LINE
  5
31B47
  8
0
 10
361.66491358467511
 20
358.11739682397092
 30
0.0
 11
461.66491111667
 21
358.11739682397081
 31
0.0
  0
LINE
  5
31B48
  8
0
 10
361.66491358467511
 20
354.11739616831977
 30
0.0
 11
461.66491111667
 21
354.11739616831977
 31
0.0
  0
LINE
  5
31B49
  8
0
 10
384.23472991139761
 20
253.71163233360491
 30
0.0
 11
383.49134450704918
 21
252.8112678526922
 31
0.0
  0
LINE
  5
31B4A
  8
0
 10
383.49134450704918
 20
343.11739622792442
 30
0.0
 11
383.49134450704918
 21
252.8112678526922
 31
0.0
  0
LINE
  5
31B4C
  8
0
 10
373.66491345615259
 20
347.11739688357551
 30
0.0
 11
449.6649166002976
 21
347.11739688357551
 31
0.0
  0
POLYLINE
  5
31B4D
  8
0
 66
     1
 10
0.0
 20
0.0
 30
0.0
 70
   128
  0
VERTEX
  5
31EE5
  8
0
 10
449.6649166002976
 20
343.11739622792442
 30
0.0
  0
VERTEX
  5
31EE6
  8
0
 10
449.6519451394783
 20
343.09967874726487
 30
0.0
  0
VERTEX
  5
31EE7
  8
0
 10
449.5482777610527
 20
342.95802085837562
 30
0.0
  0
VERTEX
  5
31EE8
  8
0
 10
449.341211225103
 20
342.67507760962661
 30
0.0
  0
VERTEX
  5
31EE9
  8
0
 10
449.0313192263352
 20
342.25163876256192
 30
0.0
  0
VERTEX
  5
31EEA
  8
0
 10
448.61945113093719
 20
341.68884425601181
 30
0.0
  0
VERTEX
  5
31EEB
  8
0
 10
448.10672452599869
 20
340.98824381074149
 30
0.0
  0
VERTEX
  5
31EEC
  8
0
 10
447.4945401206719
 20
340.15173732480253
 30
0.0
  0
VERTEX
  5
31EED
  8
0
 10
446.78457429559103
 20
339.18161212643798
 30
0.0
  0
VERTEX
  5
31EEE
  8
0
 10
445.97875675113067
 20
338.0805280729216
 30
0.0
  0
VERTEX
  5
31EEF
  8
0
 10
445.0792928591477
 20
336.85146539649207
 30
0.0
  0
VERTEX
  5
31EF0
  8
0
 10
444.08863386065832
 20
335.49779921015943
 30
0.0
  0
VERTEX
  5
31EF1
  8
0
 10
443.00948431641928
 20
334.02321755131919
 30
0.0
  0
VERTEX
  5
31EF2
  8
0
 10
441.84478720576629
 20
332.43174373349387
 30
0.0
  0
VERTEX
  5
31EF3
  8
0
 10
440.59773137719498
 20
330.72772889575202
 30
0.0
  0
VERTEX
  5
31EF4
  8
0
 10
439.27170684487692
 20
328.91580729922492
 30
0.0
  0
VERTEX
  5
31EF5
  8
0
 10
437.87033459098211
 20
327.00093358000947
 30
0.0
  0
VERTEX
  5
31EF6
  8
0
 10
436.39745166451797
 20
324.98833804568488
 30
0.0
  0
VERTEX
  5
31EF7
  8
0
 10
434.85705902726522
 20
322.88350432357009
 30
0.0
  0
VERTEX
  5
31EF8
  8
0
 10
433.25338115842209
 20
320.69218426188672
 30
0.0
  0
VERTEX
  5
31EF9
  8
0
 10
431.59077664763799
 20
318.42035695156289
 30
0.0
  0
VERTEX
  5
31EFA
  8
0
 10
429.8737977996575
 20
316.07421755036552
 30
0.0
  0
VERTEX
  5
31EFB
  8
0
 10
428.10711612851492
 20
313.66017728289802
 30
0.0
  0
VERTEX
  5
31EFC
  8
0
 10
426.29555961043712
 20
311.18481873711778
 30
0.0
  0
VERTEX
  5
31EFD
  8
0
 10
424.4440791562306
 20
308.65489586433608
 30
0.0
  0
VERTEX
  5
31EFE
  8
0
 10
422.55772253424988
 20
306.07731907805641
 30
0.0
  0
VERTEX
  5
31EFF
  8
0
 10
420.64163437039718
 20
303.459118001072
 30
0.0
  0
VERTEX
  5
31F00
  8
0
 10
418.70104869754181
 20
300.80744146546562
 30
0.0
  0
VERTEX
  5
31F01
  8
0
 10
416.74125915319792
 20
298.12952771028688
 30
0.0
  0
VERTEX
  5
31F02
  8
0
 10
414.76761525423399
 20
295.43268202981187
 30
0.0
  0
VERTEX
  5
31F03
  8
0
 10
412.7855037704216
 20
292.72426559766961
 30
0.0
  0
VERTEX
  5
31F04
  8
0
 10
410.80033382327429
 20
290.01166938981248
 30
0.0
  0
VERTEX
  5
31F05
  8
0
 10
408.81752198488579
 20
287.3022974207085
 30
0.0
  0
VERTEX
  5
31F06
  8
0
 10
406.84248110205999
 20
284.60354439160068
 30
0.0
  0
VERTEX
  5
31F07
  8
0
 10
404.8806053951489
 20
281.9227752014084
 30
0.0
  0
VERTEX
  5
31F08
  8
0
 10
402.93724065573088
 20
279.26730632027818
 30
0.0
  0
VERTEX
  5
31F09
  8
0
 10
401.01769914777151
 20
276.64438530048568
 30
0.0
  0
VERTEX
  5
31F0A
  8
0
 10
399.12721490414009
 20
274.0611712186618
 30
0.0
  0
VERTEX
  5
31F0B
  8
0
 10
397.2709474519001
 20
271.52471232405139
 30
0.0
  0
VERTEX
  5
31F0C
  8
0
 10
395.45396318585739
 20
269.0419320686741
 30
0.0
  0
VERTEX
  5
31F0D
  8
0
 10
393.68122419268963
 20
266.6196058242603
 30
0.0
  0
VERTEX
  5
31F0E
  8
0
 10
391.95756403655878
 20
264.26434551542809
 30
0.0
  0
VERTEX
  5
31F0F
  8
0
 10
390.28768962175718
 20
261.98257889775772
 30
0.0
  0
VERTEX
  5
31F10
  8
0
 10
388.6761569783198
 20
259.78053289584562
 30
0.0
  0
VERTEX
  5
31F11
  8
0
 10
387.12736567408911
 20
257.66421749433709
 30
0.0
  0
VERTEX
  5
31F12
  8
0
 10
385.64554205090872
 20
255.639408595769
 30
0.0
  0
VERTEX
  5
31F13
  8
0
 10
384.23472991139761
 20
253.71163233360491
 30
0.0
  0
SEQEND
  5
31F14
  8
0
  0
LINE
  5
31B4E
  8
0
 10
365.06491362975112
 20
341.29239886244949
 30
0.0
 11
346.42952470035419
 21
261.90261367885608
 31
0.0
  0
LINE
  5
31B4F
  8
0
 10
365.06491362975112
 20
343.11739622792442
 30
0.0
 11
365.06491362975112
 21
341.29239886244949
 31
0.0
  0
LINE
  5
31B50
  8
0
 10
356.16491384730813
 20
249.61739859720899
 30
0.0
 11
376.16491386593452
 21
249.61739859720899
 31
0.0
  0
ARC
  5
31B51
  8
0
 10
356.16491367967001
 20
259.6173983736914
 30
0.0
 40
9.9999999999999645
 50
166.78995642466151
 51
270.0
  0
LINE
  5
31B52
  8
0
 10
383.49134450704918
 20
343.11739622792442
 30
0.0
 11
347.966184596728
 21
343.11739622792442
 31
0.0
  0
ARC
  5
31B53
  8
0
 10
376.16491367967001
 20
259.61739837369367
 30
0.0
 40
10.00000000000184
 50
270.0
 51
317.10843306670063
  0
LINE
  5
31B54
  8
0
 10
303.18157350571028
 20
331.11740171155151
 30
0.0
 11
306.66491364986769
 21
318.11739771804048
 31
0.0
  0
LINE
  5
31B55
  8
0
 10
347.966184596728
 20
343.11739622792442
 30
0.0
 11
303.18157350571028
 21
331.11740171155151
 31
0.0
  0
LINE
  5
31B56
  8
0
 10
306.66491364986769
 20
318.11739771804048
 30
0.0
 11
359.62498024032578
 21
318.11739771804048
 31
0.0
  0
ARC
  5
31B60
  8
0
 10
363.66491367967001
 20
259.61739837369163
 30
0.0
 40
6.2583333333333648
 50
90.0
 51
149.99999999999849
  0
POLYLINE
  5
31B61
  8
0
 66
     1
 10
0.0
 20
0.0
 30
0.0
 70
   128
  0
VERTEX
  5
31F15
  8
0
 10
360.05166334957948
 20
265.87573147555997
 30
0.0
  0
VERTEX
  5
31F16
  8
0
 10
358.35862973631492
 20
262.94331194078762
 30
0.0
  0
VERTEX
  5
31F17
  8
0
 10
358.24503818453422
 20
262.74656492462589
 30
0.0
  0
SEQEND
  5
31F18
  8
0
  0
LINE
  5
31B62
  8
0
 10
363.66491367967001
 20
265.87573147555997
 30
0.0
 11
360.05166334957948
 21
265.87573147555997
 31
0.0
  0
ARC
  5
31B63
  8
0
 10
363.66491367967001
 20
259.61739837369163
 30
0.0
 40
6.2583333333334359
 50
149.99999999999849
 51
210.00000000000199
  0
LINE
  5
31B64
  8
0
 10
356.43841301948891
 20
259.61739837369163
 30
0.0
 11
358.24503818453422
 21
256.48823182275731
 31
0.0
  0
LINE
  5
31B65
  8
0
 10
358.24503818453422
 20
262.74656492462589
 30
0.0
 11
356.43841301948891
 21
259.61739837369163
 31
0.0
  0
ARC
  5
31B66
  8
0
 10
363.66491367967001
 20
259.61739837369163
 30
0.0
 40
6.258333333333467
 50
210.00000000000199
 51
270.0
  0
ARC
  5
31B67
  8
0
 10
363.66491367967001
 20
259.61739837369163
 30
0.0
 40
6.2583333333332423
 50
30.000000000001432
 51
90.0
  0
ARC
  5
31B68
  8
0
 10
363.66491367967001
 20
259.61739837369163
 30
0.0
 40
6.2583333333333133
 50
329.99999999999858
 51
30.000000000001432
  0
ARC
  5
31B69
  8
0
 10
363.66491367967001
 20
259.61739837369163
 30
0.0
 40
6.258333333333467
 50
270.0
 51
329.99999999999858
  0
LINE
  5
31B6A
  8
0
 10
370.891414339851
 20
259.61739837369163
 30
0.0
 11
369.08478917480579
 21
262.74656492462589
 31
0.0
  0
POLYLINE
  5
31B6B
  8
0
 66
     1
 10
0.0
 20
0.0
 30
0.0
 70
   128
  0
VERTEX
  5
31F19
  8
0
 10
369.08478917480579
 20
256.48823182275731
 30
0.0
  0
VERTEX
  5
31F1A
  8
0
 10
369.19869365097151
 20
256.6855197045042
 30
0.0
  0
VERTEX
  5
31F1B
  8
0
 10
370.891414339851
 20
259.61739837369163
 30
0.0
  0
SEQEND
  5
31F1C
  8
0
  0
LINE
  5
31B6C
  8
0
 10
358.24503818453422
 20
256.48823182275731
 30
0.0
 11
360.05166334957948
 21
253.359065271823
 31
0.0
  0
LINE
  5
31B6D
  8
0
 10
360.05166334957948
 20
253.359065271823
 30
0.0
 11
363.66491367967001
 21
253.359065271823
 31
0.0
  0
LINE
  5
31B6E
  8
0
 10
367.27816400976047
 20
253.359065271823
 30
0.0
 11
369.08478917480579
 21
256.48823182275731
 31
0.0
  0
LINE
  5
31B6F
  8
0
 10
363.66491367967001
 20
253.359065271823
 30
0.0
 11
367.27816400976047
 21
253.359065271823
 31
0.0
  0
POLYLINE
  5
31B70
  8
0
 66
     1
 10
0.0
 20
0.0
 30
0.0
 70
   128
  0
VERTEX
  5
31F1D
  8
0
 10
369.08478917480579
 20
262.74656492462589
 30
0.0
  0
VERTEX
  5
31F1E
  8
0
 10
367.84085746781102
 20
264.90111823370893
 30
0.0
  0
VERTEX
  5
31F1F
  8
0
 10
367.27816400976047
 20
265.87573147555997
 30
0.0
  0
SEQEND
  5
31F20
  8
0
  0
LINE
  5
31B71
  8
0
 10
367.27816400976047
 20
265.87573147555997
 30
0.0
 11
363.66491367967001
 21
265.87573147555997
 31
0.0
  0
POLYLINE
  5
31BA5
  8
0
 66
     1
 10
0.0
 20
0.0
 30
0.0
 70
   128
  0
VERTEX
  5
31F21
  8
0
 10
407.14983245284429
 20
284.7234279586952
 30
0.0
  0
VERTEX
  5
31F22
  8
0
 10
407.0558471039044
 20
284.66916538020809
 30
0.0
  0
VERTEX
  5
31F23
  8
0
 10
406.83855092079511
 20
284.54370877882678
 30
0.0
  0
VERTEX
  5
31F24
  8
0
 10
406.76953246743551
 20
284.50386121114929
 30
0.0
  0
SEQEND
  5
31F25
  8
0
  0
LINE
  5
31BB3
  8
0
 10
407.14983245284429
 20
284.7234279586952
 30
0.0
 11
407.05274021179548
 21
284.89084809264381
 31
0.0
  0
LINE
  5
31BB8
  8
0
 10
540.56080595094681
 20
347.11739688357562
 30
0.0
 11
540.56080595094681
 21
291.19305952629298
 31
0.0
  0
LINE
  5
31BB9
  8
0
 10
616.56080350715638
 20
291.19305952629298
 30
0.0
 11
616.56080350715638
 21
347.11739688357562
 31
0.0
  0
LINE
  5
31BBA
  8
0
 10
542.18423530895234
 20
354.11739616831977
 30
0.0
 11
543.41852084238053
 21
347.11739688357562
 31
0.0
  0
LINE
  5
31BBB
  8
0
 10
613.70308861572255
 20
347.11739688357562
 30
0.0
 11
614.93737414915086
 21
354.11739616831977
 31
0.0
  0
LINE
  5
31BBC
  8
0
 10
598.56080428201756
 20
251.6173979937121
 30
0.0
 11
601.06080562312206
 21
251.6173979937121
 31
0.0
  0
LINE
  5
31BBD
  8
0
 10
601.06080562312206
 20
267.6173987536713
 30
0.0
 11
598.56080428201756
 21
267.6173987536713
 31
0.0
  0
LINE
  5
31BBE
  8
0
 10
556.06080383498283
 20
251.6173979937121
 30
0.0
 11
558.56080517608734
 21
251.6173979937121
 31
0.0
  0
LINE
  5
31BBF
  8
0
 10
558.56080517608734
 20
267.6173987536713
 30
0.0
 11
556.06080383498283
 21
267.6173987536713
 31
0.0
  0
LINE
  5
31BC0
  8
0
 10
612.29380384523483
 20
255.61739818370191
 30
0.0
 11
613.06080386478504
 21
256.38439843608262
 31
0.0
  0
LINE
  5
31BC1
  8
0
 10
613.06080386478504
 20
262.85039831130052
 30
0.0
 11
612.29380384523483
 21
263.61739856368149
 31
0.0
  0
LINE
  5
31BC2
  8
0
 10
610.06080523569187
 20
255.61739818370191
 30
0.0
 11
612.29380384523483
 21
255.61739818370191
 31
0.0
  0
LINE
  5
31BC3
  8
0
 10
612.29380384523483
 20
263.61739856368149
 30
0.0
 11
610.75917423207375
 21
263.61739856368149
 31
0.0
  0
ARC
  5
31BC4
  8
0
 10
592.53479210451769
 20
199.61739837369191
 30
0.0
 40
2.5000000000003499
 50
270.0
 51
345.00000000000261
  0
ARC
  5
31BC5
  8
0
 10
592.53479210451769
 20
319.6173983736914
 30
0.0
 40
2.5000000000003499
 50
14.99999999999857
 51
90.0
  0
LINE
  5
31BC6
  8
0
 10
564.58681706775042
 20
197.11739837369171
 30
0.0
 11
592.5347923903546
 21
197.11739837369171
 31
0.0
  0
LINE
  5
31BC7
  8
0
 10
592.5347923903546
 20
322.1173983736914
 30
0.0
 11
564.58681706775042
 21
322.1173983736914
 31
0.0
  0
ARC
  5
31BC8
  8
0
 10
564.58681735358641
 20
199.61739837369191
 30
0.0
 40
2.5000000000003499
 50
194.99999999999849
 51
270.0
  0
ARC
  5
31BC9
  8
0
 10
564.58681735358641
 20
319.617398373691
 30
0.0
 40
2.5000000000004259
 50
90.0
 51
164.99999999999639
  0
LINE
  5
31BCA
  8
0
 10
594.9496065868816
 20
198.97035031756599
 30
0.0
 11
596.06080480355831
 21
203.1173993571683
 31
0.0
  0
LINE
  5
31BCB
  8
0
 10
596.06080480355831
 20
316.1173973902151
 30
0.0
 11
594.9496065868816
 21
320.26444642981733
 31
0.0
  0
LINE
  5
31BCC
  8
0
 10
562.17200287122341
 20
320.26444642981733
 30
0.0
 11
561.0608046545467
 21
316.1173973902151
 31
0.0
  0
LINE
  5
31BCD
  8
0
 10
561.0608046545467
 20
203.1173993571683
 30
0.0
 11
562.17200287122341
 21
198.97035031756599
 31
0.0
  0
LINE
  5
31BCE
  8
0
 10
561.0608046545467
 20
279.11739877602309
 30
0.0
 11
558.56080517608734
 21
278.9863784535807
 31
0.0
  0
LINE
  5
31BCF
  8
0
 10
558.56080517608734
 20
240.24841829380239
 30
0.0
 11
561.0608046545467
 21
240.11739797136011
 31
0.0
  0
LINE
  5
31BD0
  8
0
 10
596.06080480355831
 20
240.11739797136011
 30
0.0
 11
598.56080428201756
 21
240.24841829380239
 31
0.0
  0
LINE
  5
31BD1
  8
0
 10
598.56080428201756
 20
278.9863784535807
 30
0.0
 11
596.06080480355831
 21
279.11739877602309
 31
0.0
  0
LINE
  5
31BD2
  8
0
 10
621.06080517608643
 20
354.11739616831977
 30
0.0
 11
621.06080517608643
 21
358.11739682397092
 31
0.0
  0
LINE
  5
31BD9
  8
0
 10
536.06080428201665
 20
354.11739616831977
 30
0.0
 11
536.06080428201665
 21
358.11739682397092
 31
0.0
  0
LINE
  5
31BDA
  8
0
 10
536.06080428201665
 20
358.11739682397092
 30
0.0
 11
621.06080517608643
 21
358.11739682397098
 31
0.0
  0
LINE
  5
31BDB
  8
0
 10
536.06080428201665
 20
354.11739616831977
 30
0.0
 11
621.06080517608643
 21
354.11739616831977
 31
0.0
  0
LINE
  5
31BDC
  8
0
 10
552.26280145783028
 20
253.711632333605
 30
0.0
 11
556.06080383498283
 21
253.711632333605
 31
0.0
  0
POLYLINE
  5
31BDD
  8
0
 10
604.85880838982746
 20
253.71163234141142
 30
0.0
 66
     1
 70
     8
  0
VERTEX
  8
0
  5
31F6A
 10
604.859
 20
253.712
 30
0.000000
  70
    32
  0
VERTEX
  8
0
  5
31F6B
 10
605.859
 20
255.072
 30
0.000000
  70
    32
  0
VERTEX
  8
0
  5
31F6C
 10
606.822
 20
256.482
 30
0.000000
  70
    32
  0
VERTEX
  8
0
  5
31F6D
 10
607.746
 20
257.940
 30
0.000000
  70
    32
  0
VERTEX
  8
0
  5
31F6E
 10
608.630
 20
259.444
 30
0.000000
  70
    32
  0
VERTEX
  8
0
  5
31F6F
 10
609.472
 20
260.992
 30
0.000000
  70
    32
  0
VERTEX
  8
0
  5
31F70
 10
610.271
 20
262.581
 30
0.000000
  70
    32
  0
VERTEX
  8
0
  5
31F71
 10
611.027
 20
264.210
 30
0.000000
  70
    32
  0
VERTEX
  8
0
  5
31F72
 10
611.738
 20
265.876
 30
0.000000
  70
    32
  0
VERTEX
  8
0
  5
31F73
 10
612.403
 20
267.577
 30
0.000000
  70
    32
  0
VERTEX
  8
0
  5
31F74
 10
613.022
 20
269.311
 30
0.000000
  70
    32
  0
VERTEX
  8
0
  5
31F75
 10
613.592
 20
271.074
 30
0.000000
  70
    32
  0
VERTEX
  8
0
  5
31F76
 10
614.115
 20
272.866
 30
0.000000
  70
    32
  0
VERTEX
  8
0
  5
31F77
 10
614.589
 20
274.683
 30
0.000000
  70
    32
  0
VERTEX
  8
0
  5
31F78
 10
615.013
 20
276.522
 30
0.000000
  70
    32
  0
VERTEX
  8
0
  5
31F79
 10
615.386
 20
278.382
 30
0.000000
  70
    32
  0
VERTEX
  8
0
  5
31F7A
 10
615.709
 20
280.260
 30
0.000000
  70
    32
  0
VERTEX
  8
0
  5
31F7B
 10
615.980
 20
282.152
 30
0.000000
  70
    32
  0
VERTEX
  8
0
  5
31F7C
 10
616.200
 20
284.057
 30
0.000000
  70
    32
  0
VERTEX
  8
0
  5
31F7D
 10
616.368
 20
285.972
 30
0.000000
  70
    32
  0
VERTEX
  8
0
  5
31F7E
 10
616.484
 20
287.894
 30
0.000000
  70
    32
  0
VERTEX
  8
0
  5
31F7F
 10
616.548
 20
289.821
 30
0.000000
  70
    32
  0
VERTEX
  8
0
  5
31F80
 10
616.559
 20
291.750
 30
0.000000
  70
    32
  0
VERTEX
  8
0
  5
31F81
 10
616.517
 20
293.677
 30
0.000000
  70
    32
  0
VERTEX
  8
0
  5
31F82
 10
616.424
 20
295.602
 30
0.000000
  70
    32
  0
VERTEX
  8
0
  5
31F83
 10
616.278
 20
297.520
 30
0.000000
  70
    32
  0
VERTEX
  8
0
  5
31F84
 10
616.080
 20
299.429
 30
0.000000
  70
    32
  0
VERTEX
  8
0
  5
31F85
 10
615.830
 20
301.328
 30
0.000000
  70
    32
  0
VERTEX
  8
0
  5
31F86
 10
615.529
 20
303.212
 30
0.000000
  70
    32
  0
VERTEX
  8
0
  5
31F87
 10
615.177
 20
305.079
 30
0.000000
  70
    32
  0
VERTEX
  8
0
  5
31F88
 10
614.774
 20
306.928
 30
0.000000
  70
    32
  0
VERTEX
  8
0
  5
31F89
 10
614.321
 20
308.755
 30
0.000000
  70
    32
  0
VERTEX
  8
0
  5
31F8A
 10
613.819
 20
310.557
 30
0.000000
  70
    32
  0
VERTEX
  8
0
  5
31F8B
 10
613.269
 20
312.333
 30
0.000000
  70
    32
  0
VERTEX
  8
0
  5
31F8C
 10
612.670
 20
314.080
 30
0.000000
  70
    32
  0
VERTEX
  8
0
  5
31F8D
 10
612.025
 20
315.795
 30
0.000000
  70
    32
  0
VERTEX
  8
0
  5
31F8E
 10
611.333
 20
317.476
 30
0.000000
  70
    32
  0
VERTEX
  8
0
  5
31F8F
 10
610.596
 20
319.121
 30
0.000000
  70
    32
  0
VERTEX
  8
0
  5
31F90
 10
609.815
 20
320.727
 30
0.000000
  70
    32
  0
VERTEX
  8
0
  5
31F91
 10
608.991
 20
322.293
 30
0.000000
  70
    32
  0
VERTEX
  8
0
  5
31F92
 10
608.125
 20
323.815
 30
0.000000
  70
    32
  0
VERTEX
  8
0
  5
31F93
 10
607.218
 20
325.293
 30
0.000000
  70
    32
  0
VERTEX
  8
0
  5
31F94
 10
606.271
 20
326.724
 30
0.000000
  70
    32
  0
VERTEX
  8
0
  5
31F95
 10
605.286
 20
328.105
 30
0.000000
  70
    32
  0
VERTEX
  8
0
  5
31F96
 10
604.265
 20
329.436
 30
0.000000
  70
    32
  0
VERTEX
  8
0
  5
31F97
 10
603.208
 20
330.714
 30
0.000000
  70
    32
  0
VERTEX
  8
0
  5
31F98
 10
602.117
 20
331.937
 30
0.000000
  70
    32
  0
VERTEX
  8
0
  5
31F99
 10
600.993
 20
333.105
 30
0.000000
  70
    32
  0
VERTEX
  8
0
  5
31F9A
 10
599.839
 20
334.214
 30
0.000000
  70
    32
  0
VERTEX
  8
0
  5
31F9B
 10
598.655
 20
335.264
 30
0.000000
  70
    32
  0
VERTEX
  8
0
  5
31F9C
 10
597.443
 20
336.253
 30
0.000000
  70
    32
  0
VERTEX
  8
0
  5
31F9D
 10
596.205
 20
337.180
 30
0.000000
  70
    32
  0
VERTEX
  8
0
  5
31F9E
 10
594.943
 20
338.044
 30
0.000000
  70
    32
  0
VERTEX
  8
0
  5
31F9F
 10
593.659
 20
338.843
 30
0.000000
  70
    32
  0
VERTEX
  8
0
  5
31FA0
 10
592.353
 20
339.576
 30
0.000000
  70
    32
  0
VERTEX
  8
0
  5
31FA1
 10
591.029
 20
340.243
 30
0.000000
  70
    32
  0
VERTEX
  8
0
  5
31FA2
 10
589.687
 20
340.842
 30
0.000000
  70
    32
  0
VERTEX
  8
0
  5
31FA3
 10
588.330
 20
341.372
 30
0.000000
  70
    32
  0
VERTEX
  8
0
  5
31FA4
 10
586.960
 20
341.833
 30
0.000000
  70
    32
  0
VERTEX
  8
0
  5
31FA5
 10
585.578
 20
342.224
 30
0.000000
  70
    32
  0
VERTEX
  8
0
  5
31FA6
 10
584.186
 20
342.545
 30
0.000000
  70
    32
  0
VERTEX
  8
0
  5
31FA7
 10
582.787
 20
342.795
 30
0.000000
  70
    32
  0
VERTEX
  8
0
  5
31FA8
 10
581.381
 20
342.974
 30
0.000000
  70
    32
  0
VERTEX
  8
0
  5
31FA9
 10
579.972
 20
343.082
 30
0.000000
  70
    32
  0
VERTEX
  8
0
  5
31FAA
 10
578.561
 20
343.117
 30
0.000000
  70
    32
  0
VERTEX
  8
0
  5
31FAB
 10
577.150
 20
343.082
 30
0.000000
  70
    32
  0
VERTEX
  8
0
  5
31FAC
 10
575.740
 20
342.974
 30
0.000000
  70
    32
  0
VERTEX
  8
0
  5
31FAD
 10
574.335
 20
342.795
 30
0.000000
  70
    32
  0
VERTEX
  8
0
  5
31FAE
 10
572.936
 20
342.545
 30
0.000000
  70
    32
  0
VERTEX
  8
0
  5
31FAF
 10
571.544
 20
342.224
 30
0.000000
  70
    32
  0
VERTEX
  8
0
  5
31FB0
 10
570.162
 20
341.833
 30
0.000000
  70
    32
  0
VERTEX
  8
0
  5
31FB1
 10
568.791
 20
341.372
 30
0.000000
  70
    32
  0
VERTEX
  8
0
  5
31FB2
 10
567.434
 20
340.842
 30
0.000000
  70
    32
  0
VERTEX
  8
0
  5
31FB3
 10
566.093
 20
340.243
 30
0.000000
  70
    32
  0
VERTEX
  8
0
  5
31FB4
 10
564.768
 20
339.576
 30
0.000000
  70
    32
  0
VERTEX
  8
0
  5
31FB5
 10
563.463
 20
338.843
 30
0.000000
  70
    32
  0
VERTEX
  8
0
  5
31FB6
 10
562.178
 20
338.044
 30
0.000000
  70
    32
  0
VERTEX
  8
0
  5
31FB7
 10
560.916
 20
337.180
 30
0.000000
  70
    32
  0
VERTEX
  8
0
  5
31FB8
 10
559.678
 20
336.253
 30
0.000000
  70
    32
  0
VERTEX
  8
0
  5
31FB9
 10
558.467
 20
335.264
 30
0.000000
  70
    32
  0
VERTEX
  8
0
  5
31FBA
 10
557.283
 20
334.214
 30
0.000000
  70
    32
  0
VERTEX
  8
0
  5
31FBB
 10
556.128
 20
333.105
 30
0.000000
  70
    32
  0
VERTEX
  8
0
  5
31FBC
 10
555.005
 20
331.937
 30
0.000000
  70
    32
  0
VERTEX
  8
0
  5
31FBD
 10
553.914
 20
330.714
 30
0.000000
  70
    32
  0
VERTEX
  8
0
  5
31FBE
 10
552.857
 20
329.436
 30
0.000000
  70
    32
  0
VERTEX
  8
0
  5
31FBF
 10
551.835
 20
328.105
 30
0.000000
  70
    32
  0
VERTEX
  8
0
  5
31FC0
 10
550.850
 20
326.724
 30
0.000000
  70
    32
  0
VERTEX
  8
0
  5
31FC1
 10
549.904
 20
325.293
 30
0.000000
  70
    32
  0
VERTEX
  8
0
  5
31FC2
 10
548.997
 20
323.815
 30
0.000000
  70
    32
  0
VERTEX
  8
0
  5
31FC3
 10
548.131
 20
322.293
 30
0.000000
  70
    32
  0
VERTEX
  8
0
  5
31FC4
 10
547.306
 20
320.727
 30
0.000000
  70
    32
  0
VERTEX
  8
0
  5
31FC5
 10
546.525
 20
319.121
 30
0.000000
  70
    32
  0
VERTEX
  8
0
  5
31FC6
 10
545.788
 20
317.476
 30
0.000000
  70
    32
  0
VERTEX
  8
0
  5
31FC7
 10
545.097
 20
315.795
 30
0.000000
  70
    32
  0
VERTEX
  8
0
  5
31FC8
 10
544.451
 20
314.080
 30
0.000000
  70
    32
  0
VERTEX
  8
0
  5
31FC9
 10
543.853
 20
312.333
 30
0.000000
  70
    32
  0
VERTEX
  8
0
  5
31FCA
 10
543.302
 20
310.557
 30
0.000000
  70
    32
  0
VERTEX
  8
0
  5
31FCB
 10
542.800
 20
308.755
 30
0.000000
  70
    32
  0
VERTEX
  8
0
  5
31FCC
 10
542.348
 20
306.928
 30
0.000000
  70
    32
  0
VERTEX
  8
0
  5
31FCD
 10
541.945
 20
305.079
 30
0.000000
  70
    32
  0
VERTEX
  8
0
  5
31FCE
 10
541.593
 20
303.212
 30
0.000000
  70
    32
  0
VERTEX
  8
0
  5
31FCF
 10
541.292
 20
301.328
 30
0.000000
  70
    32
  0
VERTEX
  8
0
  5
31FD0
 10
541.042
 20
299.429
 30
0.000000
  70
    32
  0
VERTEX
  8
0
  5
31FD1
 10
540.844
 20
297.520
 30
0.000000
  70
    32
  0
VERTEX
  8
0
  5
31FD2
 10
540.698
 20
295.602
 30
0.000000
  70
    32
  0
VERTEX
  8
0
  5
31FD3
 10
540.604
 20
293.677
 30
0.000000
  70
    32
  0
VERTEX
  8
0
  5
31FD4
 10
540.563
 20
291.750
 30
0.000000
  70
    32
  0
VERTEX
  8
0
  5
31FD5
 10
540.574
 20
289.821
 30
0.000000
  70
    32
  0
VERTEX
  8
0
  5
31FD6
 10
540.638
 20
287.894
 30
0.000000
  70
    32
  0
VERTEX
  8
0
  5
31FD7
 10
540.753
 20
285.972
 30
0.000000
  70
    32
  0
VERTEX
  8
0
  5
31FD8
 10
540.921
 20
284.057
 30
0.000000
  70
    32
  0
VERTEX
  8
0
  5
31FD9
 10
541.141
 20
282.152
 30
0.000000
  70
    32
  0
VERTEX
  8
0
  5
31FDA
 10
541.413
 20
280.260
 30
0.000000
  70
    32
  0
VERTEX
  8
0
  5
31FDB
 10
541.736
 20
278.382
 30
0.000000
  70
    32
  0
VERTEX
  8
0
  5
31FDC
 10
542.109
 20
276.522
 30
0.000000
  70
    32
  0
VERTEX
  8
0
  5
31FDD
 10
542.533
 20
274.683
 30
0.000000
  70
    32
  0
VERTEX
  8
0
  5
31FDE
 10
543.007
 20
272.866
 30
0.000000
  70
    32
  0
VERTEX
  8
0
  5
31FDF
 10
543.529
 20
271.074
 30
0.000000
  70
    32
  0
VERTEX
  8
0
  5
31FE0
 10
544.100
 20
269.311
 30
0.000000
  70
    32
  0
VERTEX
  8
0
  5
31FE1
 10
544.719
 20
267.577
 30
0.000000
  70
    32
  0
VERTEX
  8
0
  5
31FE2
 10
545.384
 20
265.876
 30
0.000000
  70
    32
  0
VERTEX
  8
0
  5
31FE3
 10
546.095
 20
264.210
 30
0.000000
  70
    32
  0
VERTEX
  8
0
  5
31FE4
 10
546.850
 20
262.581
 30
0.000000
  70
    32
  0
VERTEX
  8
0
  5
31FE5
 10
547.650
 20
260.992
 30
0.000000
  70
    32
  0
VERTEX
  8
0
  5
31FE6
 10
548.492
 20
259.444
 30
0.000000
  70
    32
  0
VERTEX
  8
0
  5
31FE7
 10
549.376
 20
257.940
 30
0.000000
  70
    32
  0
VERTEX
  8
0
  5
31FE8
 10
550.299
 20
256.482
 30
0.000000
  70
    32
  0
VERTEX
  8
0
  5
31FE9
 10
551.262
 20
255.072
 30
0.000000
  70
    32
  0
VERTEX
  8
0
  5
31FEA
 10
552.263
 20
253.712
 30
0.000000
  70
    32
  0
SEQEND
  8
0
  5
31FEB
  0
LINE
  5
31BDE
  8
0
 10
601.06080562312206
 20
253.711632333605
 30
0.0
 11
604.85880800027462
 21
253.711632333605
 31
0.0
  0
POLYLINE
  5
31BE0
  8
0
 10
601.06080472905217
 20
254.55973571604227
 30
0.0
 66
     1
 70
     8
  0
VERTEX
  8
0
  5
31FEC
 10
601.061
 20
254.560
 30
0.000000
  70
    32
  0
VERTEX
  8
0
  5
31FED
 10
602.068
 20
255.760
 30
0.000000
  70
    32
  0
VERTEX
  8
0
  5
31FEE
 10
603.040
 20
257.012
 30
0.000000
  70
    32
  0
VERTEX
  8
0
  5
31FEF
 10
603.977
 20
258.313
 30
0.000000
  70
    32
  0
VERTEX
  8
0
  5
31FF0
 10
604.877
 20
259.663
 30
0.000000
  70
    32
  0
VERTEX
  8
0
  5
31FF1
 10
605.739
 20
261.058
 30
0.000000
  70
    32
  0
VERTEX
  8
0
  5
31FF2
 10
606.561
 20
262.498
 30
0.000000
  70
    32
  0
VERTEX
  8
0
  5
31FF3
 10
607.342
 20
263.979
 30
0.000000
  70
    32
  0
VERTEX
  8
0
  5
31FF4
 10
608.081
 20
265.500
 30
0.000000
  70
    32
  0
VERTEX
  8
0
  5
31FF5
 10
608.777
 20
267.058
 30
0.000000
  70
    32
  0
VERTEX
  8
0
  5
31FF6
 10
609.429
 20
268.652
 30
0.000000
  70
    32
  0
VERTEX
  8
0
  5
31FF7
 10
610.036
 20
270.278
 30
0.000000
  70
    32
  0
VERTEX
  8
0
  5
31FF8
 10
610.598
 20
271.935
 30
0.000000
  70
    32
  0
VERTEX
  8
0
  5
31FF9
 10
611.112
 20
273.620
 30
0.000000
  70
    32
  0
VERTEX
  8
0
  5
31FFA
 10
611.579
 20
275.330
 30
0.000000
  70
    32
  0
VERTEX
  8
0
  5
31FFB
 10
611.999
 20
277.064
 30
0.000000
  70
    32
  0
VERTEX
  8
0
  5
31FFC
 10
612.369
 20
278.818
 30
0.000000
  70
    32
  0
VERTEX
  8
0
  5
31FFD
 10
612.690
 20
280.590
 30
0.000000
  70
    32
  0
VERTEX
  8
0
  5
31FFE
 10
612.961
 20
282.378
 30
0.000000
  70
    32
  0
VERTEX
  8
0
  5
31FFF
 10
613.182
 20
284.179
 30
0.000000
  70
    32
  0
VERTEX
  8
0
  5
32000
 10
613.353
 20
285.989
 30
0.000000
  70
    32
  0
VERTEX
  8
0
  5
32001
 10
613.473
 20
287.808
 30
0.000000
  70
    32
  0
VERTEX
  8
0
  5
32002
 10
613.542
 20
289.631
 30
0.000000
  70
    32
  0
VERTEX
  8
0
  5
32003
 10
613.560
 20
291.457
 30
0.000000
  70
    32
  0
VERTEX
  8
0
  5
32004
 10
613.527
 20
293.282
 30
0.000000
  70
    32
  0
VERTEX
  8
0
  5
32005
 10
613.444
 20
295.104
 30
0.000000
  70
    32
  0
VERTEX
  8
0
  5
32006
 10
613.309
 20
296.920
 30
0.000000
  70
    32
  0
VERTEX
  8
0
  5
32007
 10
613.124
 20
298.729
 30
0.000000
  70
    32
  0
VERTEX
  8
0
  5
32008
 10
612.888
 20
300.526
 30
0.000000
  70
    32
  0
VERTEX
  8
0
  5
32009
 10
612.602
 20
302.309
 30
0.000000
  70
    32
  0
VERTEX
  8
0
  5
3200A
 10
612.267
 20
304.076
 30
0.000000
  70
    32
  0
VERTEX
  8
0
  5
3200B
 10
611.882
 20
305.825
 30
0.000000
  70
    32
  0
VERTEX
  8
0
  5
3200C
 10
611.450
 20
307.552
 30
0.000000
  70
    32
  0
VERTEX
  8
0
  5
3200D
 10
610.969
 20
309.256
 30
0.000000
  70
    32
  0
VERTEX
  8
0
  5
3200E
 10
610.440
 20
310.933
 30
0.000000
  70
    32
  0
VERTEX
  8
0
  5
3200F
 10
609.866
 20
312.581
 30
0.000000
  70
    32
  0
VERTEX
  8
0
  5
32010
 10
609.246
 20
314.198
 30
0.000000
  70
    32
  0
VERTEX
  8
0
  5
32011
 10
608.581
 20
315.782
 30
0.000000
  70
    32
  0
VERTEX
  8
0
  5
32012
 10
607.872
 20
317.329
 30
0.000000
  70
    32
  0
VERTEX
  8
0
  5
32013
 10
607.120
 20
318.839
 30
0.000000
  70
    32
  0
VERTEX
  8
0
  5
32014
 10
606.327
 20
320.308
 30
0.000000
  70
    32
  0
VERTEX
  8
0
  5
32015
 10
605.494
 20
321.735
 30
0.000000
  70
    32
  0
VERTEX
  8
0
  5
32016
 10
604.621
 20
323.118
 30
0.000000
  70
    32
  0
VERTEX
  8
0
  5
32017
 10
603.710
 20
324.454
 30
0.000000
  70
    32
  0
VERTEX
  8
0
  5
32018
 10
602.763
 20
325.741
 30
0.000000
  70
    32
  0
VERTEX
  8
0
  5
32019
 10
601.780
 20
326.978
 30
0.000000
  70
    32
  0
VERTEX
  8
0
  5
3201A
 10
600.764
 20
328.163
 30
0.000000
  70
    32
  0
VERTEX
  8
0
  5
3201B
 10
599.715
 20
329.294
 30
0.000000
  70
    32
  0
VERTEX
  8
0
  5
3201C
 10
598.635
 20
330.370
 30
0.000000
  70
    32
  0
VERTEX
  8
0
  5
3201D
 10
597.526
 20
331.388
 30
0.000000
  70
    32
  0
VERTEX
  8
0
  5
3201E
 10
596.390
 20
332.348
 30
0.000000
  70
    32
  0
VERTEX
  8
0
  5
3201F
 10
595.227
 20
333.248
 30
0.000000
  70
    32
  0
VERTEX
  8
0
  5
32020
 10
594.040
 20
334.086
 30
0.000000
  70
    32
  0
VERTEX
  8
0
  5
32021
 10
592.831
 20
334.862
 30
0.000000
  70
    32
  0
VERTEX
  8
0
  5
32022
 10
591.601
 20
335.575
 30
0.000000
  70
    32
  0
VERTEX
  8
0
  5
32023
 10
590.352
 20
336.223
 30
0.000000
  70
    32
  0
VERTEX
  8
0
  5
32024
 10
589.085
 20
336.805
 30
0.000000
  70
    32
  0
VERTEX
  8
0
  5
32025
 10
587.803
 20
337.320
 30
0.000000
  70
    32
  0
VERTEX
  8
0
  5
32026
 10
586.508
 20
337.769
 30
0.000000
  70
    32
  0
VERTEX
  8
0
  5
32027
 10
585.201
 20
338.149
 30
0.000000
  70
    32
  0
VERTEX
  8
0
  5
32028
 10
583.885
 20
338.462
 30
0.000000
  70
    32
  0
VERTEX
  8
0
  5
32029
 10
582.561
 20
338.705
 30
0.000000
  70
    32
  0
VERTEX
  8
0
  5
3202A
 10
581.231
 20
338.879
 30
0.000000
  70
    32
  0
VERTEX
  8
0
  5
3202B
 10
579.897
 20
338.983
 30
0.000000
  70
    32
  0
VERTEX
  8
0
  5
3202C
 10
578.561
 20
339.018
 30
0.000000
  70
    32
  0
VERTEX
  8
0
  5
3202D
 10
577.225
 20
338.983
 30
0.000000
  70
    32
  0
VERTEX
  8
0
  5
3202E
 10
575.891
 20
338.879
 30
0.000000
  70
    32
  0
VERTEX
  8
0
  5
3202F
 10
574.561
 20
338.705
 30
0.000000
  70
    32
  0
VERTEX
  8
0
  5
32030
 10
573.237
 20
338.462
 30
0.000000
  70
    32
  0
VERTEX
  8
0
  5
32031
 10
571.920
 20
338.149
 30
0.000000
  70
    32
  0
VERTEX
  8
0
  5
32032
 10
570.613
 20
337.769
 30
0.000000
  70
    32
  0
VERTEX
  8
0
  5
32033
 10
569.318
 20
337.320
 30
0.000000
  70
    32
  0
VERTEX
  8
0
  5
32034
 10
568.036
 20
336.805
 30
0.000000
  70
    32
  0
VERTEX
  8
0
  5
32035
 10
566.770
 20
336.223
 30
0.000000
  70
    32
  0
VERTEX
  8
0
  5
32036
 10
565.521
 20
335.575
 30
0.000000
  70
    32
  0
VERTEX
  8
0
  5
32037
 10
564.291
 20
334.862
 30
0.000000
  70
    32
  0
VERTEX
  8
0
  5
32038
 10
563.081
 20
334.086
 30
0.000000
  70
    32
  0
VERTEX
  8
0
  5
32039
 10
561.894
 20
333.248
 30
0.000000
  70
    32
  0
VERTEX
  8
0
  5
3203A
 10
560.732
 20
332.348
 30
0.000000
  70
    32
  0
VERTEX
  8
0
  5
3203B
 10
559.595
 20
331.388
 30
0.000000
  70
    32
  0
VERTEX
  8
0
  5
3203C
 10
558.486
 20
330.370
 30
0.000000
  70
    32
  0
VERTEX
  8
0
  5
3203D
 10
557.407
 20
329.294
 30
0.000000
  70
    32
  0
VERTEX
  8
0
  5
3203E
 10
556.358
 20
328.163
 30
0.000000
  70
    32
  0
VERTEX
  8
0
  5
3203F
 10
555.341
 20
326.978
 30
0.000000
  70
    32
  0
VERTEX
  8
0
  5
32040
 10
554.359
 20
325.741
 30
0.000000
  70
    32
  0
VERTEX
  8
0
  5
32041
 10
553.411
 20
324.454
 30
0.000000
  70
    32
  0
VERTEX
  8
0
  5
32042
 10
552.500
 20
323.118
 30
0.000000
  70
    32
  0
VERTEX
  8
0
  5
32043
 10
551.628
 20
321.735
 30
0.000000
  70
    32
  0
VERTEX
  8
0
  5
32044
 10
550.794
 20
320.308
 30
0.000000
  70
    32
  0
VERTEX
  8
0
  5
32045
 10
550.001
 20
318.839
 30
0.000000
  70
    32
  0
VERTEX
  8
0
  5
32046
 10
549.250
 20
317.329
 30
0.000000
  70
    32
  0
VERTEX
  8
0
  5
32047
 10
548.541
 20
315.782
 30
0.000000
  70
    32
  0
VERTEX
  8
0
  5
32048
 10
547.876
 20
314.198
 30
0.000000
  70
    32
  0
VERTEX
  8
0
  5
32049
 10
547.256
 20
312.581
 30
0.000000
  70
    32
  0
VERTEX
  8
0
  5
3204A
 10
546.681
 20
310.933
 30
0.000000
  70
    32
  0
VERTEX
  8
0
  5
3204B
 10
546.153
 20
309.256
 30
0.000000
  70
    32
  0
VERTEX
  8
0
  5
3204C
 10
545.672
 20
307.552
 30
0.000000
  70
    32
  0
VERTEX
  8
0
  5
3204D
 10
545.239
 20
305.825
 30
0.000000
  70
    32
  0
VERTEX
  8
0
  5
3204E
 10
544.855
 20
304.076
 30
0.000000
  70
    32
  0
VERTEX
  8
0
  5
3204F
 10
544.519
 20
302.309
 30
0.000000
  70
    32
  0
VERTEX
  8
0
  5
32050
 10
544.234
 20
300.526
 30
0.000000
  70
    32
  0
VERTEX
  8
0
  5
32051
 10
543.998
 20
298.729
 30
0.000000
  70
    32
  0
VERTEX
  8
0
  5
32052
 10
543.813
 20
296.920
 30
0.000000
  70
    32
  0
VERTEX
  8
0
  5
32053
 10
543.678
 20
295.104
 30
0.000000
  70
    32
  0
VERTEX
  8
0
  5
32054
 10
543.594
 20
293.282
 30
0.000000
  70
    32
  0
VERTEX
  8
0
  5
32055
 10
543.561
 20
291.457
 30
0.000000
  70
    32
  0
VERTEX
  8
0
  5
32056
 10
543.579
 20
289.631
 30
0.000000
  70
    32
  0
VERTEX
  8
0
  5
32057
 10
543.649
 20
287.808
 30
0.000000
  70
    32
  0
VERTEX
  8
0
  5
32058
 10
543.769
 20
285.989
 30
0.000000
  70
    32
  0
VERTEX
  8
0
  5
32059
 10
543.939
 20
284.179
 30
0.000000
  70
    32
  0
VERTEX
  8
0
  5
3205A
 10
544.160
 20
282.378
 30
0.000000
  70
    32
  0
VERTEX
  8
0
  5
3205B
 10
544.432
 20
280.590
 30
0.000000
  70
    32
  0
VERTEX
  8
0
  5
3205C
 10
544.753
 20
278.818
 30
0.000000
  70
    32
  0
VERTEX
  8
0
  5
3205D
 10
545.123
 20
277.064
 30
0.000000
  70
    32
  0
VERTEX
  8
0
  5
3205E
 10
545.542
 20
275.330
 30
0.000000
  70
    32
  0
VERTEX
  8
0
  5
3205F
 10
546.009
 20
273.620
 30
0.000000
  70
    32
  0
VERTEX
  8
0
  5
32060
 10
546.524
 20
271.935
 30
0.000000
  70
    32
  0
VERTEX
  8
0
  5
32061
 10
547.085
 20
270.278
 30
0.000000
  70
    32
  0
VERTEX
  8
0
  5
32062
 10
547.692
 20
268.652
 30
0.000000
  70
    32
  0
VERTEX
  8
0
  5
32063
 10
548.344
 20
267.058
 30
0.000000
  70
    32
  0
VERTEX
  8
0
  5
32064
 10
549.041
 20
265.500
 30
0.000000
  70
    32
  0
VERTEX
  8
0
  5
32065
 10
549.780
 20
263.979
 30
0.000000
  70
    32
  0
VERTEX
  8
0
  5
32066
 10
550.561
 20
262.498
 30
0.000000
  70
    32
  0
VERTEX
  8
0
  5
32067
 10
551.383
 20
261.058
 30
0.000000
  70
    32
  0
VERTEX
  8
0
  5
32068
 10
552.244
 20
259.663
 30
0.000000
  70
    32
  0
VERTEX
  8
0
  5
32069
 10
553.144
 20
258.313
 30
0.000000
  70
    32
  0
VERTEX
  8
0
  5
3206A
 10
554.081
 20
257.012
 30
0.000000
  70
    32
  0
VERTEX
  8
0
  5
3206B
 10
555.054
 20
255.760
 30
0.000000
  70
    32
  0
VERTEX
  8
0
  5
3206C
 10
556.061
 20
254.560
 30
0.000000
  70
    32
  0
SEQEND
  8
0
  5
3206D
  0
LINE
  5
31BE2
  8
0
 10
552.26280145783028
 20
253.711632333605
 30
0.0
 11
553.06080520588955
 21
252.81126785269231
 31
0.0
  0
LINE
  5
31BE3
  8
0
 10
604.06080425221535
 20
252.81126785269231
 30
0.0
 11
604.85880800027462
 21
253.711632333605
 31
0.0
  0
LINE
  5
31BE4
  8
0
 10
540.56080595094681
 20
347.11739688357562
 30
0.0
 11
616.56080350715638
 21
347.11739688357562
 31
0.0
  0
LINE
  5
31BE5
  8
0
 10
601.06080562312206
 20
327.82638340434278
 30
0.0
 11
601.06080562312206
 21
249.6173985972091
 31
0.0
  0
LINE
  5
31BE6
  8
0
 10
556.06080383498283
 20
327.82638340434278
 30
0.0
 11
556.06080383498283
 21
249.6173985972091
 31
0.0
  0
LINE
  5
31BE7
  8
0
 10
604.06080425221535
 20
249.6173985972091
 30
0.0
 11
604.06080425221535
 21
252.81126785269231
 31
0.0
  0
LINE
  5
31BE8
  8
0
 10
601.06080562312206
 20
249.6173985972091
 30
0.0
 11
604.06080425221535
 21
249.6173985972091
 31
0.0
  0
LINE
  5
31BEA
  8
0
 10
553.06080520588955
 20
249.6173985972091
 30
0.0
 11
556.06080383498283
 21
249.6173985972091
 31
0.0
  0
LINE
  5
31BEB
  8
0
 10
553.06080520588955
 20
249.6173985972091
 30
0.0
 11
553.06080520588955
 21
252.81126785269231
 31
0.0
  0
LINE
  5
31BED
  8
0
 10
597.56080472905285
 20
329.35458689173902
 30
0.0
 11
599.65659097272965
 21
329.35458689173902
 31
0.0
  0
LINE
  5
31BEE
  8
0
 10
557.46501848537525
 20
329.35458689173902
 30
0.0
 11
559.56080472905273
 21
329.35458689173902
 31
0.0
  0
LINE
  5
31BF0
  8
0
 10
560.02676723646914
 20
331.76221220931228
 30
0.0
 11
597.09484222163383
 21
331.76221220931228
 31
0.0
  0
LINE
  5
31BF2
  8
0
 10
559.56080472905273
 20
325.8048099203989
 30
0.0
 11
597.56080472905273
 21
325.8048099203989
 31
0.0
  0
LINE
  5
31BF4
  8
0
 10
563.96330433552293
 20
334.659988872616
 30
0.0
 11
593.15830512258003
 21
334.659988872616
 31
0.0
  0
LINE
  5
31BF6
  8
0
 10
609.80138533253285
 20
259.61739837369169
 30
0.0
 11
608.72723885316464
 21
259.61739837369169
 31
0.0
  0
POLYLINE
  5
31BF7
  8
0
 66
     1
 10
0.0
 20
0.0
 30
0.0
 70
   128
  0
VERTEX
  5
31F26
  8
0
 10
609.80138533253285
 20
259.61739837369169
 30
0.0
  0
VERTEX
  5
31F27
  8
0
 10
610.05969509918305
 20
256.68551970450432
 30
0.0
  0
VERTEX
  5
31F28
  8
0
 10
610.06080523569187
 20
256.48823182275743
 30
0.0
  0
SEQEND
  5
31F29
  8
0
  0
LINE
  5
31BF8
  8
0
 10
610.06080523569187
 20
256.48823182275743
 30
0.0
 11
609.80138533253285
 21
253.35906527182311
 31
0.0
  0
LINE
  5
31BF9
  8
0
 10
610.06080523569187
 20
253.35906527182311
 30
0.0
 11
604.54632319945904
 21
253.35906527182311
 31
0.0
  0
LINE
  5
31BFA
  8
0
 10
610.00293657619557
 20
262.0485570485726
 30
0.0
 11
609.80138533253285
 21
259.61739837369169
 31
0.0
  0
LINE
  5
31BFB
  8
0
 10
610.06080523569187
 20
253.35906527182311
 30
0.0
 11
610.06080523569187
 21
262.1503936796471
 31
0.0
  0
LINE
  5
31BFC
  8
0
 10
548.32022428948494
 20
253.35906527182311
 30
0.0
 11
548.0608043863258
 21
256.48823182275743
 31
0.0
  0
POLYLINE
  5
31BFD
  8
0
 66
     1
 10
0.0
 20
0.0
 30
0.0
 70
   128
  0
VERTEX
  5
31F2A
  8
0
 10
548.0608043863258
 20
256.48823182275743
 30
0.0
  0
VERTEX
  5
31F2B
  8
0
 10
548.06191452283474
 20
256.68551970450432
 30
0.0
  0
VERTEX
  5
31F2C
  8
0
 10
548.32022428948494
 20
259.61739837369169
 30
0.0
  0
SEQEND
  5
31F2D
  8
0
  0
LINE
  5
31BFE
  8
0
 10
548.39437060494026
 20
259.61739837369169
 30
0.0
 11
548.32022428948494
 21
259.61739837369169
 31
0.0
  0
LINE
  5
31BFF
  8
0
 10
552.57528625864586
 20
253.35906527182311
 30
0.0
 11
548.0608043863258
 21
253.35906527182311
 31
0.0
  0
LINE
  5
31C00
  8
0
 10
548.32022428948494
 20
259.61739837369169
 30
0.0
 11
548.29688348311993
 21
259.89893605294861
 31
0.0
  0
LINE
  5
31C01
  8
0
 10
548.0608043863258
 20
253.35906527182311
 30
0.0
 11
548.0608043863258
 21
260.22148283375651
 31
0.0
  0
LINE
  5
31C06
  8
0
 10
613.06080386478504
 20
256.38439843608262
 30
0.0
 11
613.06080386478504
 21
262.85039831130052
 31
0.0
  0
LINE
  5
31C07
  8
0
 10
612.29380384523483
 20
255.61739818370191
 30
0.0
 11
612.29380384523483
 21
263.61739856368149
 31
0.0
  0
LINE
  5
31C08
  8
0
 10
596.06080480355649
 20
203.1173993571619
 30
0.0
 11
596.06080480355831
 21
316.1173973902151
 31
0.0
  0
LINE
  5
31C0A
  8
0
 10
561.06080465454488
 20
203.11739935717509
 30
0.0
 11
561.0608046545467
 21
316.1173973902151
 31
0.0
  0
LINE
  5
31C0C
  8
0
 10
558.56080517608734
 20
278.9863784535807
 30
0.0
 11
558.56080517608734
 21
240.24841829380239
 31
0.0
  0
LINE
  5
31C0D
  8
0
 10
598.56080428201756
 20
240.24841829380239
 30
0.0
 11
598.56080428201756
 21
278.9863784535807
 31
0.0
  0
LINE
  5
31C11
  8
0
 10
592.53479239035278
 20
197.1173983736916
 30
0.0
 11
592.5347923903546
 21
322.1173983736914
 31
0.0
  0
LINE
  5
31C13
  8
0
 10
564.5868170677486
 20
197.11739837369171
 30
0.0
 11
564.58681706775042
 21
322.1173983736914
 31
0.0
  0
LINE
  5
31C17
  8
0
 10
110.76902385218089
 20
347.11739688357562
 30
0.0
 11
110.76902385218089
 21
291.19305952629298
 31
0.0
  0
LINE
  5
31C18
  8
0
 10
186.76902140839039
 20
291.19305952629298
 30
0.0
 11
186.76902140839039
 21
347.11739688357562
 31
0.0
  0
LINE
  5
31C19
  8
0
 10
112.3924532101864
 20
354.11739616831977
 30
0.0
 11
113.6267387436146
 21
347.11739688357562
 31
0.0
  0
LINE
  5
31C1A
  8
0
 10
183.9113065169567
 20
347.11739688357562
 30
0.0
 11
185.14559205038489
 21
354.11739616831977
 31
0.0
  0
LINE
  5
31C1B
  8
0
 10
128.76902307732229
 20
267.6173987536713
 30
0.0
 11
126.26902173621779
 21
267.6173987536713
 31
0.0
  0
LINE
  5
31C1C
  8
0
 10
126.26902173621779
 20
251.6173979937121
 30
0.0
 11
128.76902307732229
 21
251.6173979937121
 31
0.0
  0
LINE
  5
31C1D
  8
0
 10
171.26902352435721
 20
267.6173987536713
 30
0.0
 11
168.76902218325259
 21
267.6173987536713
 31
0.0
  0
LINE
  5
31C1E
  8
0
 10
168.76902218325259
 20
251.6173979937121
 30
0.0
 11
171.26902352435721
 21
251.6173979937121
 31
0.0
  0
LINE
  5
31C1F
  8
0
 10
115.0360235141052
 20
263.61739856368149
 30
0.0
 11
114.2690234945548
 21
262.85039831130052
 31
0.0
  0
LINE
  5
31C20
  8
0
 10
114.2690234945548
 20
256.38439843608262
 30
0.0
 11
115.0360235141052
 21
255.61739818370191
 31
0.0
  0
LINE
  5
31C21
  8
0
 10
117.269022123648
 20
263.61739856368149
 30
0.0
 11
115.0360235141052
 21
263.61739856368149
 31
0.0
  0
LINE
  5
31C22
  8
0
 10
115.0360235141052
 20
255.61739818370191
 30
0.0
 11
117.269022123648
 21
255.61739818370191
 31
0.0
  0
ARC
  5
31C23
  8
0
 10
134.79503525482141
 20
319.6173983736914
 30
0.0
 40
2.5000000000004881
 50
90.0
 51
165.00000000000421
  0
ARC
  5
31C24
  8
0
 10
134.79503525482141
 20
199.61739837369191
 30
0.0
 40
2.5000000000004881
 50
194.99999999999881
 51
269.99999999998698
  0
LINE
  5
31C25
  8
0
 10
162.7430102915896
 20
322.1173983736914
 30
0.0
 11
134.79503496898539
 21
322.1173983736914
 31
0.0
  0
LINE
  5
31C26
  8
0
 10
134.79503496898539
 20
197.11739837369171
 30
0.0
 11
162.7430102915896
 21
197.11739837369171
 31
0.0
  0
ARC
  5
31C27
  8
0
 10
162.74301000575181
 20
319.617398373691
 30
0.0
 40
2.5000000000004259
 50
15.000000000001069
 51
90.0
  0
ARC
  5
31C28
  8
0
 10
162.74301000575181
 20
199.61739837369191
 30
0.0
 40
2.5000000000003499
 50
270.0
 51
345.00000000000239
  0
LINE
  5
31C29
  8
0
 10
132.38022077245839
 20
320.26444642981733
 30
0.0
 11
131.2690225557817
 21
316.1173973902151
 31
0.0
  0
LINE
  5
31C2A
  8
0
 10
131.2690225557817
 20
203.1173993571683
 30
0.0
 11
132.38022077245839
 21
198.97035031756599
 31
0.0
  0
LINE
  5
31C2B
  8
0
 10
165.1578244881166
 20
198.97035031756599
 30
0.0
 11
166.26902270479329
 21
203.1173993571683
 31
0.0
  0
LINE
  5
31C2C
  8
0
 10
166.26902270479329
 20
316.1173973902151
 30
0.0
 11
165.1578244881166
 21
320.26444642981733
 31
0.0
  0
LINE
  5
31C2D
  8
0
 10
131.2690225557817
 20
279.11739877602309
 30
0.0
 11
128.76902307732229
 21
278.9863784535807
 31
0.0
  0
LINE
  5
31C2E
  8
0
 10
128.76902307732229
 20
240.24841829380239
 30
0.0
 11
131.2690225557817
 21
240.11739797136011
 31
0.0
  0
LINE
  5
31C2F
  8
0
 10
166.26902270479329
 20
240.11739797136011
 30
0.0
 11
168.76902218325259
 21
240.24841829380239
 31
0.0
  0
LINE
  5
31C30
  8
0
 10
168.76902218325259
 20
278.9863784535807
 30
0.0
 11
166.26902270479329
 21
279.11739877602309
 31
0.0
  0
LINE
  5
31C3C
  8
0
 10
173.76902300281651
 20
331.11740171155151
 30
0.0
 11
167.76902263028771
 21
331.11740171155151
 31
0.0
  0
LINE
  5
31C3D
  8
0
 10
129.76902263028771
 20
331.11740171155151
 30
0.0
 11
123.76902225775839
 21
331.11740171155151
 31
0.0
  0
LINE
  5
31C3E
  8
0
 10
174.26902215345029
 20
343.11739622792447
 30
0.0
 11
123.2690231071246
 21
343.11739622792447
 31
0.0
  0
LINE
  5
31C3F
  8
0
 10
123.76902225775839
 20
343.11739622792447
 30
0.0
 11
123.76902225775839
 21
318.11739771804059
 31
0.0
  0
LINE
  5
31C40
  8
0
 10
129.76902263028759
 20
329.35458689173902
 30
0.0
 11
126.26902173621779
 21
329.35458689173902
 31
0.0
  0
LINE
  5
31C41
  8
0
 10
126.26902173621779
 20
329.35458689173902
 30
0.0
 11
126.26902173621779
 21
318.11739771804059
 31
0.0
  0
LINE
  5
31C42
  8
0
 10
126.26902173621779
 20
318.11739771804059
 30
0.0
 11
123.76902225775839
 21
318.11739771804059
 31
0.0
  0
LINE
  5
31C44
  8
0
 10
173.76902300281651
 20
343.11739622792447
 30
0.0
 11
173.76902300281651
 21
318.11739771804059
 31
0.0
  0
LINE
  5
31C45
  8
0
 10
173.76902300281651
 20
318.11739771804059
 30
0.0
 11
171.26902352435721
 21
318.11739771804059
 31
0.0
  0
LINE
  5
31C46
  8
0
 10
171.26902352435721
 20
329.35458689173902
 30
0.0
 11
171.26902352435721
 21
318.11739771804059
 31
0.0
  0
LINE
  5
31C47
  8
0
 10
171.26902352435721
 20
329.35458689173902
 30
0.0
 11
167.76902263028771
 21
329.35458689173902
 31
0.0
  0
LINE
  5
31C49
  8
0
 10
126.26902173621779
 20
261.9026136788562
 30
0.0
 11
123.2690231071246
 21
261.9026136788562
 31
0.0
  0
LINE
  5
31C4A
  8
0
 10
126.26902173621779
 20
249.6173985972091
 30
0.0
 11
123.2690231071246
 21
249.6173985972091
 31
0.0
  0
LINE
  5
31C4C
  8
0
 10
174.26902215345029
 20
261.9026136788562
 30
0.0
 11
171.26902352435721
 21
261.9026136788562
 31
0.0
  0
LINE
  5
31C4E
  8
0
 10
174.26902215345029
 20
249.6173985972091
 30
0.0
 11
171.26902352435721
 21
249.6173985972091
 31
0.0
  0
LINE
  5
31C50
  8
0
 10
123.76902225775839
 20
341.29239886244949
 30
0.0
 11
123.2690231071246
 21
341.29239886244949
 31
0.0
  0
LINE
  5
31C51
  8
0
 10
123.2690231071246
 20
343.11739622792447
 30
0.0
 11
123.2690231071246
 21
249.6173985972091
 31
0.0
  0
LINE
  5
31C52
  8
0
 10
126.26902173621779
 20
249.6173985972091
 30
0.0
 11
126.26902173621779
 21
318.11739771804059
 31
0.0
  0
LINE
  5
31C53
  8
0
 10
174.26902215345029
 20
341.29239886244949
 30
0.0
 11
173.76902300281651
 21
341.29239886244949
 31
0.0
  0
LINE
  5
31C54
  8
0
 10
174.26902215345029
 20
343.11739622792447
 30
0.0
 11
174.26902215345029
 21
249.6173985972091
 31
0.0
  0
LINE
  5
31C55
  8
0
 10
171.26902352435721
 20
249.6173985972091
 30
0.0
 11
171.26902352435721
 21
318.11739771804059
 31
0.0
  0
LINE
  5
31C57
  8
0
 10
106.2690221832526
 20
354.11739616831977
 30
0.0
 11
191.26902307732229
 21
354.11739616831977
 31
0.0
  0
LINE
  5
31C58
  8
0
 10
106.2690221832526
 20
354.11739616831977
 30
0.0
 11
106.2690221832526
 21
358.11739682397092
 31
0.0
  0
LINE
  5
31C59
  8
0
 10
106.2690221832526
 20
358.11739682397092
 30
0.0
 11
191.26902307732229
 21
358.11739682397098
 31
0.0
  0
LINE
  5
31C5D
  8
0
 10
191.26902307732229
 20
354.11739616831977
 30
0.0
 11
191.26902307732229
 21
358.11739682397092
 31
0.0
  0
POLYLINE
  5
31C64
  8
0
 10
110.76902263028572
 20
291.19305867545427
 30
0.0
 66
     1
 70
     8
  0
VERTEX
  8
0
  5
3206E
 10
110.769
 20
291.193
 30
0.000000
  70
    32
  0
VERTEX
  8
0
  5
3206F
 10
110.769
 20
290.966
 30
0.000000
  70
    32
  0
VERTEX
  8
0
  5
32070
 10
110.770
 20
290.739
 30
0.000000
  70
    32
  0
VERTEX
  8
0
  5
32071
 10
110.772
 20
290.512
 30
0.000000
  70
    32
  0
VERTEX
  8
0
  5
32072
 10
110.775
 20
290.285
 30
0.000000
  70
    32
  0
VERTEX
  8
0
  5
32073
 10
110.778
 20
290.058
 30
0.000000
  70
    32
  0
VERTEX
  8
0
  5
32074
 10
110.782
 20
289.831
 30
0.000000
  70
    32
  0
VERTEX
  8
0
  5
32075
 10
110.787
 20
289.604
 30
0.000000
  70
    32
  0
VERTEX
  8
0
  5
32076
 10
110.792
 20
289.377
 30
0.000000
  70
    32
  0
VERTEX
  8
0
  5
32077
 10
110.798
 20
289.150
 30
0.000000
  70
    32
  0
VERTEX
  8
0
  5
32078
 10
110.805
 20
288.923
 30
0.000000
  70
    32
  0
VERTEX
  8
0
  5
32079
 10
110.813
 20
288.696
 30
0.000000
  70
    32
  0
VERTEX
  8
0
  5
3207A
 10
110.821
 20
288.469
 30
0.000000
  70
    32
  0
VERTEX
  8
0
  5
3207B
 10
110.830
 20
288.242
 30
0.000000
  70
    32
  0
VERTEX
  8
0
  5
3207C
 10
110.840
 20
288.015
 30
0.000000
  70
    32
  0
VERTEX
  8
0
  5
3207D
 10
110.851
 20
287.789
 30
0.000000
  70
    32
  0
VERTEX
  8
0
  5
3207E
 10
110.862
 20
287.562
 30
0.000000
  70
    32
  0
VERTEX
  8
0
  5
3207F
 10
110.874
 20
287.336
 30
0.000000
  70
    32
  0
VERTEX
  8
0
  5
32080
 10
110.887
 20
287.109
 30
0.000000
  70
    32
  0
VERTEX
  8
0
  5
32081
 10
110.900
 20
286.883
 30
0.000000
  70
    32
  0
VERTEX
  8
0
  5
32082
 10
110.914
 20
286.657
 30
0.000000
  70
    32
  0
VERTEX
  8
0
  5
32083
 10
110.929
 20
286.430
 30
0.000000
  70
    32
  0
VERTEX
  8
0
  5
32084
 10
110.945
 20
286.204
 30
0.000000
  70
    32
  0
VERTEX
  8
0
  5
32085
 10
110.961
 20
285.978
 30
0.000000
  70
    32
  0
VERTEX
  8
0
  5
32086
 10
110.978
 20
285.752
 30
0.000000
  70
    32
  0
VERTEX
  8
0
  5
32087
 10
110.996
 20
285.526
 30
0.000000
  70
    32
  0
VERTEX
  8
0
  5
32088
 10
111.014
 20
285.301
 30
0.000000
  70
    32
  0
VERTEX
  8
0
  5
32089
 10
111.034
 20
285.075
 30
0.000000
  70
    32
  0
VERTEX
  8
0
  5
3208A
 10
111.054
 20
284.850
 30
0.000000
  70
    32
  0
VERTEX
  8
0
  5
3208B
 10
111.074
 20
284.624
 30
0.000000
  70
    32
  0
VERTEX
  8
0
  5
3208C
 10
111.096
 20
284.399
 30
0.000000
  70
    32
  0
VERTEX
  8
0
  5
3208D
 10
111.118
 20
284.174
 30
0.000000
  70
    32
  0
VERTEX
  8
0
  5
3208E
 10
111.141
 20
283.949
 30
0.000000
  70
    32
  0
VERTEX
  8
0
  5
3208F
 10
111.164
 20
283.724
 30
0.000000
  70
    32
  0
VERTEX
  8
0
  5
32090
 10
111.188
 20
283.500
 30
0.000000
  70
    32
  0
VERTEX
  8
0
  5
32091
 10
111.213
 20
283.275
 30
0.000000
  70
    32
  0
VERTEX
  8
0
  5
32092
 10
111.239
 20
283.051
 30
0.000000
  70
    32
  0
VERTEX
  8
0
  5
32093
 10
111.266
 20
282.826
 30
0.000000
  70
    32
  0
VERTEX
  8
0
  5
32094
 10
111.293
 20
282.602
 30
0.000000
  70
    32
  0
VERTEX
  8
0
  5
32095
 10
111.321
 20
282.378
 30
0.000000
  70
    32
  0
VERTEX
  8
0
  5
32096
 10
111.349
 20
282.155
 30
0.000000
  70
    32
  0
VERTEX
  8
0
  5
32097
 10
111.378
 20
281.931
 30
0.000000
  70
    32
  0
VERTEX
  8
0
  5
32098
 10
111.408
 20
281.708
 30
0.000000
  70
    32
  0
VERTEX
  8
0
  5
32099
 10
111.439
 20
281.485
 30
0.000000
  70
    32
  0
VERTEX
  8
0
  5
3209A
 10
111.471
 20
281.262
 30
0.000000
  70
    32
  0
VERTEX
  8
0
  5
3209B
 10
111.503
 20
281.039
 30
0.000000
  70
    32
  0
VERTEX
  8
0
  5
3209C
 10
111.536
 20
280.816
 30
0.000000
  70
    32
  0
VERTEX
  8
0
  5
3209D
 10
111.569
 20
280.594
 30
0.000000
  70
    32
  0
VERTEX
  8
0
  5
3209E
 10
111.603
 20
280.371
 30
0.000000
  70
    32
  0
VERTEX
  8
0
  5
3209F
 10
111.638
 20
280.149
 30
0.000000
  70
    32
  0
VERTEX
  8
0
  5
320A0
 10
111.674
 20
279.928
 30
0.000000
  70
    32
  0
VERTEX
  8
0
  5
320A1
 10
111.711
 20
279.706
 30
0.000000
  70
    32
  0
VERTEX
  8
0
  5
320A2
 10
111.748
 20
279.485
 30
0.000000
  70
    32
  0
VERTEX
  8
0
  5
320A3
 10
111.786
 20
279.263
 30
0.000000
  70
    32
  0
VERTEX
  8
0
  5
320A4
 10
111.824
 20
279.043
 30
0.000000
  70
    32
  0
VERTEX
  8
0
  5
320A5
 10
111.863
 20
278.822
 30
0.000000
  70
    32
  0
VERTEX
  8
0
  5
320A6
 10
111.903
 20
278.601
 30
0.000000
  70
    32
  0
VERTEX
  8
0
  5
320A7
 10
111.944
 20
278.381
 30
0.000000
  70
    32
  0
VERTEX
  8
0
  5
320A8
 10
111.985
 20
278.161
 30
0.000000
  70
    32
  0
VERTEX
  8
0
  5
320A9
 10
112.027
 20
277.941
 30
0.000000
  70
    32
  0
VERTEX
  8
0
  5
320AA
 10
112.070
 20
277.722
 30
0.000000
  70
    32
  0
VERTEX
  8
0
  5
320AB
 10
112.114
 20
277.503
 30
0.000000
  70
    32
  0
VERTEX
  8
0
  5
320AC
 10
112.158
 20
277.284
 30
0.000000
  70
    32
  0
VERTEX
  8
0
  5
320AD
 10
112.203
 20
277.065
 30
0.000000
  70
    32
  0
VERTEX
  8
0
  5
320AE
 10
112.248
 20
276.847
 30
0.000000
  70
    32
  0
VERTEX
  8
0
  5
320AF
 10
112.294
 20
276.629
 30
0.000000
  70
    32
  0
VERTEX
  8
0
  5
320B0
 10
112.341
 20
276.411
 30
0.000000
  70
    32
  0
VERTEX
  8
0
  5
320B1
 10
112.389
 20
276.193
 30
0.000000
  70
    32
  0
VERTEX
  8
0
  5
320B2
 10
112.437
 20
275.976
 30
0.000000
  70
    32
  0
VERTEX
  8
0
  5
320B3
 10
112.487
 20
275.759
 30
0.000000
  70
    32
  0
VERTEX
  8
0
  5
320B4
 10
112.536
 20
275.542
 30
0.000000
  70
    32
  0
VERTEX
  8
0
  5
320B5
 10
112.587
 20
275.326
 30
0.000000
  70
    32
  0
VERTEX
  8
0
  5
320B6
 10
112.638
 20
275.110
 30
0.000000
  70
    32
  0
VERTEX
  8
0
  5
320B7
 10
112.690
 20
274.894
 30
0.000000
  70
    32
  0
VERTEX
  8
0
  5
320B8
 10
112.742
 20
274.678
 30
0.000000
  70
    32
  0
VERTEX
  8
0
  5
320B9
 10
112.795
 20
274.463
 30
0.000000
  70
    32
  0
VERTEX
  8
0
  5
320BA
 10
112.849
 20
274.248
 30
0.000000
  70
    32
  0
VERTEX
  8
0
  5
320BB
 10
112.904
 20
274.034
 30
0.000000
  70
    32
  0
VERTEX
  8
0
  5
320BC
 10
112.959
 20
273.820
 30
0.000000
  70
    32
  0
VERTEX
  8
0
  5
320BD
 10
113.015
 20
273.606
 30
0.000000
  70
    32
  0
VERTEX
  8
0
  5
320BE
 10
113.072
 20
273.392
 30
0.000000
  70
    32
  0
VERTEX
  8
0
  5
320BF
 10
113.129
 20
273.179
 30
0.000000
  70
    32
  0
VERTEX
  8
0
  5
320C0
 10
113.187
 20
272.966
 30
0.000000
  70
    32
  0
VERTEX
  8
0
  5
320C1
 10
113.246
 20
272.754
 30
0.000000
  70
    32
  0
VERTEX
  8
0
  5
320C2
 10
113.305
 20
272.542
 30
0.000000
  70
    32
  0
VERTEX
  8
0
  5
320C3
 10
113.365
 20
272.330
 30
0.000000
  70
    32
  0
VERTEX
  8
0
  5
320C4
 10
113.426
 20
272.119
 30
0.000000
  70
    32
  0
VERTEX
  8
0
  5
320C5
 10
113.487
 20
271.907
 30
0.000000
  70
    32
  0
VERTEX
  8
0
  5
320C6
 10
113.549
 20
271.697
 30
0.000000
  70
    32
  0
VERTEX
  8
0
  5
320C7
 10
113.612
 20
271.486
 30
0.000000
  70
    32
  0
VERTEX
  8
0
  5
320C8
 10
113.676
 20
271.277
 30
0.000000
  70
    32
  0
VERTEX
  8
0
  5
320C9
 10
113.740
 20
271.067
 30
0.000000
  70
    32
  0
VERTEX
  8
0
  5
320CA
 10
113.804
 20
270.858
 30
0.000000
  70
    32
  0
VERTEX
  8
0
  5
320CB
 10
113.870
 20
270.649
 30
0.000000
  70
    32
  0
VERTEX
  8
0
  5
320CC
 10
113.936
 20
270.441
 30
0.000000
  70
    32
  0
VERTEX
  8
0
  5
320CD
 10
114.003
 20
270.233
 30
0.000000
  70
    32
  0
VERTEX
  8
0
  5
320CE
 10
114.070
 20
270.025
 30
0.000000
  70
    32
  0
VERTEX
  8
0
  5
320CF
 10
114.138
 20
269.818
 30
0.000000
  70
    32
  0
VERTEX
  8
0
  5
320D0
 10
114.207
 20
269.611
 30
0.000000
  70
    32
  0
VERTEX
  8
0
  5
320D1
 10
114.276
 20
269.405
 30
0.000000
  70
    32
  0
VERTEX
  8
0
  5
320D2
 10
114.346
 20
269.199
 30
0.000000
  70
    32
  0
VERTEX
  8
0
  5
320D3
 10
114.417
 20
268.993
 30
0.000000
  70
    32
  0
VERTEX
  8
0
  5
320D4
 10
114.489
 20
268.788
 30
0.000000
  70
    32
  0
VERTEX
  8
0
  5
320D5
 10
114.561
 20
268.584
 30
0.000000
  70
    32
  0
VERTEX
  8
0
  5
320D6
 10
114.633
 20
268.379
 30
0.000000
  70
    32
  0
VERTEX
  8
0
  5
320D7
 10
114.707
 20
268.175
 30
0.000000
  70
    32
  0
VERTEX
  8
0
  5
320D8
 10
114.781
 20
267.972
 30
0.000000
  70
    32
  0
VERTEX
  8
0
  5
320D9
 10
114.855
 20
267.769
 30
0.000000
  70
    32
  0
VERTEX
  8
0
  5
320DA
 10
114.931
 20
267.567
 30
0.000000
  70
    32
  0
VERTEX
  8
0
  5
320DB
 10
115.007
 20
267.365
 30
0.000000
  70
    32
  0
VERTEX
  8
0
  5
320DC
 10
115.083
 20
267.163
 30
0.000000
  70
    32
  0
VERTEX
  8
0
  5
320DD
 10
115.160
 20
266.962
 30
0.000000
  70
    32
  0
VERTEX
  8
0
  5
320DE
 10
115.238
 20
266.761
 30
0.000000
  70
    32
  0
VERTEX
  8
0
  5
320DF
 10
115.317
 20
266.561
 30
0.000000
  70
    32
  0
VERTEX
  8
0
  5
320E0
 10
115.396
 20
266.362
 30
0.000000
  70
    32
  0
VERTEX
  8
0
  5
320E1
 10
115.476
 20
266.162
 30
0.000000
  70
    32
  0
VERTEX
  8
0
  5
320E2
 10
115.556
 20
265.964
 30
0.000000
  70
    32
  0
VERTEX
  8
0
  5
320E3
 10
115.637
 20
265.765
 30
0.000000
  70
    32
  0
VERTEX
  8
0
  5
320E4
 10
115.719
 20
265.568
 30
0.000000
  70
    32
  0
VERTEX
  8
0
  5
320E5
 10
115.801
 20
265.370
 30
0.000000
  70
    32
  0
VERTEX
  8
0
  5
320E6
 10
115.884
 20
265.173
 30
0.000000
  70
    32
  0
VERTEX
  8
0
  5
320E7
 10
115.968
 20
264.977
 30
0.000000
  70
    32
  0
VERTEX
  8
0
  5
320E8
 10
116.052
 20
264.781
 30
0.000000
  70
    32
  0
VERTEX
  8
0
  5
320E9
 10
116.137
 20
264.586
 30
0.000000
  70
    32
  0
VERTEX
  8
0
  5
320EA
 10
116.223
 20
264.391
 30
0.000000
  70
    32
  0
VERTEX
  8
0
  5
320EB
 10
116.309
 20
264.197
 30
0.000000
  70
    32
  0
VERTEX
  8
0
  5
320EC
 10
116.395
 20
264.003
 30
0.000000
  70
    32
  0
VERTEX
  8
0
  5
320ED
 10
116.483
 20
263.810
 30
0.000000
  70
    32
  0
VERTEX
  8
0
  5
320EE
 10
116.571
 20
263.617
 30
0.000000
  70
    32
  0
SEQEND
  8
0
  5
320EF
  0
POLYLINE
  5
31C65
  8
0
 10
179.26902263028609
 20
260.22148280671661
 30
0.0
 66
     1
 70
     8
  0
VERTEX
  8
0
  5
320F0
 10
179.269
 20
260.221
 30
0.000000
  70
    32
  0
VERTEX
  8
0
  5
320F1
 10
179.382
 20
260.430
 30
0.000000
  70
    32
  0
VERTEX
  8
0
  5
320F2
 10
179.494
 20
260.639
 30
0.000000
  70
    32
  0
VERTEX
  8
0
  5
320F3
 10
179.605
 20
260.849
 30
0.000000
  70
    32
  0
VERTEX
  8
0
  5
320F4
 10
179.716
 20
261.060
 30
0.000000
  70
    32
  0
VERTEX
  8
0
  5
320F5
 10
179.825
 20
261.271
 30
0.000000
  70
    32
  0
VERTEX
  8
0
  5
320F6
 10
179.934
 20
261.484
 30
0.000000
  70
    32
  0
VERTEX
  8
0
  5
320F7
 10
180.042
 20
261.697
 30
0.000000
  70
    32
  0
VERTEX
  8
0
  5
320F8
 10
180.150
 20
261.910
 30
0.000000
  70
    32
  0
VERTEX
  8
0
  5
320F9
 10
180.256
 20
262.125
 30
0.000000
  70
    32
  0
VERTEX
  8
0
  5
320FA
 10
180.362
 20
262.340
 30
0.000000
  70
    32
  0
VERTEX
  8
0
  5
320FB
 10
180.467
 20
262.556
 30
0.000000
  70
    32
  0
VERTEX
  8
0
  5
320FC
 10
180.572
 20
262.773
 30
0.000000
  70
    32
  0
VERTEX
  8
0
  5
320FD
 10
180.675
 20
262.990
 30
0.000000
  70
    32
  0
VERTEX
  8
0
  5
320FE
 10
180.778
 20
263.208
 30
0.000000
  70
    32
  0
VERTEX
  8
0
  5
320FF
 10
180.880
 20
263.427
 30
0.000000
  70
    32
  0
VERTEX
  8
0
  5
32100
 10
180.981
 20
263.646
 30
0.000000
  70
    32
  0
VERTEX
  8
0
  5
32101
 10
181.081
 20
263.866
 30
0.000000
  70
    32
  0
VERTEX
  8
0
  5
32102
 10
181.180
 20
264.087
 30
0.000000
  70
    32
  0
VERTEX
  8
0
  5
32103
 10
181.279
 20
264.308
 30
0.000000
  70
    32
  0
VERTEX
  8
0
  5
32104
 10
181.377
 20
264.531
 30
0.000000
  70
    32
  0
VERTEX
  8
0
  5
32105
 10
181.474
 20
264.753
 30
0.000000
  70
    32
  0
VERTEX
  8
0
  5
32106
 10
181.570
 20
264.977
 30
0.000000
  70
    32
  0
VERTEX
  8
0
  5
32107
 10
181.665
 20
265.201
 30
0.000000
  70
    32
  0
VERTEX
  8
0
  5
32108
 10
181.760
 20
265.426
 30
0.000000
  70
    32
  0
VERTEX
  8
0
  5
32109
 10
181.854
 20
265.651
 30
0.000000
  70
    32
  0
VERTEX
  8
0
  5
3210A
 10
181.947
 20
265.877
 30
0.000000
  70
    32
  0
VERTEX
  8
0
  5
3210B
 10
182.039
 20
266.104
 30
0.000000
  70
    32
  0
VERTEX
  8
0
  5
3210C
 10
182.130
 20
266.331
 30
0.000000
  70
    32
  0
VERTEX
  8
0
  5
3210D
 10
182.220
 20
266.559
 30
0.000000
  70
    32
  0
VERTEX
  8
0
  5
3210E
 10
182.310
 20
266.788
 30
0.000000
  70
    32
  0
VERTEX
  8
0
  5
3210F
 10
182.399
 20
267.017
 30
0.000000
  70
    32
  0
VERTEX
  8
0
  5
32110
 10
182.487
 20
267.246
 30
0.000000
  70
    32
  0
VERTEX
  8
0
  5
32111
 10
182.574
 20
267.477
 30
0.000000
  70
    32
  0
VERTEX
  8
0
  5
32112
 10
182.660
 20
267.708
 30
0.000000
  70
    32
  0
VERTEX
  8
0
  5
32113
 10
182.745
 20
267.939
 30
0.000000
  70
    32
  0
VERTEX
  8
0
  5
32114
 10
182.830
 20
268.171
 30
0.000000
  70
    32
  0
VERTEX
  8
0
  5
32115
 10
182.914
 20
268.404
 30
0.000000
  70
    32
  0
VERTEX
  8
0
  5
32116
 10
182.996
 20
268.637
 30
0.000000
  70
    32
  0
VERTEX
  8
0
  5
32117
 10
183.078
 20
268.871
 30
0.000000
  70
    32
  0
VERTEX
  8
0
  5
32118
 10
183.160
 20
269.105
 30
0.000000
  70
    32
  0
VERTEX
  8
0
  5
32119
 10
183.240
 20
269.340
 30
0.000000
  70
    32
  0
VERTEX
  8
0
  5
3211A
 10
183.319
 20
269.576
 30
0.000000
  70
    32
  0
VERTEX
  8
0
  5
3211B
 10
183.398
 20
269.812
 30
0.000000
  70
    32
  0
VERTEX
  8
0
  5
3211C
 10
183.476
 20
270.048
 30
0.000000
  70
    32
  0
VERTEX
  8
0
  5
3211D
 10
183.552
 20
270.285
 30
0.000000
  70
    32
  0
VERTEX
  8
0
  5
3211E
 10
183.628
 20
270.523
 30
0.000000
  70
    32
  0
VERTEX
  8
0
  5
3211F
 10
183.703
 20
270.761
 30
0.000000
  70
    32
  0
VERTEX
  8
0
  5
32120
 10
183.778
 20
271.000
 30
0.000000
  70
    32
  0
VERTEX
  8
0
  5
32121
 10
183.851
 20
271.239
 30
0.000000
  70
    32
  0
VERTEX
  8
0
  5
32122
 10
183.923
 20
271.478
 30
0.000000
  70
    32
  0
VERTEX
  8
0
  5
32123
 10
183.995
 20
271.718
 30
0.000000
  70
    32
  0
VERTEX
  8
0
  5
32124
 10
184.066
 20
271.959
 30
0.000000
  70
    32
  0
VERTEX
  8
0
  5
32125
 10
184.136
 20
272.200
 30
0.000000
  70
    32
  0
VERTEX
  8
0
  5
32126
 10
184.205
 20
272.442
 30
0.000000
  70
    32
  0
VERTEX
  8
0
  5
32127
 10
184.273
 20
272.684
 30
0.000000
  70
    32
  0
VERTEX
  8
0
  5
32128
 10
184.340
 20
272.926
 30
0.000000
  70
    32
  0
VERTEX
  8
0
  5
32129
 10
184.406
 20
273.169
 30
0.000000
  70
    32
  0
VERTEX
  8
0
  5
3212A
 10
184.472
 20
273.412
 30
0.000000
  70
    32
  0
VERTEX
  8
0
  5
3212B
 10
184.536
 20
273.656
 30
0.000000
  70
    32
  0
VERTEX
  8
0
  5
3212C
 10
184.600
 20
273.900
 30
0.000000
  70
    32
  0
VERTEX
  8
0
  5
3212D
 10
184.662
 20
274.145
 30
0.000000
  70
    32
  0
VERTEX
  8
0
  5
3212E
 10
184.724
 20
274.390
 30
0.000000
  70
    32
  0
VERTEX
  8
0
  5
3212F
 10
184.785
 20
274.636
 30
0.000000
  70
    32
  0
VERTEX
  8
0
  5
32130
 10
184.845
 20
274.882
 30
0.000000
  70
    32
  0
VERTEX
  8
0
  5
32131
 10
184.904
 20
275.128
 30
0.000000
  70
    32
  0
VERTEX
  8
0
  5
32132
 10
184.963
 20
275.375
 30
0.000000
  70
    32
  0
VERTEX
  8
0
  5
32133
 10
185.020
 20
275.622
 30
0.000000
  70
    32
  0
VERTEX
  8
0
  5
32134
 10
185.077
 20
275.869
 30
0.000000
  70
    32
  0
VERTEX
  8
0
  5
32135
 10
185.132
 20
276.117
 30
0.000000
  70
    32
  0
VERTEX
  8
0
  5
32136
 10
185.187
 20
276.365
 30
0.000000
  70
    32
  0
VERTEX
  8
0
  5
32137
 10
185.240
 20
276.614
 30
0.000000
  70
    32
  0
VERTEX
  8
0
  5
32138
 10
185.293
 20
276.863
 30
0.000000
  70
    32
  0
VERTEX
  8
0
  5
32139
 10
185.345
 20
277.112
 30
0.000000
  70
    32
  0
VERTEX
  8
0
  5
3213A
 10
185.396
 20
277.362
 30
0.000000
  70
    32
  0
VERTEX
  8
0
  5
3213B
 10
185.446
 20
277.612
 30
0.000000
  70
    32
  0
VERTEX
  8
0
  5
3213C
 10
185.495
 20
277.863
 30
0.000000
  70
    32
  0
VERTEX
  8
0
  5
3213D
 10
185.544
 20
278.113
 30
0.000000
  70
    32
  0
VERTEX
  8
0
  5
3213E
 10
185.591
 20
278.364
 30
0.000000
  70
    32
  0
VERTEX
  8
0
  5
3213F
 10
185.637
 20
278.616
 30
0.000000
  70
    32
  0
VERTEX
  8
0
  5
32140
 10
185.683
 20
278.867
 30
0.000000
  70
    32
  0
VERTEX
  8
0
  5
32141
 10
185.727
 20
279.119
 30
0.000000
  70
    32
  0
VERTEX
  8
0
  5
32142
 10
185.771
 20
279.372
 30
0.000000
  70
    32
  0
VERTEX
  8
0
  5
32143
 10
185.814
 20
279.624
 30
0.000000
  70
    32
  0
VERTEX
  8
0
  5
32144
 10
185.856
 20
279.877
 30
0.000000
  70
    32
  0
VERTEX
  8
0
  5
32145
 10
185.897
 20
280.130
 30
0.000000
  70
    32
  0
VERTEX
  8
0
  5
32146
 10
185.937
 20
280.384
 30
0.000000
  70
    32
  0
VERTEX
  8
0
  5
32147
 10
185.976
 20
280.638
 30
0.000000
  70
    32
  0
VERTEX
  8
0
  5
32148
 10
186.014
 20
280.892
 30
0.000000
  70
    32
  0
VERTEX
  8
0
  5
32149
 10
186.051
 20
281.146
 30
0.000000
  70
    32
  0
VERTEX
  8
0
  5
3214A
 10
186.087
 20
281.400
 30
0.000000
  70
    32
  0
VERTEX
  8
0
  5
3214B
 10
186.122
 20
281.655
 30
0.000000
  70
    32
  0
VERTEX
  8
0
  5
3214C
 10
186.157
 20
281.910
 30
0.000000
  70
    32
  0
VERTEX
  8
0
  5
3214D
 10
186.190
 20
282.165
 30
0.000000
  70
    32
  0
VERTEX
  8
0
  5
3214E
 10
186.223
 20
282.421
 30
0.000000
  70
    32
  0
VERTEX
  8
0
  5
3214F
 10
186.254
 20
282.676
 30
0.000000
  70
    32
  0
VERTEX
  8
0
  5
32150
 10
186.285
 20
282.932
 30
0.000000
  70
    32
  0
VERTEX
  8
0
  5
32151
 10
186.315
 20
283.188
 30
0.000000
  70
    32
  0
VERTEX
  8
0
  5
32152
 10
186.344
 20
283.444
 30
0.000000
  70
    32
  0
VERTEX
  8
0
  5
32153
 10
186.371
 20
283.701
 30
0.000000
  70
    32
  0
VERTEX
  8
0
  5
32154
 10
186.398
 20
283.957
 30
0.000000
  70
    32
  0
VERTEX
  8
0
  5
32155
 10
186.424
 20
284.214
 30
0.000000
  70
    32
  0
VERTEX
  8
0
  5
32156
 10
186.449
 20
284.471
 30
0.000000
  70
    32
  0
VERTEX
  8
0
  5
32157
 10
186.473
 20
284.728
 30
0.000000
  70
    32
  0
VERTEX
  8
0
  5
32158
 10
186.497
 20
284.986
 30
0.000000
  70
    32
  0
VERTEX
  8
0
  5
32159
 10
186.519
 20
285.243
 30
0.000000
  70
    32
  0
VERTEX
  8
0
  5
3215A
 10
186.540
 20
285.501
 30
0.000000
  70
    32
  0
VERTEX
  8
0
  5
3215B
 10
186.560
 20
285.759
 30
0.000000
  70
    32
  0
VERTEX
  8
0
  5
3215C
 10
186.580
 20
286.017
 30
0.000000
  70
    32
  0
VERTEX
  8
0
  5
3215D
 10
186.598
 20
286.275
 30
0.000000
  70
    32
  0
VERTEX
  8
0
  5
3215E
 10
186.616
 20
286.533
 30
0.000000
  70
    32
  0
VERTEX
  8
0
  5
3215F
 10
186.632
 20
286.791
 30
0.000000
  70
    32
  0
VERTEX
  8
0
  5
32160
 10
186.648
 20
287.049
 30
0.000000
  70
    32
  0
VERTEX
  8
0
  5
32161
 10
186.662
 20
287.308
 30
0.000000
  70
    32
  0
VERTEX
  8
0
  5
32162
 10
186.676
 20
287.566
 30
0.000000
  70
    32
  0
VERTEX
  8
0
  5
32163
 10
186.689
 20
287.825
 30
0.000000
  70
    32
  0
VERTEX
  8
0
  5
32164
 10
186.701
 20
288.084
 30
0.000000
  70
    32
  0
VERTEX
  8
0
  5
32165
 10
186.712
 20
288.343
 30
0.000000
  70
    32
  0
VERTEX
  8
0
  5
32166
 10
186.722
 20
288.602
 30
0.000000
  70
    32
  0
VERTEX
  8
0
  5
32167
 10
186.731
 20
288.861
 30
0.000000
  70
    32
  0
VERTEX
  8
0
  5
32168
 10
186.739
 20
289.120
 30
0.000000
  70
    32
  0
VERTEX
  8
0
  5
32169
 10
186.746
 20
289.379
 30
0.000000
  70
    32
  0
VERTEX
  8
0
  5
3216A
 10
186.752
 20
289.638
 30
0.000000
  70
    32
  0
VERTEX
  8
0
  5
3216B
 10
186.757
 20
289.897
 30
0.000000
  70
    32
  0
VERTEX
  8
0
  5
3216C
 10
186.761
 20
290.156
 30
0.000000
  70
    32
  0
VERTEX
  8
0
  5
3216D
 10
186.765
 20
290.415
 30
0.000000
  70
    32
  0
VERTEX
  8
0
  5
3216E
 10
186.767
 20
290.675
 30
0.000000
  70
    32
  0
VERTEX
  8
0
  5
3216F
 10
186.769
 20
290.934
 30
0.000000
  70
    32
  0
VERTEX
  8
0
  5
32170
 10
186.769
 20
291.193
 30
0.000000
  70
    32
  0
SEQEND
  8
0
  5
32171
  0
LINE
  5
31C66
  8
0
 10
174.75454110069401
 20
253.35906527182311
 30
0.0
 11
174.26902215345029
 21
252.81126785269231
 31
0.0
  0
LINE
  5
31C67
  8
0
 10
123.26902310712281
 20
252.81126785269231
 30
0.0
 11
122.78350415988091
 21
253.35906527182311
 31
0.0
  0
LINE
  5
31C68
  8
0
 10
110.76902385218089
 20
347.11739688357562
 30
0.0
 11
186.76902140839039
 21
347.11739688357562
 31
0.0
  0
POLYLINE
  5
31C69
  8
0
 10
171.26902263028569
 20
327.82638163486604
 30
0.0
 66
     1
 70
     8
  0
VERTEX
  8
0
  5
32172
 10
171.269
 20
327.826
 30
0.000000
  70
    32
  0
VERTEX
  8
0
  5
32173
 10
171.258
 20
327.839
 30
0.000000
  70
    32
  0
VERTEX
  8
0
  5
32174
 10
171.248
 20
327.851
 30
0.000000
  70
    32
  0
VERTEX
  8
0
  5
32175
 10
171.237
 20
327.863
 30
0.000000
  70
    32
  0
VERTEX
  8
0
  5
32176
 10
171.226
 20
327.876
 30
0.000000
  70
    32
  0
VERTEX
  8
0
  5
32177
 10
171.215
 20
327.888
 30
0.000000
  70
    32
  0
VERTEX
  8
0
  5
32178
 10
171.204
 20
327.900
 30
0.000000
  70
    32
  0
VERTEX
  8
0
  5
32179
 10
171.194
 20
327.912
 30
0.000000
  70
    32
  0
VERTEX
  8
0
  5
3217A
 10
171.183
 20
327.925
 30
0.000000
  70
    32
  0
VERTEX
  8
0
  5
3217B
 10
171.172
 20
327.937
 30
0.000000
  70
    32
  0
VERTEX
  8
0
  5
3217C
 10
171.161
 20
327.949
 30
0.000000
  70
    32
  0
VERTEX
  8
0
  5
3217D
 10
171.151
 20
327.962
 30
0.000000
  70
    32
  0
VERTEX
  8
0
  5
3217E
 10
171.140
 20
327.974
 30
0.000000
  70
    32
  0
VERTEX
  8
0
  5
3217F
 10
171.129
 20
327.986
 30
0.000000
  70
    32
  0
VERTEX
  8
0
  5
32180
 10
171.118
 20
327.998
 30
0.000000
  70
    32
  0
VERTEX
  8
0
  5
32181
 10
171.107
 20
328.011
 30
0.000000
  70
    32
  0
VERTEX
  8
0
  5
32182
 10
171.097
 20
328.023
 30
0.000000
  70
    32
  0
VERTEX
  8
0
  5
32183
 10
171.086
 20
328.035
 30
0.000000
  70
    32
  0
VERTEX
  8
0
  5
32184
 10
171.075
 20
328.047
 30
0.000000
  70
    32
  0
VERTEX
  8
0
  5
32185
 10
171.064
 20
328.059
 30
0.000000
  70
    32
  0
VERTEX
  8
0
  5
32186
 10
171.053
 20
328.072
 30
0.000000
  70
    32
  0
VERTEX
  8
0
  5
32187
 10
171.043
 20
328.084
 30
0.000000
  70
    32
  0
VERTEX
  8
0
  5
32188
 10
171.032
 20
328.096
 30
0.000000
  70
    32
  0
VERTEX
  8
0
  5
32189
 10
171.021
 20
328.108
 30
0.000000
  70
    32
  0
VERTEX
  8
0
  5
3218A
 10
171.010
 20
328.120
 30
0.000000
  70
    32
  0
VERTEX
  8
0
  5
3218B
 10
170.999
 20
328.133
 30
0.000000
  70
    32
  0
VERTEX
  8
0
  5
3218C
 10
170.988
 20
328.145
 30
0.000000
  70
    32
  0
VERTEX
  8
0
  5
3218D
 10
170.978
 20
328.157
 30
0.000000
  70
    32
  0
VERTEX
  8
0
  5
3218E
 10
170.967
 20
328.169
 30
0.000000
  70
    32
  0
VERTEX
  8
0
  5
3218F
 10
170.956
 20
328.181
 30
0.000000
  70
    32
  0
VERTEX
  8
0
  5
32190
 10
170.945
 20
328.193
 30
0.000000
  70
    32
  0
VERTEX
  8
0
  5
32191
 10
170.934
 20
328.205
 30
0.000000
  70
    32
  0
VERTEX
  8
0
  5
32192
 10
170.923
 20
328.218
 30
0.000000
  70
    32
  0
VERTEX
  8
0
  5
32193
 10
170.913
 20
328.230
 30
0.000000
  70
    32
  0
VERTEX
  8
0
  5
32194
 10
170.902
 20
328.242
 30
0.000000
  70
    32
  0
VERTEX
  8
0
  5
32195
 10
170.891
 20
328.254
 30
0.000000
  70
    32
  0
VERTEX
  8
0
  5
32196
 10
170.880
 20
328.266
 30
0.000000
  70
    32
  0
VERTEX
  8
0
  5
32197
 10
170.869
 20
328.278
 30
0.000000
  70
    32
  0
VERTEX
  8
0
  5
32198
 10
170.858
 20
328.290
 30
0.000000
  70
    32
  0
VERTEX
  8
0
  5
32199
 10
170.847
 20
328.302
 30
0.000000
  70
    32
  0
VERTEX
  8
0
  5
3219A
 10
170.836
 20
328.314
 30
0.000000
  70
    32
  0
VERTEX
  8
0
  5
3219B
 10
170.826
 20
328.327
 30
0.000000
  70
    32
  0
VERTEX
  8
0
  5
3219C
 10
170.815
 20
328.339
 30
0.000000
  70
    32
  0
VERTEX
  8
0
  5
3219D
 10
170.804
 20
328.351
 30
0.000000
  70
    32
  0
VERTEX
  8
0
  5
3219E
 10
170.793
 20
328.363
 30
0.000000
  70
    32
  0
VERTEX
  8
0
  5
3219F
 10
170.782
 20
328.375
 30
0.000000
  70
    32
  0
VERTEX
  8
0
  5
321A0
 10
170.771
 20
328.387
 30
0.000000
  70
    32
  0
VERTEX
  8
0
  5
321A1
 10
170.760
 20
328.399
 30
0.000000
  70
    32
  0
VERTEX
  8
0
  5
321A2
 10
170.749
 20
328.411
 30
0.000000
  70
    32
  0
VERTEX
  8
0
  5
321A3
 10
170.738
 20
328.423
 30
0.000000
  70
    32
  0
VERTEX
  8
0
  5
321A4
 10
170.727
 20
328.435
 30
0.000000
  70
    32
  0
VERTEX
  8
0
  5
321A5
 10
170.716
 20
328.447
 30
0.000000
  70
    32
  0
VERTEX
  8
0
  5
321A6
 10
170.705
 20
328.459
 30
0.000000
  70
    32
  0
VERTEX
  8
0
  5
321A7
 10
170.695
 20
328.471
 30
0.000000
  70
    32
  0
VERTEX
  8
0
  5
321A8
 10
170.684
 20
328.483
 30
0.000000
  70
    32
  0
VERTEX
  8
0
  5
321A9
 10
170.673
 20
328.495
 30
0.000000
  70
    32
  0
VERTEX
  8
0
  5
321AA
 10
170.662
 20
328.507
 30
0.000000
  70
    32
  0
VERTEX
  8
0
  5
321AB
 10
170.651
 20
328.519
 30
0.000000
  70
    32
  0
VERTEX
  8
0
  5
321AC
 10
170.640
 20
328.531
 30
0.000000
  70
    32
  0
VERTEX
  8
0
  5
321AD
 10
170.629
 20
328.543
 30
0.000000
  70
    32
  0
VERTEX
  8
0
  5
321AE
 10
170.618
 20
328.555
 30
0.000000
  70
    32
  0
VERTEX
  8
0
  5
321AF
 10
170.607
 20
328.567
 30
0.000000
  70
    32
  0
VERTEX
  8
0
  5
321B0
 10
170.596
 20
328.579
 30
0.000000
  70
    32
  0
VERTEX
  8
0
  5
321B1
 10
170.585
 20
328.591
 30
0.000000
  70
    32
  0
VERTEX
  8
0
  5
321B2
 10
170.574
 20
328.603
 30
0.000000
  70
    32
  0
VERTEX
  8
0
  5
321B3
 10
170.563
 20
328.615
 30
0.000000
  70
    32
  0
VERTEX
  8
0
  5
321B4
 10
170.552
 20
328.627
 30
0.000000
  70
    32
  0
VERTEX
  8
0
  5
321B5
 10
170.541
 20
328.639
 30
0.000000
  70
    32
  0
VERTEX
  8
0
  5
321B6
 10
170.530
 20
328.650
 30
0.000000
  70
    32
  0
VERTEX
  8
0
  5
321B7
 10
170.519
 20
328.662
 30
0.000000
  70
    32
  0
VERTEX
  8
0
  5
321B8
 10
170.508
 20
328.674
 30
0.000000
  70
    32
  0
VERTEX
  8
0
  5
321B9
 10
170.497
 20
328.686
 30
0.000000
  70
    32
  0
VERTEX
  8
0
  5
321BA
 10
170.486
 20
328.698
 30
0.000000
  70
    32
  0
VERTEX
  8
0
  5
321BB
 10
170.475
 20
328.710
 30
0.000000
  70
    32
  0
VERTEX
  8
0
  5
321BC
 10
170.464
 20
328.722
 30
0.000000
  70
    32
  0
VERTEX
  8
0
  5
321BD
 10
170.453
 20
328.734
 30
0.000000
  70
    32
  0
VERTEX
  8
0
  5
321BE
 10
170.442
 20
328.746
 30
0.000000
  70
    32
  0
VERTEX
  8
0
  5
321BF
 10
170.431
 20
328.758
 30
0.000000
  70
    32
  0
VERTEX
  8
0
  5
321C0
 10
170.420
 20
328.769
 30
0.000000
  70
    32
  0
VERTEX
  8
0
  5
321C1
 10
170.409
 20
328.781
 30
0.000000
  70
    32
  0
VERTEX
  8
0
  5
321C2
 10
170.398
 20
328.793
 30
0.000000
  70
    32
  0
VERTEX
  8
0
  5
321C3
 10
170.387
 20
328.805
 30
0.000000
  70
    32
  0
VERTEX
  8
0
  5
321C4
 10
170.376
 20
328.817
 30
0.000000
  70
    32
  0
VERTEX
  8
0
  5
321C5
 10
170.365
 20
328.829
 30
0.000000
  70
    32
  0
VERTEX
  8
0
  5
321C6
 10
170.354
 20
328.840
 30
0.000000
  70
    32
  0
VERTEX
  8
0
  5
321C7
 10
170.343
 20
328.852
 30
0.000000
  70
    32
  0
VERTEX
  8
0
  5
321C8
 10
170.332
 20
328.864
 30
0.000000
  70
    32
  0
VERTEX
  8
0
  5
321C9
 10
170.321
 20
328.876
 30
0.000000
  70
    32
  0
VERTEX
  8
0
  5
321CA
 10
170.310
 20
328.888
 30
0.000000
  70
    32
  0
VERTEX
  8
0
  5
321CB
 10
170.299
 20
328.899
 30
0.000000
  70
    32
  0
VERTEX
  8
0
  5
321CC
 10
170.288
 20
328.911
 30
0.000000
  70
    32
  0
VERTEX
  8
0
  5
321CD
 10
170.277
 20
328.923
 30
0.000000
  70
    32
  0
VERTEX
  8
0
  5
321CE
 10
170.266
 20
328.935
 30
0.000000
  70
    32
  0
VERTEX
  8
0
  5
321CF
 10
170.254
 20
328.947
 30
0.000000
  70
    32
  0
VERTEX
  8
0
  5
321D0
 10
170.243
 20
328.958
 30
0.000000
  70
    32
  0
VERTEX
  8
0
  5
321D1
 10
170.232
 20
328.970
 30
0.000000
  70
    32
  0
VERTEX
  8
0
  5
321D2
 10
170.221
 20
328.982
 30
0.000000
  70
    32
  0
VERTEX
  8
0
  5
321D3
 10
170.210
 20
328.994
 30
0.000000
  70
    32
  0
VERTEX
  8
0
  5
321D4
 10
170.199
 20
329.005
 30
0.000000
  70
    32
  0
VERTEX
  8
0
  5
321D5
 10
170.188
 20
329.017
 30
0.000000
  70
    32
  0
VERTEX
  8
0
  5
321D6
 10
170.177
 20
329.029
 30
0.000000
  70
    32
  0
VERTEX
  8
0
  5
321D7
 10
170.166
 20
329.040
 30
0.000000
  70
    32
  0
VERTEX
  8
0
  5
321D8
 10
170.155
 20
329.052
 30
0.000000
  70
    32
  0
VERTEX
  8
0
  5
321D9
 10
170.144
 20
329.064
 30
0.000000
  70
    32
  0
VERTEX
  8
0
  5
321DA
 10
170.132
 20
329.076
 30
0.000000
  70
    32
  0
VERTEX
  8
0
  5
321DB
 10
170.121
 20
329.087
 30
0.000000
  70
    32
  0
VERTEX
  8
0
  5
321DC
 10
170.110
 20
329.099
 30
0.000000
  70
    32
  0
VERTEX
  8
0
  5
321DD
 10
170.099
 20
329.111
 30
0.000000
  70
    32
  0
VERTEX
  8
0
  5
321DE
 10
170.088
 20
329.122
 30
0.000000
  70
    32
  0
VERTEX
  8
0
  5
321DF
 10
170.077
 20
329.134
 30
0.000000
  70
    32
  0
VERTEX
  8
0
  5
321E0
 10
170.066
 20
329.146
 30
0.000000
  70
    32
  0
VERTEX
  8
0
  5
321E1
 10
170.055
 20
329.157
 30
0.000000
  70
    32
  0
VERTEX
  8
0
  5
321E2
 10
170.043
 20
329.169
 30
0.000000
  70
    32
  0
VERTEX
  8
0
  5
321E3
 10
170.032
 20
329.181
 30
0.000000
  70
    32
  0
VERTEX
  8
0
  5
321E4
 10
170.021
 20
329.192
 30
0.000000
  70
    32
  0
VERTEX
  8
0
  5
321E5
 10
170.010
 20
329.204
 30
0.000000
  70
    32
  0
VERTEX
  8
0
  5
321E6
 10
169.999
 20
329.216
 30
0.000000
  70
    32
  0
VERTEX
  8
0
  5
321E7
 10
169.988
 20
329.227
 30
0.000000
  70
    32
  0
VERTEX
  8
0
  5
321E8
 10
169.977
 20
329.239
 30
0.000000
  70
    32
  0
VERTEX
  8
0
  5
321E9
 10
169.965
 20
329.250
 30
0.000000
  70
    32
  0
VERTEX
  8
0
  5
321EA
 10
169.954
 20
329.262
 30
0.000000
  70
    32
  0
VERTEX
  8
0
  5
321EB
 10
169.943
 20
329.274
 30
0.000000
  70
    32
  0
VERTEX
  8
0
  5
321EC
 10
169.932
 20
329.285
 30
0.000000
  70
    32
  0
VERTEX
  8
0
  5
321ED
 10
169.921
 20
329.297
 30
0.000000
  70
    32
  0
VERTEX
  8
0
  5
321EE
 10
169.910
 20
329.308
 30
0.000000
  70
    32
  0
VERTEX
  8
0
  5
321EF
 10
169.898
 20
329.320
 30
0.000000
  70
    32
  0
VERTEX
  8
0
  5
321F0
 10
169.887
 20
329.331
 30
0.000000
  70
    32
  0
VERTEX
  8
0
  5
321F1
 10
169.876
 20
329.343
 30
0.000000
  70
    32
  0
VERTEX
  8
0
  5
321F2
 10
169.865
 20
329.355
 30
0.000000
  70
    32
  0
SEQEND
  8
0
  5
321F3
  0
POLYLINE
  5
31C6A
  8
0
 10
127.67323628089741
 20
329.35458374071351
 30
0.0
 66
     1
 70
     8
  0
VERTEX
  8
0
  5
321F4
 10
127.673
 20
329.355
 30
0.000000
  70
    32
  0
VERTEX
  8
0
  5
321F5
 10
127.662
 20
329.343
 30
0.000000
  70
    32
  0
VERTEX
  8
0
  5
321F6
 10
127.651
 20
329.331
 30
0.000000
  70
    32
  0
VERTEX
  8
0
  5
321F7
 10
127.640
 20
329.320
 30
0.000000
  70
    32
  0
VERTEX
  8
0
  5
321F8
 10
127.628
 20
329.308
 30
0.000000
  70
    32
  0
VERTEX
  8
0
  5
321F9
 10
127.617
 20
329.297
 30
0.000000
  70
    32
  0
VERTEX
  8
0
  5
321FA
 10
127.606
 20
329.285
 30
0.000000
  70
    32
  0
VERTEX
  8
0
  5
321FB
 10
127.595
 20
329.274
 30
0.000000
  70
    32
  0
VERTEX
  8
0
  5
321FC
 10
127.584
 20
329.262
 30
0.000000
  70
    32
  0
VERTEX
  8
0
  5
321FD
 10
127.573
 20
329.250
 30
0.000000
  70
    32
  0
VERTEX
  8
0
  5
321FE
 10
127.561
 20
329.239
 30
0.000000
  70
    32
  0
VERTEX
  8
0
  5
321FF
 10
127.550
 20
329.227
 30
0.000000
  70
    32
  0
VERTEX
  8
0
  5
32200
 10
127.539
 20
329.216
 30
0.000000
  70
    32
  0
VERTEX
  8
0
  5
32201
 10
127.528
 20
329.204
 30
0.000000
  70
    32
  0
VERTEX
  8
0
  5
32202
 10
127.517
 20
329.192
 30
0.000000
  70
    32
  0
VERTEX
  8
0
  5
32203
 10
127.506
 20
329.181
 30
0.000000
  70
    32
  0
VERTEX
  8
0
  5
32204
 10
127.495
 20
329.169
 30
0.000000
  70
    32
  0
VERTEX
  8
0
  5
32205
 10
127.483
 20
329.157
 30
0.000000
  70
    32
  0
VERTEX
  8
0
  5
32206
 10
127.472
 20
329.146
 30
0.000000
  70
    32
  0
VERTEX
  8
0
  5
32207
 10
127.461
 20
329.134
 30
0.000000
  70
    32
  0
VERTEX
  8
0
  5
32208
 10
127.450
 20
329.122
 30
0.000000
  70
    32
  0
VERTEX
  8
0
  5
32209
 10
127.439
 20
329.111
 30
0.000000
  70
    32
  0
VERTEX
  8
0
  5
3220A
 10
127.428
 20
329.099
 30
0.000000
  70
    32
  0
VERTEX
  8
0
  5
3220B
 10
127.417
 20
329.087
 30
0.000000
  70
    32
  0
VERTEX
  8
0
  5
3220C
 10
127.406
 20
329.076
 30
0.000000
  70
    32
  0
VERTEX
  8
0
  5
3220D
 10
127.394
 20
329.064
 30
0.000000
  70
    32
  0
VERTEX
  8
0
  5
3220E
 10
127.383
 20
329.052
 30
0.000000
  70
    32
  0
VERTEX
  8
0
  5
3220F
 10
127.372
 20
329.040
 30
0.000000
  70
    32
  0
VERTEX
  8
0
  5
32210
 10
127.361
 20
329.029
 30
0.000000
  70
    32
  0
VERTEX
  8
0
  5
32211
 10
127.350
 20
329.017
 30
0.000000
  70
    32
  0
VERTEX
  8
0
  5
32212
 10
127.339
 20
329.005
 30
0.000000
  70
    32
  0
VERTEX
  8
0
  5
32213
 10
127.328
 20
328.994
 30
0.000000
  70
    32
  0
VERTEX
  8
0
  5
32214
 10
127.317
 20
328.982
 30
0.000000
  70
    32
  0
VERTEX
  8
0
  5
32215
 10
127.306
 20
328.970
 30
0.000000
  70
    32
  0
VERTEX
  8
0
  5
32216
 10
127.295
 20
328.958
 30
0.000000
  70
    32
  0
VERTEX
  8
0
  5
32217
 10
127.284
 20
328.947
 30
0.000000
  70
    32
  0
VERTEX
  8
0
  5
32218
 10
127.273
 20
328.935
 30
0.000000
  70
    32
  0
VERTEX
  8
0
  5
32219
 10
127.261
 20
328.923
 30
0.000000
  70
    32
  0
VERTEX
  8
0
  5
3221A
 10
127.250
 20
328.911
 30
0.000000
  70
    32
  0
VERTEX
  8
0
  5
3221B
 10
127.239
 20
328.899
 30
0.000000
  70
    32
  0
VERTEX
  8
0
  5
3221C
 10
127.228
 20
328.888
 30
0.000000
  70
    32
  0
VERTEX
  8
0
  5
3221D
 10
127.217
 20
328.876
 30
0.000000
  70
    32
  0
VERTEX
  8
0
  5
3221E
 10
127.206
 20
328.864
 30
0.000000
  70
    32
  0
VERTEX
  8
0
  5
3221F
 10
127.195
 20
328.852
 30
0.000000
  70
    32
  0
VERTEX
  8
0
  5
32220
 10
127.184
 20
328.840
 30
0.000000
  70
    32
  0
VERTEX
  8
0
  5
32221
 10
127.173
 20
328.829
 30
0.000000
  70
    32
  0
VERTEX
  8
0
  5
32222
 10
127.162
 20
328.817
 30
0.000000
  70
    32
  0
VERTEX
  8
0
  5
32223
 10
127.151
 20
328.805
 30
0.000000
  70
    32
  0
VERTEX
  8
0
  5
32224
 10
127.140
 20
328.793
 30
0.000000
  70
    32
  0
VERTEX
  8
0
  5
32225
 10
127.129
 20
328.781
 30
0.000000
  70
    32
  0
VERTEX
  8
0
  5
32226
 10
127.118
 20
328.769
 30
0.000000
  70
    32
  0
VERTEX
  8
0
  5
32227
 10
127.107
 20
328.758
 30
0.000000
  70
    32
  0
VERTEX
  8
0
  5
32228
 10
127.096
 20
328.746
 30
0.000000
  70
    32
  0
VERTEX
  8
0
  5
32229
 10
127.085
 20
328.734
 30
0.000000
  70
    32
  0
VERTEX
  8
0
  5
3222A
 10
127.074
 20
328.722
 30
0.000000
  70
    32
  0
VERTEX
  8
0
  5
3222B
 10
127.063
 20
328.710
 30
0.000000
  70
    32
  0
VERTEX
  8
0
  5
3222C
 10
127.052
 20
328.698
 30
0.000000
  70
    32
  0
VERTEX
  8
0
  5
3222D
 10
127.041
 20
328.686
 30
0.000000
  70
    32
  0
VERTEX
  8
0
  5
3222E
 10
127.030
 20
328.674
 30
0.000000
  70
    32
  0
VERTEX
  8
0
  5
3222F
 10
127.019
 20
328.662
 30
0.000000
  70
    32
  0
VERTEX
  8
0
  5
32230
 10
127.008
 20
328.650
 30
0.000000
  70
    32
  0
VERTEX
  8
0
  5
32231
 10
126.997
 20
328.639
 30
0.000000
  70
    32
  0
VERTEX
  8
0
  5
32232
 10
126.986
 20
328.627
 30
0.000000
  70
    32
  0
VERTEX
  8
0
  5
32233
 10
126.975
 20
328.615
 30
0.000000
  70
    32
  0
VERTEX
  8
0
  5
32234
 10
126.964
 20
328.603
 30
0.000000
  70
    32
  0
VERTEX
  8
0
  5
32235
 10
126.953
 20
328.591
 30
0.000000
  70
    32
  0
VERTEX
  8
0
  5
32236
 10
126.942
 20
328.579
 30
0.000000
  70
    32
  0
VERTEX
  8
0
  5
32237
 10
126.931
 20
328.567
 30
0.000000
  70
    32
  0
VERTEX
  8
0
  5
32238
 10
126.920
 20
328.555
 30
0.000000
  70
    32
  0
VERTEX
  8
0
  5
32239
 10
126.909
 20
328.543
 30
0.000000
  70
    32
  0
VERTEX
  8
0
  5
3223A
 10
126.898
 20
328.531
 30
0.000000
  70
    32
  0
VERTEX
  8
0
  5
3223B
 10
126.887
 20
328.519
 30
0.000000
  70
    32
  0
VERTEX
  8
0
  5
3223C
 10
126.876
 20
328.507
 30
0.000000
  70
    32
  0
VERTEX
  8
0
  5
3223D
 10
126.865
 20
328.495
 30
0.000000
  70
    32
  0
VERTEX
  8
0
  5
3223E
 10
126.854
 20
328.483
 30
0.000000
  70
    32
  0
VERTEX
  8
0
  5
3223F
 10
126.843
 20
328.471
 30
0.000000
  70
    32
  0
VERTEX
  8
0
  5
32240
 10
126.833
 20
328.459
 30
0.000000
  70
    32
  0
VERTEX
  8
0
  5
32241
 10
126.822
 20
328.447
 30
0.000000
  70
    32
  0
VERTEX
  8
0
  5
32242
 10
126.811
 20
328.435
 30
0.000000
  70
    32
  0
VERTEX
  8
0
  5
32243
 10
126.800
 20
328.423
 30
0.000000
  70
    32
  0
VERTEX
  8
0
  5
32244
 10
126.789
 20
328.411
 30
0.000000
  70
    32
  0
VERTEX
  8
0
  5
32245
 10
126.778
 20
328.399
 30
0.000000
  70
    32
  0
VERTEX
  8
0
  5
32246
 10
126.767
 20
328.387
 30
0.000000
  70
    32
  0
VERTEX
  8
0
  5
32247
 10
126.756
 20
328.375
 30
0.000000
  70
    32
  0
VERTEX
  8
0
  5
32248
 10
126.745
 20
328.363
 30
0.000000
  70
    32
  0
VERTEX
  8
0
  5
32249
 10
126.734
 20
328.351
 30
0.000000
  70
    32
  0
VERTEX
  8
0
  5
3224A
 10
126.723
 20
328.339
 30
0.000000
  70
    32
  0
VERTEX
  8
0
  5
3224B
 10
126.713
 20
328.327
 30
0.000000
  70
    32
  0
VERTEX
  8
0
  5
3224C
 10
126.702
 20
328.314
 30
0.000000
  70
    32
  0
VERTEX
  8
0
  5
3224D
 10
126.691
 20
328.302
 30
0.000000
  70
    32
  0
VERTEX
  8
0
  5
3224E
 10
126.680
 20
328.290
 30
0.000000
  70
    32
  0
VERTEX
  8
0
  5
3224F
 10
126.669
 20
328.278
 30
0.000000
  70
    32
  0
VERTEX
  8
0
  5
32250
 10
126.658
 20
328.266
 30
0.000000
  70
    32
  0
VERTEX
  8
0
  5
32251
 10
126.647
 20
328.254
 30
0.000000
  70
    32
  0
VERTEX
  8
0
  5
32252
 10
126.636
 20
328.242
 30
0.000000
  70
    32
  0
VERTEX
  8
0
  5
32253
 10
126.626
 20
328.230
 30
0.000000
  70
    32
  0
VERTEX
  8
0
  5
32254
 10
126.615
 20
328.218
 30
0.000000
  70
    32
  0
VERTEX
  8
0
  5
32255
 10
126.604
 20
328.205
 30
0.000000
  70
    32
  0
VERTEX
  8
0
  5
32256
 10
126.593
 20
328.193
 30
0.000000
  70
    32
  0
VERTEX
  8
0
  5
32257
 10
126.582
 20
328.181
 30
0.000000
  70
    32
  0
VERTEX
  8
0
  5
32258
 10
126.571
 20
328.169
 30
0.000000
  70
    32
  0
VERTEX
  8
0
  5
32259
 10
126.560
 20
328.157
 30
0.000000
  70
    32
  0
VERTEX
  8
0
  5
3225A
 10
126.550
 20
328.145
 30
0.000000
  70
    32
  0
VERTEX
  8
0
  5
3225B
 10
126.539
 20
328.133
 30
0.000000
  70
    32
  0
VERTEX
  8
0
  5
3225C
 10
126.528
 20
328.120
 30
0.000000
  70
    32
  0
VERTEX
  8
0
  5
3225D
 10
126.517
 20
328.108
 30
0.000000
  70
    32
  0
VERTEX
  8
0
  5
3225E
 10
126.506
 20
328.096
 30
0.000000
  70
    32
  0
VERTEX
  8
0
  5
3225F
 10
126.495
 20
328.084
 30
0.000000
  70
    32
  0
VERTEX
  8
0
  5
32260
 10
126.485
 20
328.072
 30
0.000000
  70
    32
  0
VERTEX
  8
0
  5
32261
 10
126.474
 20
328.059
 30
0.000000
  70
    32
  0
VERTEX
  8
0
  5
32262
 10
126.463
 20
328.047
 30
0.000000
  70
    32
  0
VERTEX
  8
0
  5
32263
 10
126.452
 20
328.035
 30
0.000000
  70
    32
  0
VERTEX
  8
0
  5
32264
 10
126.441
 20
328.023
 30
0.000000
  70
    32
  0
VERTEX
  8
0
  5
32265
 10
126.431
 20
328.011
 30
0.000000
  70
    32
  0
VERTEX
  8
0
  5
32266
 10
126.420
 20
327.998
 30
0.000000
  70
    32
  0
VERTEX
  8
0
  5
32267
 10
126.409
 20
327.986
 30
0.000000
  70
    32
  0
VERTEX
  8
0
  5
32268
 10
126.398
 20
327.974
 30
0.000000
  70
    32
  0
VERTEX
  8
0
  5
32269
 10
126.387
 20
327.962
 30
0.000000
  70
    32
  0
VERTEX
  8
0
  5
3226A
 10
126.377
 20
327.949
 30
0.000000
  70
    32
  0
VERTEX
  8
0
  5
3226B
 10
126.366
 20
327.937
 30
0.000000
  70
    32
  0
VERTEX
  8
0
  5
3226C
 10
126.355
 20
327.925
 30
0.000000
  70
    32
  0
VERTEX
  8
0
  5
3226D
 10
126.344
 20
327.912
 30
0.000000
  70
    32
  0
VERTEX
  8
0
  5
3226E
 10
126.334
 20
327.900
 30
0.000000
  70
    32
  0
VERTEX
  8
0
  5
3226F
 10
126.323
 20
327.888
 30
0.000000
  70
    32
  0
VERTEX
  8
0
  5
32270
 10
126.312
 20
327.876
 30
0.000000
  70
    32
  0
VERTEX
  8
0
  5
32271
 10
126.301
 20
327.863
 30
0.000000
  70
    32
  0
VERTEX
  8
0
  5
32272
 10
126.291
 20
327.851
 30
0.000000
  70
    32
  0
VERTEX
  8
0
  5
32273
 10
126.280
 20
327.839
 30
0.000000
  70
    32
  0
VERTEX
  8
0
  5
32274
 10
126.269
 20
327.826
 30
0.000000
  70
    32
  0
SEQEND
  8
0
  5
32275
  0
LINE
  5
31C6B
  8
0
 10
117.5284420268071
 20
259.61739837369169
 30
0.0
 11
117.269022123648
 21
262.746564924626
 31
0.0
  0
POLYLINE
  5
31C6C
  8
0
 66
     1
 10
0.0
 20
0.0
 30
0.0
 70
   128
  0
VERTEX
  5
31F2E
  8
0
 10
117.269022123648
 20
256.48823182275743
 30
0.0
  0
VERTEX
  5
31F2F
  8
0
 10
117.3967064486278
 20
258.6431549833178
 30
0.0
  0
VERTEX
  5
31F30
  8
0
 10
117.5284420268071
 20
259.61739837369169
 30
0.0
  0
SEQEND
  5
31F31
  8
0
  0
POLYLINE
  5
31C6E
  8
0
 66
     1
 10
0.0
 20
0.0
 30
0.0
 70
   128
  0
VERTEX
  5
31F32
  8
0
 10
123.0096032039655
 20
265.87573147556009
 30
0.0
  0
VERTEX
  5
31F33
  8
0
 10
123.2679185585511
 20
262.94331194078768
 30
0.0
  0
VERTEX
  5
31F34
  8
0
 10
123.2690231071246
 20
262.746564924626
 30
0.0
  0
SEQEND
  5
31F35
  8
0
  0
LINE
  5
31C6F
  8
0
 10
123.2690231071246
 20
262.746564924626
 30
0.0
 11
123.0096032039655
 21
259.61739837369169
 31
0.0
  0
LINE
  5
31C70
  8
0
 10
117.5284420268071
 20
259.61739837369169
 30
0.0
 11
123.0096032039655
 21
259.61739837369169
 31
0.0
  0
POLYLINE
  5
31C71
  8
0
 66
     1
 10
0.0
 20
0.0
 30
0.0
 70
   128
  0
VERTEX
  5
31F36
  8
0
 10
117.269022123648
 20
262.746564924626
 30
0.0
  0
VERTEX
  5
31F37
  8
0
 10
117.2701285348666
 20
262.94331194078768
 30
0.0
  0
VERTEX
  5
31F38
  8
0
 10
117.5284420268071
 20
265.87573147556009
 30
0.0
  0
SEQEND
  5
31F39
  8
0
  0
LINE
  5
31C72
  8
0
 10
117.269022123648
 20
265.87573147556009
 30
0.0
 11
123.2690231071246
 21
265.87573147556009
 31
0.0
  0
POLYLINE
  5
31C73
  8
0
 66
     1
 10
0.0
 20
0.0
 30
0.0
 70
   128
  0
VERTEX
  5
31F3A
  8
0
 10
123.0096032039655
 20
259.61739837369169
 30
0.0
  0
VERTEX
  5
31F3B
  8
0
 10
123.1413387821449
 20
258.6431549833178
 30
0.0
  0
VERTEX
  5
31F3C
  8
0
 10
123.2690231071246
 20
256.48823182275743
 30
0.0
  0
SEQEND
  5
31F3D
  8
0
  0
LINE
  5
31C74
  8
0
 10
123.2690231071246
 20
256.48823182275743
 30
0.0
 11
123.0096032039655
 21
253.35906527182311
 31
0.0
  0
LINE
  5
31C75
  8
0
 10
117.269022123648
 20
253.35906527182311
 30
0.0
 11
123.2690231071246
 21
253.35906527182311
 31
0.0
  0
LINE
  5
31C76
  8
0
 10
117.5284420268071
 20
253.35906527182311
 30
0.0
 11
117.269022123648
 21
256.48823182275743
 31
0.0
  0
POLYLINE
  5
31C77
  8
0
 66
     1
 10
0.0
 20
0.0
 30
0.0
 70
   128
  0
VERTEX
  5
31F3E
  8
0
 10
179.00960306985499
 20
265.87573147556009
 30
0.0
  0
VERTEX
  5
31F3F
  8
0
 10
179.26791842444069
 20
262.94331194078768
 30
0.0
  0
VERTEX
  5
31F40
  8
0
 10
179.26902297301419
 20
262.746564924626
 30
0.0
  0
SEQEND
  5
31F41
  8
0
  0
LINE
  5
31C78
  8
0
 10
179.26902297301419
 20
262.746564924626
 30
0.0
 11
179.00960306985499
 21
259.61739837369169
 31
0.0
  0
LINE
  5
31C79
  8
0
 10
174.26902215345029
 20
259.61739837369169
 30
0.0
 11
179.00960306985499
 21
259.61739837369169
 31
0.0
  0
LINE
  5
31C7A
  8
0
 10
174.26902215345029
 20
265.87573147556009
 30
0.0
 11
179.26902297301419
 21
265.87573147556009
 31
0.0
  0
POLYLINE
  5
31C7B
  8
0
 66
     1
 10
0.0
 20
0.0
 30
0.0
 70
   128
  0
VERTEX
  5
31F42
  8
0
 10
179.00960306985499
 20
259.61739837369169
 30
0.0
  0
VERTEX
  5
31F43
  8
0
 10
179.14133864803441
 20
258.6431549833178
 30
0.0
  0
VERTEX
  5
31F44
  8
0
 10
179.26902297301419
 20
256.48823182275743
 30
0.0
  0
SEQEND
  5
31F45
  8
0
  0
LINE
  5
31C7C
  8
0
 10
179.26902297301419
 20
256.48823182275743
 30
0.0
 11
179.00960306985499
 21
253.35906527182311
 31
0.0
  0
LINE
  5
31C7D
  8
0
 10
174.26902215345029
 20
253.35906527182311
 30
0.0
 11
179.26902297301419
 21
253.35906527182311
 31
0.0
  0
LINE
  5
31C80
  8
0
 10
117.269022123648
 20
265.87573147556009
 30
0.0
 11
117.269022123648
 21
253.35906527182311
 31
0.0
  0
LINE
  5
31C86
  8
0
 10
179.26902297301419
 20
265.87573147556009
 30
0.0
 11
179.26902297301419
 21
253.35906527182311
 31
0.0
  0
LINE
  5
31C89
  8
0
 10
114.2690234945548
 20
262.85039831130052
 30
0.0
 11
114.2690234945548
 21
256.38439843608262
 31
0.0
  0
LINE
  5
31C8A
  8
0
 10
115.0360235141052
 20
263.61739856368149
 30
0.0
 11
115.0360235141052
 21
255.61739818370191
 31
0.0
  0
LINE
  5
31C8B
  8
0
 10
131.2690225557817
 20
316.1173973902151
 30
0.0
 11
131.2690225557817
 21
203.1173993571683
 31
0.0
  0
LINE
  5
31C8C
  8
0
 10
166.26902270479329
 20
316.1173973902151
 30
0.0
 11
166.26902270479329
 21
203.1173993571683
 31
0.0
  0
LINE
  5
31C8D
  8
0
 10
128.76902307732229
 20
278.9863784535807
 30
0.0
 11
128.76902307732229
 21
240.24841829380239
 31
0.0
  0
LINE
  5
31C8E
  8
0
 10
168.76902218325259
 20
240.24841829380239
 30
0.0
 11
168.76902218325259
 21
278.9863784535807
 31
0.0
  0
LINE
  5
31C91
  8
0
 10
134.79503496898539
 20
322.1173983736914
 30
0.0
 11
134.79503496898539
 21
197.11739837369171
 31
0.0
  0
LINE
  5
31C92
  8
0
 10
162.7430102915896
 20
322.1173983736914
 30
0.0
 11
162.7430102915896
 21
197.11739837369171
 31
0.0
  0
LINE
  5
31C94
  8
0
 10
346.1649136051642
 20
535.84102605550709
 30
0.0
 11
346.1649136051642
 21
535.34102690487327
 31
0.0
  0
LINE
  5
31C95
  8
0
 10
346.1649136051642
 20
485.34102615981533
 30
0.0
 11
346.1649136051642
 21
484.84102700918152
 31
0.0
  0
LINE
  5
31C96
  8
0
 10
360.43191374206123
 20
544.8410256680769
 30
0.0
 11
359.6649134896802
 21
544.07402564852657
 31
0.0
  0
LINE
  5
31C97
  8
0
 10
367.66491386965981
 20
541.84102703898384
 30
0.0
 11
367.66491386965981
 21
542.40258102386417
 31
0.0
  0
LINE
  5
31C98
  8
0
 10
359.6649134896802
 20
544.07402564852657
 30
0.0
 11
359.6649134896802
 21
541.84102703898384
 31
0.0
  0
LINE
  5
31C99
  8
0
 10
357.40658057780138
 20
541.84102703898384
 30
0.0
 11
356.43841301948891
 21
541.58160713582458
 31
0.0
  0
LINE
  5
31C9A
  8
0
 10
356.43841301948891
 20
536.10044595866634
 30
0.0
 11
357.40658057780138
 21
535.84102605550709
 31
0.0
  0
LINE
  5
31C9B
  8
0
 10
370.891414339851
 20
541.58160713582458
 30
0.0
 11
369.92324678153858
 21
541.84102703898384
 31
0.0
  0
LINE
  5
31C9C
  8
0
 10
369.92324678153858
 20
535.84102605550709
 30
0.0
 11
370.891414339851
 21
536.10044595866634
 31
0.0
  0
LINE
  5
31C9D
  8
0
 10
356.43841301948891
 20
480.10044609277668
 30
0.0
 11
357.40658057780138
 21
479.84102618961759
 31
0.0
  0
LINE
  5
31C9E
  8
0
 10
369.92324678153858
 20
479.84102618961759
 30
0.0
 11
370.891414339851
 21
480.10044609277668
 31
0.0
  0
LINE
  5
31CA6
  8
0
 10
452.66491522939077
 20
552.84102697937851
 30
0.0
 11
370.66491389573679
 21
552.84102697937851
 31
0.0
  0
LINE
  5
31CA7
  8
0
 10
461.66491111667028
 20
476.84102569787859
 30
0.0
 11
461.66491111667028
 21
543.8410273668087
 31
0.0
  0
ARC
  5
31CA8
  8
0
 10
452.66491367967001
 20
476.84102653234362
 30
0.0
 40
8.9999999999998437
 50
270.0
 51
0.0
  0
LINE
  5
31CA9
  8
0
 10
370.66491389573679
 20
467.84102608530901
 30
0.0
 11
452.66491522939077
 21
467.84102608530901
 31
0.0
  0
ARC
  5
31CAA
  8
0
 10
370.66491367967001
 20
476.84102653234362
 30
0.0
 40
8.9999999999999147
 50
179.9999999999967
 51
270.0
  0
LINE
  5
31CAB
  8
0
 10
361.66491358467511
 20
543.8410273668087
 30
0.0
 11
361.66491358467511
 21
476.84102569787859
 31
0.0
  0
ARC
  5
31CAC
  8
0
 10
370.66491367967001
 20
543.84102653234379
 30
0.0
 40
8.9999999999999147
 50
90.0
 51
180.0
  0
LINE
  5
31CAD
  8
0
 10
444.89583721310959
 20
486.41800199716442
 30
0.0
 11
447.39584227950439
 21
478.9180016991412
 31
0.0
  0
ARC
  5
31CAE
  8
0
 10
451.66491367967001
 20
480.34102653234362
 30
0.0
 40
4.4999999999998748
 50
198.43494882292839
 51
18.434948822924511
  0
LINE
  5
31CAF
  8
0
 10
455.93399157674179
 20
481.76405084400562
 30
0.0
 11
453.43398651034698
 21
489.26405114202851
 31
0.0
  0
ARC
  5
31CB0
  8
0
 10
449.16491367966989
 20
487.84102653234362
 30
0.0
 40
4.4999999999998748
 50
18.434948822924511
 51
198.43494882292839
  0
LINE
  5
31CB1
  8
0
 10
453.43398651034698
 20
531.41800192265873
 30
0.0
 11
455.93399157674179
 21
538.91800222068207
 31
0.0
  0
ARC
  5
31CB2
  8
0
 10
451.66491367967001
 20
540.34102653234368
 30
0.0
 40
4.4999999999998312
 50
341.56505117707491
 51
161.56505117707539
  0
LINE
  5
31CB3
  8
0
 10
447.39584227950439
 20
541.76405136554604
 30
0.0
 11
444.89583721310959
 21
534.26405106752281
 31
0.0
  0
ARC
  5
31CB4
  8
0
 10
449.16491367966989
 20
532.84102653234356
 30
0.0
 40
4.4999999999998748
 50
161.56505117707539
 51
341.56505117707491
  0
LINE
  5
31CB5
  8
0
 10
375.93398870826832
 20
478.9180016991412
 30
0.0
 11
378.43398818672767
 21
486.41800199716442
 31
0.0
  0
ARC
  5
31CB6
  8
0
 10
374.16491367967001
 20
487.84102653234362
 30
0.0
 40
4.5000000000000329
 50
341.56505117707491
 51
161.56505117707539
  0
LINE
  5
31CB7
  8
0
 10
369.89583888949028
 20
489.26405114202851
 30
0.0
 11
367.39583894536958
 21
481.76405084400562
 31
0.0
  0
ARC
  5
31CB8
  8
0
 10
371.66491367967001
 20
480.34102653234419
 30
0.0
 40
4.4999999999999432
 50
161.56505117707539
 51
341.56505117707161
  0
LINE
  5
31CB9
  8
0
 10
367.39583894536958
 20
538.91800222068207
 30
0.0
 11
369.89583888949028
 21
531.41800192265873
 31
0.0
  0
ARC
  5
31CBA
  8
0
 10
374.16491367967001
 20
532.84102653234356
 30
0.0
 40
4.5000000000000098
 50
198.4349488229245
 51
18.434948822924511
  0
LINE
  5
31CBB
  8
0
 10
378.43398818672767
 20
534.26405106752281
 30
0.0
 11
375.93398870826832
 21
541.76405136554604
 31
0.0
  0
ARC
  5
31CBC
  8
0
 10
371.66491367967001
 20
540.34102653234368
 30
0.0
 40
4.4999999999999201
 50
18.434948822928391
 51
198.4349488229218
  0
ARC
  5
31CBD
  8
0
 10
452.66491367967001
 20
543.84102653234379
 30
0.0
 40
8.9999999999997726
 50
0.0
 51
90.0
  0
LINE
  5
31CCE
  8
0
 10
303.18157350571028
 20
485.34102615981482
 30
0.0
 11
303.18157350571028
 21
535.34102690487293
 31
0.0
  0
LINE
  5
31CD3
  8
0
 10
377.90833016784057
 20
484.841027009181
 30
0.0
 11
368.42149704621301
 21
484.841027009181
 31
0.0
  0
LINE
  5
31CD4
  8
0
 10
361.66491358467511
 20
485.34102615981482
 30
0.0
 11
303.18157350571028
 21
485.34102615981482
 31
0.0
  0
LINE
  5
31CD5
  8
0
 10
377.90833016784057
 20
535.84102605550675
 30
0.0
 11
368.42149704621301
 21
535.84102605550675
 31
0.0
  0
LINE
  5
31CD6
  8
0
 10
361.66491358467511
 20
535.34102690487293
 30
0.0
 11
303.18157350571028
 21
535.34102690487293
 31
0.0
  0
LINE
  5
31CD7
  8
0
 10
361.66491358467511
 20
535.84102605550675
 30
0.0
 11
346.1649136051642
 21
535.84102605550709
 31
0.0
  0
LINE
  5
31CD8
  8
0
 10
361.66491358467511
 20
484.841027009181
 30
0.0
 11
346.1649136051642
 21
484.84102700918152
 31
0.0
  0
LINE
  5
31CEA
  8
0
 10
370.891414339851
 20
536.10044595866634
 30
0.0
 11
369.08478917480579
 21
535.84102605550709
 31
0.0
  0
LINE
  5
31CEB
  8
0
 10
369.08478917480579
 20
535.84102605550709
 30
0.0
 11
368.39800629691348
 21
535.91149923472835
 31
0.0
  0
LINE
  5
31CEC
  8
0
 10
367.27816400976047
 20
541.34423536329689
 30
0.0
 11
367.27816400976047
 21
539.33781822293236
 31
0.0
  0
POLYLINE
  5
31CED
  8
0
 66
     1
 10
0.0
 20
0.0
 30
0.0
 70
   128
  0
VERTEX
  5
31F46
  8
0
 10
367.27816400976047
 20
541.58160713582458
 30
0.0
  0
VERTEX
  5
31F47
  8
0
 10
367.84085746781102
 20
541.71338369219734
 30
0.0
  0
VERTEX
  5
31F48
  8
0
 10
369.08478917480579
 20
541.84102703898384
 30
0.0
  0
SEQEND
  5
31F49
  8
0
  0
LINE
  5
31CEE
  8
0
 10
369.08478917480579
 20
541.84102703898384
 30
0.0
 11
370.891414339851
 21
541.58160713582458
 31
0.0
  0
LINE
  5
31CEF
  8
0
 10
370.891414339851
 20
541.58160713582458
 30
0.0
 11
370.891414339851
 21
536.10044595866634
 31
0.0
  0
POLYLINE
  5
31CF0
  8
0
 66
     1
 10
0.0
 20
0.0
 30
0.0
 70
   128
  0
VERTEX
  5
31F4A
  8
0
 10
361.66491358467511
 20
535.95213842659416
 30
0.0
  0
VERTEX
  5
31F4B
  8
0
 10
360.95316171572682
 20
535.99168052046718
 30
0.0
  0
VERTEX
  5
31F4C
  8
0
 10
360.05166334957948
 20
536.10044595866634
 30
0.0
  0
SEQEND
  5
31F4D
  8
0
  0
LINE
  5
31CF1
  8
0
 10
360.05166334957948
 20
541.58160713582458
 30
0.0
 11
360.05166334957948
 21
536.10044595866634
 31
0.0
  0
POLYLINE
  5
31CF2
  8
0
 66
     1
 10
0.0
 20
0.0
 30
0.0
 70
   128
  0
VERTEX
  5
31F4E
  8
0
 10
360.05166334957948
 20
541.58160713582458
 30
0.0
  0
VERTEX
  5
31F4F
  8
0
 10
360.95316171572682
 20
541.69037257402374
 30
0.0
  0
VERTEX
  5
31F50
  8
0
 10
361.66491358467511
 20
541.72991280525162
 30
0.0
  0
SEQEND
  5
31F51
  8
0
  0
LINE
  5
31CF3
  8
0
 10
369.08478917480579
 20
541.84102703898384
 30
0.0
 11
367.42227290683559
 21
541.84102703898384
 31
0.0
  0
POLYLINE
  5
31CF4
  8
0
 66
     1
 10
0.0
 20
0.0
 30
0.0
 70
   128
  0
VERTEX
  5
31F52
  8
0
 10
358.24503818453422
 20
541.84102703898384
 30
0.0
  0
VERTEX
  5
31F53
  8
0
 10
358.35862973631492
 20
541.83992062776508
 30
0.0
  0
VERTEX
  5
31F54
  8
0
 10
360.05166334957948
 20
541.58160713582458
 30
0.0
  0
SEQEND
  5
31F55
  8
0
  0
LINE
  5
31CF5
  8
0
 10
361.66491358467511
 20
541.84102703898384
 30
0.0
 11
358.24503818453422
 21
541.84102703898384
 31
0.0
  0
POLYLINE
  5
31CF6
  8
0
 66
     1
 10
0.0
 20
0.0
 30
0.0
 70
   128
  0
VERTEX
  5
31F56
  8
0
 10
360.05166334957948
 20
536.10044595866634
 30
0.0
  0
VERTEX
  5
31F57
  8
0
 10
358.35862973631492
 20
535.84213060408058
 30
0.0
  0
VERTEX
  5
31F58
  8
0
 10
358.24503818453422
 20
535.84102605550709
 30
0.0
  0
SEQEND
  5
31F59
  8
0
  0
LINE
  5
31CF7
  8
0
 10
358.24503818453422
 20
535.84102605550709
 30
0.0
 11
356.43841301948891
 21
536.10044595866634
 31
0.0
  0
LINE
  5
31CF8
  8
0
 10
356.43841301948891
 20
541.58160713582458
 30
0.0
 11
356.43841301948891
 21
536.10044595866634
 31
0.0
  0
LINE
  5
31CF9
  8
0
 10
356.43841301948891
 20
541.58160713582458
 30
0.0
 11
358.24503818453422
 21
541.84102703898384
 31
0.0
  0
POLYLINE
  5
31CFA
  8
0
 66
     1
 10
0.0
 20
0.0
 30
0.0
 70
   128
  0
VERTEX
  5
31F5A
  8
0
 10
361.66491358467511
 20
479.95213856070473
 30
0.0
  0
VERTEX
  5
31F5B
  8
0
 10
360.95316171572682
 20
479.99168065457769
 30
0.0
  0
VERTEX
  5
31F5C
  8
0
 10
360.05166334957948
 20
480.10044609277668
 30
0.0
  0
SEQEND
  5
31F5D
  8
0
  0
LINE
  5
31CFB
  8
0
 10
360.05166334957948
 20
484.84102700918152
 30
0.0
 11
360.05166334957948
 21
480.10044609277668
 31
0.0
  0
LINE
  5
31CFC
  8
0
 10
367.27816400976047
 20
481.3442348417563
 30
0.0
 11
367.27816400976047
 21
480.10044609277668
 31
0.0
  0
LINE
  5
31CFD
  8
0
 10
370.891414339851
 20
480.10044609277668
 30
0.0
 11
369.08478917480579
 21
479.84102618961759
 31
0.0
  0
POLYLINE
  5
31CFE
  8
0
 66
     1
 10
0.0
 20
0.0
 30
0.0
 70
   128
  0
VERTEX
  5
31F5E
  8
0
 10
369.08478917480579
 20
479.84102618961759
 30
0.0
  0
VERTEX
  5
31F5F
  8
0
 10
367.84085746781102
 20
479.96866953640409
 30
0.0
  0
VERTEX
  5
31F60
  8
0
 10
367.27816400976047
 20
480.10044609277668
 30
0.0
  0
SEQEND
  5
31F61
  8
0
  0
LINE
  5
31CFF
  8
0
 10
370.891414339851
 20
484.84102700918152
 30
0.0
 11
370.891414339851
 21
480.10044609277668
 31
0.0
  0
POLYLINE
  5
31D00
  8
0
 66
     1
 10
0.0
 20
0.0
 30
0.0
 70
   128
  0
VERTEX
  5
31F62
  8
0
 10
360.05166334957948
 20
480.10044609277668
 30
0.0
  0
VERTEX
  5
31F63
  8
0
 10
358.35862973631492
 20
479.84213073819109
 30
0.0
  0
VERTEX
  5
31F64
  8
0
 10
358.24503818453422
 20
479.84102618961759
 30
0.0
  0
SEQEND
  5
31F65
  8
0
  0
LINE
  5
31D01
  8
0
 10
358.24503818453422
 20
479.84102618961759
 30
0.0
 11
356.43841301948891
 21
480.10044609277668
 31
0.0
  0
LINE
  5
31D02
  8
0
 10
356.43841301948891
 20
484.84102700918152
 30
0.0
 11
356.43841301948891
 21
480.10044609277668
 31
0.0
  0
LINE
  5
31D03
  8
0
 10
369.08478917480579
 20
479.84102618961759
 30
0.0
 11
367.1927777949827
 21
479.84102618961759
 31
0.0
  0
LINE
  5
31D04
  8
0
 10
361.66491358467511
 20
479.84102618961759
 30
0.0
 11
358.24503818453422
 21
479.84102618961759
 31
0.0
  0
LINE
  5
31D05
  8
0
 10
361.72064171564898
 20
544.8410256680769
 30
0.0
 11
360.43191374206123
 21
544.8410256680769
 31
0.0
  0
LINE
  5
31D06
  8
0
 10
361.66793013849428
 20
544.07402564852657
 30
0.0
 11
359.6649134896802
 21
544.07402564852657
 31
0.0
  0
LINE
  5
31D07
  8
0
 10
358.24503818453422
 20
541.84102703898384
 30
0.0
 11
357.40658057780138
 21
541.84102703898384
 31
0.0
  0
LINE
  5
31D08
  8
0
 10
369.92324678153858
 20
541.84102703898384
 30
0.0
 11
369.08478917480579
 21
541.84102703898384
 31
0.0
  0
LINE
  5
31D09
  8
0
 10
358.24503818453422
 20
479.84102618961759
 30
0.0
 11
357.40658057780138
 21
479.84102618961759
 31
0.0
  0
LINE
  5
31D0A
  8
0
 10
369.92324678153858
 20
479.84102618961759
 30
0.0
 11
369.08478917480579
 21
479.84102618961759
 31
0.0
  0
CIRCLE
  5
31D11
  8
0
 10
411.66491111667068
 20
510.34102653234362
 30
0.0
 40
31.175000000000001
  0
LINE
  5
31D12
  8
1
 10
273.2292766787686
 20
510.34102653234368
 30
0.0
 11
465.91310111188432
 21
510.34102653234368
 31
0.0
  0
LINE
  5
31D13
  8
1
 10
411.66491367966989
 20
452.59283910012982
 30
0.0
 11
411.66491367966989
 21
568.08921396455753
 31
0.0
  0
LINE
  5
31D14
  8
1
 10
363.66491367967001
 20
462.49398444837237
 30
0.0
 11
363.66491367967001
 21
558.18806861631492
 31
0.0
  0
LINE
  5
31D15
  8
1
 10
285.9167262474561
 20
259.61739837369169
 30
0.0
 11
441.4131011118838
 21
259.61739837369169
 31
0.0
  0
LINE
  5
31D16
  8
1
 10
363.66491367967001
 20
252.8344334155727
 30
0.0
 11
363.66491367967001
 21
266.4003633318116
 31
0.0
  0
LINE
  5
31D17
  8
1
 10
363.66491367967001
 20
181.8692109414778
 30
0.0
 11
363.66491367967001
 21
326.78442425260732
 31
0.0
  0
LINE
  5
31D18
  8
1
 10
411.66491367966989
 20
373.36558580590548
 30
0.0
 11
411.66491367966989
 21
308.97486351832958
 31
0.0
  0
LINE
  5
31D19
  8
1
 10
104.00644066474609
 20
259.61739837369169
 30
0.0
 11
193.53160459582881
 21
259.61739837369169
 31
0.0
  0
LINE
  5
31D1A
  8
1
 10
148.76902263028751
 20
181.86921094147789
 30
0.0
 11
148.76902263028751
 21
373.3655858059056
 31
0.0
  0
LINE
  5
31D1B
  8
1
 10
364.80641839665623
 20
540.34102653234368
 30
0.0
 11
378.5234089626847
 21
540.34102653234368
 31
0.0
  0
LINE
  5
31D1C
  8
1
 10
371.66491367967041
 20
533.48253124932944
 30
0.0
 11
371.66491367967041
 21
547.199521815357
 31
0.0
  0
LINE
  5
31D1D
  8
1
 10
367.30641839665623
 20
532.84102653234356
 30
0.0
 11
381.0234089626847
 21
532.84102653234356
 31
0.0
  0
LINE
  5
31D1E
  8
1
 10
374.16491367967052
 20
525.98253124932944
 30
0.0
 11
374.16491367967052
 21
539.699521815357
 31
0.0
  0
LINE
  5
31D1F
  8
1
 10
442.30641839665623
 20
532.84102653234356
 30
0.0
 11
456.02340896268458
 21
532.84102653234356
 31
0.0
  0
LINE
  5
31D20
  8
1
 10
449.16491367967041
 20
525.98253124932944
 30
0.0
 11
449.16491367967041
 21
539.699521815357
 31
0.0
  0
LINE
  5
31D21
  8
1
 10
444.80641839665623
 20
540.34102653234368
 30
0.0
 11
458.5234089626847
 21
540.34102653234368
 31
0.0
  0
LINE
  5
31D22
  8
1
 10
451.66491367967041
 20
533.48253124932944
 30
0.0
 11
451.66491367967041
 21
547.199521815357
 31
0.0
  0
LINE
  5
31D23
  8
1
 10
442.30641839665623
 20
487.84102653234362
 30
0.0
 11
456.02340896268458
 21
487.84102653234362
 31
0.0
  0
LINE
  5
31D24
  8
1
 10
449.16491367967041
 20
494.69952181535791
 30
0.0
 11
449.16491367967041
 21
480.98253124933029
 31
0.0
  0
LINE
  5
31D25
  8
1
 10
444.80641839665623
 20
480.34102653234362
 30
0.0
 11
458.5234089626847
 21
480.34102653234362
 31
0.0
  0
LINE
  5
31D26
  8
1
 10
451.66491367967041
 20
487.1995218153578
 30
0.0
 11
451.66491367967041
 21
473.48253124933029
 31
0.0
  0
LINE
  5
31D27
  8
1
 10
381.02340896268379
 20
487.84102653234362
 30
0.0
 11
367.30641839665532
 21
487.84102653234362
 31
0.0
  0
LINE
  5
31D28
  8
1
 10
374.1649136796695
 20
494.69952181535791
 30
0.0
 11
374.1649136796695
 21
480.98253124933029
 31
0.0
  0
LINE
  5
31D29
  8
1
 10
378.52340896268379
 20
480.34102653234362
 30
0.0
 11
364.80641839665532
 21
480.34102653234362
 31
0.0
  0
LINE
  5
31D2A
  8
1
 10
371.66491367966961
 20
487.1995218153578
 30
0.0
 11
371.66491367966961
 21
473.48253124933029
 31
0.0
  0
LINE
  5
31D2B
  8
1
 10
623.32338669459375
 20
259.61739837369169
 30
0.0
 11
533.79822276351115
 21
259.61739837369169
 31
0.0
  0
LINE
  5
31D2C
  8
1
 10
578.56080472905251
 20
181.86921094147789
 30
0.0
 11
578.56080472905251
 21
373.3655858059056
 31
0.0
  0
LINE
  5
31D2D
  8
1
 10
371.66491367967041
 20
533.48253124932944
 30
0.0
 11
371.66491367967041
 21
547.199521815357
 31
0.0
  0
LINE
  5
31D34
  8
3
 10
114.2690234945548
 20
262.85039831130052
 30
0.0
 11
117.269022123648
 21
262.85039831130052
 31
0.0
  0
LINE
  5
31D35
  8
3
 10
114.2690234945548
 20
256.38439843608262
 30
0.0
 11
117.269022123648
 21
256.38439843608262
 31
0.0
  0
ARC
  5
31D36
  8
0
 10
363.66491367967001
 20
259.61739837369208
 30
0.0
 40
15.999999999999989
 50
207.8252935467427
 51
321.3178135718556
  0
ARC
  5
31D37
  8
0
 10
363.66491367967001
 20
259.61739837369208
 30
0.0
 40
62.5
 50
110.6096946450795
 51
35.054673714434159
  0
LINE
  5
31D38
  8
0
 10
409.05401301777778
 20
237.4796554608433
 30
0.0
 11
381.19139758250458
 21
251.0691610113067
 31
0.0
  0
ARC
  5
31D39
  8
0
 10
363.66491367967001
 20
259.61739837369208
 30
0.0
 40
19.499999999999989
 50
139.3207105162777
 51
333.5578752388808
  0
LINE
  5
31D3A
  8
0
 10
363.66491367967001
 20
240.11739837369211
 30
0.0
 11
363.66491367967001
 21
209.1173983736922
 31
0.0
  0
LINE
  5
31D3B
  8
0
 10
321.7985162656405
 20
231.3781567484198
 30
0.0
 11
347.49868101484623
 21
248.71313675601371
 31
0.0
  0
ARC
  5
31D3C
  8
0
 10
363.66491367967001
 20
259.61739837369208
 30
0.0
 40
50.5
 50
96.82560782069568
 51
30.3633631614465
  0
LINE
  5
31D3D
  8
0
 10
407.39919657078423
 20
284.86739837369208
 30
0.0
 11
406.76952812132731
 21
284.50385912489799
 31
0.0
  0
LINE
  5
31D3E
  8
0
 10
319.93063078855579
 20
284.86739837369208
 30
0.0
 11
346.77741830587411
 21
269.36739837369311
 31
0.0
  0
ARC
  5
31D40
  8
0
 10
363.66491367967001
 20
259.61739837369208
 30
0.0
 40
46.439712300844313
 50
150.0000000000006
 51
214.00000000000529
  0
ARC
  5
31D41
  8
0
 10
363.66491367967001
 20
259.61739837369208
 30
0.0
 40
46.439712300844363
 50
270.0
 51
334.00000000000142
  0
ARC
  5
31D42
  8
0
 10
363.66491367967001
 20
259.61739837369208
 30
0.0
 40
53.515000000000327
 50
95.652730066626759
 51
31.755638054818672
  0
LINE
  5
31D43
  8
3
 10
613.06080386478504
 20
262.85039831130052
 30
0.0
 11
610.40047010120645
 21
262.85039831130052
 31
0.0
  0
LINE
  5
31D44
  8
3
 10
613.06080386478504
 20
256.38439843608262
 30
0.0
 11
610.06080523569187
 21
256.38439843608262
 31
0.0
  0
LINE
  5
31D87
  8
0
 10
283.18157350571028
 20
526.36254721566092
 30
0.0
 11
283.18157350571028
 21
494.31950584902728
 31
0.0
  0
LINE
  5
31D88
  8
0
 10
287.72573376973787
 20
529.3410265323455
 30
0.0
 11
287.72573376973787
 21
491.34102653234538
 31
0.0
  0
LINE
  5
31D89
  8
0
 10
300.18157350571028
 20
526.3410265323455
 30
0.0
 11
300.18157350571067
 21
494.34102653234538
 31
0.0
  0
LINE
  5
31D8A
  8
0
 10
303.18157350571028
 20
529.3410265323455
 30
0.0
 11
284.77568320432653
 21
529.3410265323455
 31
0.0
  0
LINE
  5
31D8B
  8
0
 10
300.18157350571028
 20
526.3410265323455
 30
0.0
 11
303.18157350571028
 21
526.3410265323455
 31
0.0
  0
LINE
  5
31D8C
  8
0
 10
303.18157350571028
 20
491.34102653234538
 30
0.0
 11
284.77568320432601
 21
491.34102653234538
 31
0.0
  0
LINE
  5
31D8D
  8
0
 10
300.1815735057117
 20
494.34102653234538
 30
0.0
 11
303.18157350571119
 21
494.34102653234538
 31
0.0
  0
ARC
  5
31D8E
  8
0
 10
287.51801289935202
 20
525.95747550590022
 30
0.0
 40
4.3553174057440378
 50
129.02437415617521
 51
174.66342214693
  0
ARC
  5
31D8F
  8
0
 10
287.51801289935202
 20
494.72457755879071
 30
0.0
 40
4.3553174057440378
 50
185.33657785306991
 51
230.97562584382479
  0
LINE
  5
31D92
  8
0
 10
283.1815735057105
 20
331.11061212868748
 30
0.0
 11
286.3955115541433
 21
327.28038991309307
 31
0.0
  0
LINE
  5
31D93
  8
0
 10
285.0966846135077
 20
332.71758115290407
 30
0.0
 11
283.1815735057105
 21
331.11061212868748
 31
0.0
  0
LINE
  5
31D94
  8
0
 10
287.7257337697381
 20
329.58440237586001
 30
0.0
 11
285.0966846135077
 21
332.71758115290407
 31
0.0
  0
LINE
  5
31D95
  8
0
 10
304.20538270875483
 20
327.29649327959771
 30
0.0
 11
287.7257337697381
 21
329.58440237586001
 31
0.0
  0
LINE
  5
31D96
  8
0
 10
303.56673566495738
 20
329.67995678767301
 30
0.0
 11
302.9021661761405
 21
330.07009346066752
 31
0.0
  0
LINE
  5
31D97
  8
0
 10
286.3955115541433
 20
327.28038991309307
 30
0.0
 11
304.60507825377431
 21
324.67566724808881
 31
0.0
  0
LINE
  5
31D98
  8
0
 10
300.63595378616151
 20
333.84672023392068
 30
0.0
 11
303.17998747967732
 21
333.49639688847952
 31
0.0
  0
LINE
  5
31D99
  8
0
 10
300.18503549406182
 20
330.73627953980849
 30
0.0
 11
300.63595378616151
 21
333.84672023392068
 31
0.0
  0
LINE
  5
31D9A
  8
0
 10
302.8364150938412
 20
330.4491487304349
 30
0.0
 11
303.17998747967732
 21
333.49639688847952
 31
0.0
  0
LINE
  5
31D9B
  8
0
 10
300.18503549406182
 20
330.73627953980849
 30
0.0
 11
300.9229824866149
 21
327.75219675687458
 31
0.0
  0
LINE
  5
31D9C
  8
0
 10
302.8364150938412
 20
330.4491487304349
 30
0.0
 11
302.9021661761405
 21
330.07009346066752
 31
0.0
  0
LINE
  5
31D9E
  8
0
 10
304.60507825377431
 20
324.67566724808881
 30
0.0
 11
304.90763084121431
 21
324.67566724808881
 31
0.0
  0
LINE
  5
31D9F
  8
0
 10
167.76902263028771
 20
325.8048063291053
 30
0.0
 11
129.76902263028771
 21
325.8048063291053
 31
0.0
  0
LINE
  5
31DA0
  8
0
 10
167.76902263028771
 20
325.8048063291053
 30
0.0
 11
167.76902263028771
 21
333.84672023392068
 31
0.0
  0
LINE
  5
31DA1
  8
0
 10
167.76902263028771
 20
333.84672023392068
 30
0.0
 11
129.76902263028771
 21
333.84672023392068
 31
0.0
  0
LINE
  5
31DA2
  8
0
 10
129.76902263028771
 20
325.8048063291053
 30
0.0
 11
129.76902263028771
 21
333.84672023392068
 31
0.0
  0
LINE
  5
31DA3
  8
0
 10
129.76902263028771
 20
328.40952899410968
 30
0.0
 11
167.76902263028771
 21
328.40952899410968
 31
0.0
  0
LINE
  5
31DA4
  8
0
 10
164.76902263028791
 20
333.84672023392068
 30
0.0
 11
164.76902263028791
 21
334.97585931493722
 31
0.0
  0
LINE
  5
31DA5
  8
0
 10
164.76902263028791
 20
334.97585931493722
 30
0.0
 11
132.76902263028751
 21
334.97585931493722
 31
0.0
  0
LINE
  5
31DA6
  8
0
 10
132.76902263028751
 20
333.84672023392068
 30
0.0
 11
132.76902263028751
 21
334.97585931493722
 31
0.0
  0
LINE
  5
31DE7
  8
0
 10
597.56080472905273
 20
325.8048063291053
 30
0.0
 11
597.56080472905273
 21
331.35773367280751
 31
0.0
  0
LINE
  5
31DE8
  8
0
 10
559.56080472905273
 20
325.8048063291053
 30
0.0
 11
559.56080472905273
 21
331.35773367280962
 31
0.0
  0
LINE
  5
31E28
  8
3
 10
360.43191374206123
 20
544.8410256680769
 30
0.0
 11
360.43191374206123
 21
541.84102703898384
 31
0.0
  0
TEXT
  5
31E84
  8
0
 62
     3
 10
0.0
 20
0.0
 30
0.0
 40
10.0
  1
CAF5-125SSF-H
  7
STANDARD1
  0
ENDSEC
  0
EOF
