  0
SECTION
  2
HEADER
  9
$ACADVER
  1
AC1009
  9
$INSBASE
 10
0.0
 20
0.0
 30
0.0
  9
$EXTMIN
 10
0.0
 20
-2.960436562073669
 30
0.0
  9
$EXTMAX
 10
578.74505230930697
 20
488.4103099019639
 30
0.0
  9
$LIMMIN
 10
0.0
 20
0.0
  9
$LIMMAX
 10
375.0
 20
270.0
  9
$ORTHOMODE
 70
     1
  9
$REGENMODE
 70
     1
  9
$FILLMODE
 70
     1
  9
$QTEXTMODE
 70
     0
  9
$MIRRTEXT
 70
     1
  9
$DRAGMODE
 70
     2
  9
$LTSCALE
 40
10.0
  9
$OSMODE
 70
  3071
  9
$ATTMODE
 70
     1
  9
$TEXTSIZE
 40
5.0
  9
$TRACEWID
 40
0.05
  9
$TEXTSTYLE
  7
STANDARD
  9
$CLAYER
  8
0
  9
$CELTYPE
  6
BYLAYER
  9
$CECOLOR
 62
   256
  9
$DIMSCALE
 40
2.0
  9
$DIMASZ
 40
3.0
  9
$DIMEXO
 40
2.0
  9
$DIMDLI
 40
0.38
  9
$DIMRND
 40
0.0
  9
$DIMDLE
 40
0.0
  9
$DIMEXE
 40
2.0
  9
$DIMTP
 40
0.0
  9
$DIMTM
 40
0.0
  9
$DIMTXT
 40
3.2000000000000002
  9
$DIMCEN
 40
0.0
  9
$DIMTSZ
 40
0.0
  9
$DIMTOL
 70
     0
  9
$DIMLIM
 70
     0
  9
$DIMTIH
 70
     0
  9
$DIMTOH
 70
     0
  9
$DIMSE1
 70
     0
  9
$DIMSE2
 70
     0
  9
$DIMTAD
 70
     1
  9
$DIMZIN
 70
     8
  9
$DIMBLK
  1

  9
$DIMASO
 70
     0
  9
$DIMSHO
 70
     0
  9
$DIMPOST
  1

  9
$DIMAPOST
  1

  9
$DIMALT
 70
     0
  9
$DIMALTD
 70
     2
  9
$DIMALTF
 40
25.399999999999999
  9
$DIMLFAC
 40
1.0
  9
$DIMTOFL
 70
     0
  9
$DIMTVP
 40
1.6000000000000001
  9
$DIMTIX
 70
     1
  9
$DIMSOXD
 70
     0
  9
$DIMSAH
 70
     0
  9
$DIMBLK1
  1

  9
$DIMBLK2
  1

  9
$DIMSTYLE
  2
STANDARD
  9
$DIMCLRD
 70
     0
  9
$DIMCLRE
 70
     0
  9
$DIMCLRT
 70
     0
  9
$DIMTFAC
 40
1.0
  9
$DIMGAP
 40
1.1999999999999991
  9
$LUNITS
 70
     2
  9
$LUPREC
 70
     4
  9
$SKETCHINC
 40
0.1
  9
$FILLETRAD
 40
0.0
  9
$AUNITS
 70
     0
  9
$AUPREC
 70
     4
  9
$MENU
  1
ACAD
  9
$ELEVATION
 40
0.0
  9
$PELEVATION
 40
0.0
  9
$THICKNESS
 40
0.0
  9
$LIMCHECK
 70
     0
  9
$BLIPMODE
 70
     0
  9
$CHAMFERA
 40
0.0
  9
$CHAMFERB
 40
0.0
  9
$SKPOLY
 70
     0
  9
$TDCREATE
 40
2448055.7149187499
  9
$TDUPDATE
 40
2456598.56007721
  9
$TDINDWG
 40
2.9916349073999999
  9
$TDUSRTIMER
 40
2.9916349073999999
  9
$USRTIMER
 70
     1
  9
$ANGBASE
 50
0.0
  9
$ANGDIR
 70
     0
  9
$PDMODE
 70
     0
  9
$PDSIZE
 40
0.0
  9
$PLINEWID
 40
0.0
  9
$COORDS
 70
     1
  9
$SPLFRAME
 70
     0
  9
$SPLINETYPE
 70
     6
  9
$SPLINESEGS
 70
     8
  9
$ATTDIA
 70
     0
  9
$ATTREQ
 70
     1
  9
$HANDLING
 70
     1
  9
$HANDSEED
  5
2DA3D
  9
$SURFTAB1
 70
     6
  9
$SURFTAB2
 70
     6
  9
$SURFTYPE
 70
     6
  9
$SURFU
 70
     6
  9
$SURFV
 70
     6
  9
$UCSNAME
  2

  9
$UCSORG
 10
0.0
 20
0.0
 30
0.0
  9
$UCSXDIR
 10
1.0
 20
0.0
 30
0.0
  9
$UCSYDIR
 10
0.0
 20
1.0
 30
0.0
  9
$PUCSNAME
  2

  9
$PUCSORG
 10
0.0
 20
0.0
 30
0.0
  9
$PUCSXDIR
 10
1.0
 20
0.0
 30
0.0
  9
$PUCSYDIR
 10
0.0
 20
1.0
 30
0.0
  9
$USERI1
 70
     0
  9
$USERI2
 70
     0
  9
$USERI3
 70
     0
  9
$USERI4
 70
     0
  9
$USERI5
 70
     0
  9
$USERR1
 40
0.0
  9
$USERR2
 40
0.0
  9
$USERR3
 40
0.0
  9
$USERR4
 40
0.0
  9
$USERR5
 40
0.0
  9
$WORLDVIEW
 70
     1
  9
$SHADEDGE
 70
     3
  9
$SHADEDIF
 70
    70
  9
$TILEMODE
 70
     1
  9
$MAXACTVP
 70
    16
  9
$PLIMCHECK
 70
     0
  9
$PEXTMIN
 10
1.0000000000000000E+020
 20
1.0000000000000000E+020
 30
1.0000000000000000E+020
  9
$PEXTMAX
 10
-1.0000000000000000E+020
 20
-1.0000000000000000E+020
 30
-1.0000000000000000E+020
  9
$PLIMMIN
 10
0.0
 20
0.0
  9
$PLIMMAX
 10
12.0
 20
9.0
  9
$UNITMODE
 70
     0
  9
$VISRETAIN
 70
     0
  9
$PLINEGEN
 70
     1
  9
$PSLTSCALE
 70
     0
  0
ENDSEC
  0
SECTION
  2
TABLES
  0
TABLE
  2
VPORT
 70
     1
  0
VPORT
  2
*ACTIVE
 70
     0
 10
0.0
 20
0.0
 11
1.0
 21
1.0
 12
302.98927662466309
 22
242.7146461074669
 13
0.0
 23
0.0
 14
5.0
 24
5.0
 15
10.0
 25
10.0
 16
0.0
 26
0.0
 36
1.0
 17
0.0
 27
0.0
 37
0.0
 40
495.8285045478151
 41
1.831871345029239
 42
50.0
 43
0.0
 44
0.0
 50
0.0
 51
0.0
 71
     0
 72
   500
 73
     1
 74
     1
 75
     0
 76
     0
 77
     0
 78
     2
  0
ENDTAB
  0
TABLE
  2
LTYPE
 70
     3
  0
LTYPE
  2
CONTINUOUS
 70
     0
  3
実線
 72
    65
 73
     0
 40
0.0
  0
LTYPE
  2
CENTER
 70
     0
  3
____ _ ____ _ ____ _ ____ _ ____ _ ____ _ ____
 72
    65
 73
     4
 40
2.0
 49
1.25
 49
-0.25
 49
0.25
 49
-0.25
  0
LTYPE
  2
PHANTOM2
 70
     0
  3
___ _ _ ___ _ _ ___ _ _ ___ _ _
 72
    65
 73
     6
 40
1.25
 49
0.625
 49
-0.125
 49
0.125
 49
-0.125
 49
0.125
 49
-0.125
  0
ENDTAB
  0
TABLE
  2
LAYER
 70
     4
  0
LAYER
  2
0
 70
     0
 62
     7
  6
CONTINUOUS
  0
LAYER
  2
1
 70
     0
 62
     1
  6
CENTER
  0
LAYER
  2
DEFPOINTS
 70
     0
 62
     7
  6
CONTINUOUS
  0
LAYER
  2
3
 70
     0
 62
     3
  6
CONTINUOUS
  0
ENDTAB
  0
TABLE
  2
STYLE
 70
     3
  0
STYLE
  2
STANDARD
 70
     0
 40
0.0
 41
1.0
 50
0.0
 71
     0
 42
5.0
  3
simplex.shx
  4
bigfont.shx
  0
STYLE
  2
07500
 70
     0
 40
0.0
 41
0.75
 50
0.0
 71
     0
 42
0.2
  3
simplex.shx
  4
bigfont.shx
  0
STYLE
  2
STANDARD1
 70
     0
 40
0.0
 41
1.0
 50
0.0
 71
     0
 42
3.0
  3
txt
  4

  0
ENDTAB
  0
TABLE
  2
VIEW
 70
     2
  0
VIEW
  2
ALL
 70
     0
 40
270.0
 10
220.99159663865549
 20
135.0
 41
0.0
 11
0.0
 21
0.0
 31
1.0
 12
0.0
 22
0.0
 32
0.0
 42
0.0
 43
0.0
 44
0.0
 50
0.0
 71
     0
  0
VIEW
  2
OLE1
 70
     0
 40
168.2487151179721
 10
2892.3009567448912
 20
702.51600084347126
 41
162.5749581879237
 11
0.0
 21
0.0
 31
1.0
 12
0.0
 22
0.0
 32
0.0
 42
50.0
 43
0.0
 44
0.0
 50
0.0
 71
     0
  0
ENDTAB
  0
TABLE
  2
UCS
 70
     0
  0
ENDTAB
  0
TABLE
  2
APPID
 70
    48
  0
APPID
  2
ACAD
 70
     0
  0
APPID
  2
DCO15
 70
     0
  0
APPID
  2
GENIUS_GENOREF_13
 70
     0
  0
APPID
  2
GENIUS_GENOENT_13
 70
     0
  0
APPID
  2
GENIUS_GENBH_13
 70
     0
  0
APPID
  2
GENIUS_GENOBJ_13
 70
     0
  0
APPID
  2
GENIUS_GENODEF_13
 70
     0
  0
APPID
  2
GENIUS_GENOLIS_13
 70
     0
  0
APPID
  2
GENIUS_GENOBJ-NBEHI-BHF_13
 70
     0
  0
APPID
  2
GENIUS_GENOBJ-NBEHI-BHB_13
 70
     0
  0
APPID
  2
GENIUS_GENOBJ-F-PART_13
 70
     0
  0
APPID
  2
GENIUS_GEFSTDP_13
 70
     0
  0
APPID
  2
GENIUS_GENOBJ-N-RSSYM_13
 70
     0
  0
APPID
  2
GENIUS_GENSYMENT_13
 70
     0
  0
APPID
  2
GENIUS_GENOBJ-N-TIT_13
 70
     0
  0
APPID
  2
GENIUS_GENTITLE_13
 70
     0
  0
APPID
  2
GENIUS_GENZVEED_13
 70
     0
  0
APPID
  2
GENIUS_GENOBJ-N-LEADER_13
 70
     0
  0
APPID
  2
GENIUS_GENOBJ-N-FIL_13
 70
     0
  0
APPID
  2
GENIUS_GENOBJ-N-SEC_13
 70
     0
  0
APPID
  2
GENIUS_GENOBJ-N-CRS_13
 70
     0
  0
APPID
  2
GENIUS_GENOBJ-N-ZOO_13
 70
     0
  0
APPID
  2
GENIUS_GENZOO_13
 70
     0
  0
APPID
  2
GENIUS_GENOBJ-F-TOL_13
 70
     0
  0
APPID
  2
GENIUS_GENFIL_13
 70
     0
  0
APPID
  2
GENIUS_GENOBJ-N-CHA_13
 70
     0
  0
APPID
  2
_CALL_MAC$
 70
     0
  0
APPID
  2
ASM_BASE
 70
     0
  0
APPID
  2
ASM_EXPLO_VER_2_00
 70
     0
  0
APPID
  2
ASM_CADM_VER_12_00
 70
     0
  0
APPID
  2
ASM_BASEFORO
 70
     0
  0
APPID
  2
ASM_BASETRAVI
 70
     0
  0
APPID
  2
ASM_BASETRAVI1
 70
     0
  0
APPID
  2
ASM_GRUPPI
 70
     0
  0
APPID
  2
ASM_CADM_ALBERO
 70
     0
  0
APPID
  2
ASM_GOLE
 70
     0
  0
APPID
  2
ACAD_MLEADERVER
 70
     0
  0
APPID
  2
ACAD_DSTYLE_DIMJAG
 70
     0
  0
APPID
  2
ACAD_DSTYLE_DIMTALN
 70
     0
  0
APPID
  2
ACAD_EXEMPT_FROM_CAD_STANDARDS
 70
     0
  0
APPID
  2
ACAD_DSTYLE_DIMRADIAL_EXTENSION
 70
     0
  0
APPID
  2
ACAD_PSEXT
 70
     0
  0
APPID
  2
ACAD_DSTYLE_DIMBREAK
 70
     0
  0
APPID
  2
ACAECLAYERSTANDARD
 70
     0
  0
APPID
  2
ACCMTRANSPARENCY
 70
     0
  0
APPID
  2
GRADIENTCOLOR1ACI
 70
     0
  0
APPID
  2
GRADIENTCOLOR2ACI
 70
     0
  0
APPID
  2
ACAD_NAV_VCDISPLAY
 70
     0
  0
ENDTAB
  0
TABLE
  2
DIMSTYLE
 70
     1
  0
DIMSTYLE
  2
STANDARD
 70
     0
  3

  4

  5

  6

  7

 40
1.0
 41
0.18
 42
0.0625
 43
0.38
 44
0.18
 45
0.0
 46
0.0
 47
0.0
 48
0.0
140
0.18
141
0.09
142
0.0
143
25.399999999999999
144
1.0
145
0.0
146
1.0
147
0.09
 71
     0
 72
     0
 73
     1
 74
     1
 75
     0
 76
     0
 77
     0
 78
     0
170
     0
171
     2
172
     0
173
     0
174
     0
175
     0
176
     0
177
     0
178
     0
  0
ENDTAB
  0
ENDSEC
  0
SECTION
  2
BLOCKS
  0
BLOCK
  8
0
  2
$MODEL_SPACE
 70
     0
 10
0.0
 20
0.0
 30
0.0
  3
$MODEL_SPACE
  1

  0
ENDBLK
  5
36
  8
0
  0
BLOCK
 67
     1
  8
0
  2
$PAPER_SPACE
 70
     0
 10
0.0
 20
0.0
 30
0.0
  3
$PAPER_SPACE
  1

  0
ENDBLK
  5
34
 67
     1
  8
0
  0
ENDSEC
  0
SECTION
  2
ENTITIES
  0
LINE
  5
285BD
  8
0
 10
305.90231598404722
 20
468.272517484459
 30
0.0
 11
305.90231598404722
 21
401.272517484459
 31
0.0
  0
ARC
  5
285BE
  8
0
 10
314.90231598404722
 20
468.272517484459
 30
0.0
 40
8.9999999999999911
 50
90.0
 51
180.0
  0
LINE
  5
285BF
  8
0
 10
396.90231598404722
 20
477.272517484459
 30
0.0
 11
314.90231598404722
 21
477.272517484459
 31
0.0
  0
ARC
  5
285C0
  8
0
 10
396.90231598404722
 20
468.272517484459
 30
0.0
 40
9.0000000000000142
 50
0.0
 51
90.0
  0
LINE
  5
285C1
  8
0
 10
405.90231598404711
 20
401.272517484459
 30
0.0
 11
405.90231598404711
 21
468.272517484459
 31
0.0
  0
ARC
  5
285C2
  8
0
 10
396.90231598404722
 20
401.272517484459
 30
0.0
 40
9.0
 50
270.0
 51
0.0
  0
LINE
  5
285C3
  8
0
 10
314.90231598404722
 20
392.27251748445912
 30
0.0
 11
396.90231598404722
 21
392.27251748445912
 31
0.0
  0
ARC
  5
285C4
  8
0
 10
314.90231598404722
 20
401.272517484459
 30
0.0
 40
8.9999999999999947
 50
180.0
 51
270.0
  0
LINE
  5
285C5
  8
0
 10
400.1713908252749
 20
406.1955424315347
 30
0.0
 11
397.67139082527501
 21
413.69554243153459
 31
0.0
  0
ARC
  5
285C6
  8
0
 10
393.40231598404722
 20
412.272517484459
 30
0.0
 40
4.499999999999968
 50
18.434948822913771
 51
198.4349488229137
  0
LINE
  5
285C7
  8
0
 10
389.13324114282022
 20
410.8494925373833
 30
0.0
 11
391.63324114282022
 21
403.34949253738341
 31
0.0
  0
ARC
  5
285C8
  8
0
 10
395.90231598404722
 20
404.77251748445912
 30
0.0
 40
4.499999999999968
 50
198.4349488229137
 51
18.434948822913771
  0
LINE
  5
285C9
  8
0
 10
391.63324114282022
 20
466.1955424315347
 30
0.0
 11
389.13324114282022
 21
458.69554243153459
 31
0.0
  0
ARC
  5
285CA
  8
0
 10
393.40231598404722
 20
457.272517484459
 30
0.0
 40
4.4999999999999938
 50
161.56505117708619
 51
341.56505117708622
  0
LINE
  5
285CB
  8
0
 10
397.67139082527501
 20
455.84949253738341
 30
0.0
 11
400.1713908252749
 21
463.34949253738341
 31
0.0
  0
ARC
  5
285CC
  8
0
 10
395.90231598404722
 20
464.772517484459
 30
0.0
 40
4.4999999999999929
 50
341.56505117708622
 51
161.56505117708619
  0
LINE
  5
285CD
  8
0
 10
314.13324114282022
 20
413.69554243153459
 30
0.0
 11
311.63324114282022
 21
406.1955424315347
 31
0.0
  0
ARC
  5
285CE
  8
0
 10
315.90231598404722
 20
404.77251748445912
 30
0.0
 40
4.4999999999999956
 50
161.56505117708619
 51
341.56505117708622
  0
LINE
  5
285CF
  8
0
 10
320.17139082527501
 20
403.34949253738341
 30
0.0
 11
322.67139082527501
 21
410.8494925373833
 31
0.0
  0
ARC
  5
285D0
  8
0
 10
318.40231598404722
 20
412.272517484459
 30
0.0
 40
4.4999999999999956
 50
341.56505117708622
 51
161.56505117708619
  0
LINE
  5
285D1
  8
0
 10
322.67139082527501
 20
458.69554243153459
 30
0.0
 11
320.17139082527501
 21
466.1955424315347
 31
0.0
  0
ARC
  5
285D2
  8
0
 10
315.90231598404722
 20
464.772517484459
 30
0.0
 40
4.5
 50
18.434948822913771
 51
198.4349488229137
  0
LINE
  5
285D3
  8
0
 10
311.63324114282022
 20
463.34949253738341
 30
0.0
 11
314.13324114282022
 21
455.84949253738341
 31
0.0
  0
ARC
  5
285D4
  8
0
 10
318.40231598404722
 20
457.272517484459
 30
0.0
 40
4.4999999999999956
 50
198.4349488229137
 51
18.434948822913771
  0
LINE
  5
285D5
  8
0
 10
322.31239914096659
 20
459.772517484459
 30
0.0
 11
312.82556616046168
 21
459.772517484459
 31
0.0
  0
LINE
  5
285D6
  8
0
 10
322.31239914096659
 20
409.772517484459
 30
0.0
 11
312.82556616046168
 21
409.772517484459
 31
0.0
  0
LINE
  5
285DE
  8
1
 10
245.07041131492571
 20
434.772517484459
 30
0.0
 11
417.040108401552
 21
434.77251748445951
 31
0.0
  0
LINE
  5
285DF
  8
1
 10
355.90231598404722
 20
381.1347250669541
 30
0.0
 11
355.90231598404722
 21
488.4103099019639
 31
0.0
  0
LINE
  5
285E0
  8
0
 10
313.08731598404762
 20
409.772517484459
 30
0.0
 11
313.08731598404762
 21
409.17251748445909
 31
0.0
  0
LINE
  5
285E1
  8
0
 10
314.90231598404722
 20
469.00551748445918
 30
0.0
 11
314.90231598404722
 21
467.772517484459
 31
0.0
  0
LINE
  5
285E2
  8
0
 10
315.09659696196832
 20
469.19979846237987
 30
0.0
 11
314.90231598404722
 21
469.00551748445918
 31
0.0
  0
LINE
  5
285E3
  8
0
 10
311.67581511469052
 20
404.73193719387473
 30
0.0
 11
312.64398265071401
 21
404.47251748445888
 31
0.0
  0
LINE
  5
285E4
  8
0
 10
312.64398265071401
 20
409.17251748445909
 30
0.0
 11
312.62375994087142
 21
409.16709882568779
 31
0.0
  0
LINE
  5
285E5
  8
0
 10
313.08731598404762
 20
467.772517484459
 30
0.0
 11
313.08731598404762
 21
465.272517484459
 31
0.0
  0
LINE
  5
285E6
  8
0
 10
312.64398265071401
 20
465.272517484459
 30
0.0
 11
311.67581511469052
 21
465.0130977750436
 31
0.0
  0
LINE
  5
285E7
  8
0
 10
317.42842753974128
 20
469.00551748445918
 30
0.0
 11
314.90231598404722
 21
469.00551748445918
 31
0.0
  0
LINE
  5
285E8
  8
0
 10
320.5468714509816
 20
404.47251748445888
 30
0.0
 11
312.64398265071401
 21
404.47251748445888
 31
0.0
  0
LINE
  5
285E9
  8
0
 10
322.11559167338328
 20
409.17251748445909
 30
0.0
 11
312.64398265071401
 21
409.17251748445909
 31
0.0
  0
POLYLINE
  5
285EA
  8
0
 66
     1
 10
0.0
 20
0.0
 30
0.0
  0
VERTEX
  5
2D691
  8
0
 10
315.2890655493693
 20
404.73193719387473
 30
0.0
  0
VERTEX
  5
2D692
  8
0
 10
314.96449165369631
 20
404.65109254061639
 30
0.0
  0
VERTEX
  5
2D693
  8
0
 10
314.35493107492499
 20
404.53648220186318
 30
0.0
  0
VERTEX
  5
2D694
  8
0
 10
313.7725229033494
 20
404.47970761807892
 30
0.0
  0
VERTEX
  5
2D695
  8
0
 10
313.48244033202991
 20
404.47251748445888
 30
0.0
  0
SEQEND
  5
2D696
  8
0
  0
POLYLINE
  5
285EB
  8
0
 66
     1
 10
0.0
 20
0.0
 30
0.0
  0
VERTEX
  5
2D697
  8
0
 10
313.48244033202991
 20
404.47251748445888
 30
0.0
  0
VERTEX
  5
2D698
  8
0
 10
313.19235776071042
 20
404.47970761807892
 30
0.0
  0
VERTEX
  5
2D699
  8
0
 10
312.60994958913489
 20
404.53648220186318
 30
0.0
  0
VERTEX
  5
2D69A
  8
0
 10
312.0003890103626
 20
404.65109254061639
 30
0.0
  0
VERTEX
  5
2D69B
  8
0
 10
311.67581511469052
 20
404.73193719387473
 30
0.0
  0
SEQEND
  5
2D69C
  8
0
  0
POLYLINE
  5
285EC
  8
0
 66
     1
 10
0.0
 20
0.0
 30
0.0
  0
VERTEX
  5
2D69D
  8
0
 10
312.60411134264632
 20
409.1077098501255
 30
0.0
  0
VERTEX
  5
2D69E
  8
0
 10
312.75214003484598
 20
409.1274534435492
 30
0.0
  0
VERTEX
  5
2D69F
  8
0
 10
313.04485541117901
 20
409.15620047172979
 30
0.0
  0
VERTEX
  5
2D6A0
  8
0
 10
313.33615828310298
 20
409.1706861454449
 30
0.0
  0
VERTEX
  5
2D6A1
  8
0
 10
313.48244033202991
 20
409.17251748445909
 30
0.0
  0
SEQEND
  5
2D6A2
  8
0
  0
POLYLINE
  5
285ED
  8
0
 66
     1
 10
0.0
 20
0.0
 30
0.0
  0
VERTEX
  5
2D6A3
  8
0
 10
313.48244033202991
 20
409.17251748445909
 30
0.0
  0
VERTEX
  5
2D6A4
  8
0
 10
313.7725229033494
 20
409.16532735083911
 30
0.0
  0
VERTEX
  5
2D6A5
  8
0
 10
314.35493107492499
 20
409.10855276705468
 30
0.0
  0
VERTEX
  5
2D6A6
  8
0
 10
314.96449165369631
 20
408.99394242830158
 30
0.0
  0
VERTEX
  5
2D6A7
  8
0
 10
315.2890655493693
 20
408.9130977750437
 30
0.0
  0
SEQEND
  5
2D6A8
  8
0
  0
LINE
  5
285EE
  8
0
 10
311.67581511469052
 20
404.73193719387473
 30
0.0
 11
311.67581511469052
 21
406.32326434714639
 31
0.0
  0
POLYLINE
  5
285EF
  8
0
 66
     1
 10
0.0
 20
0.0
 30
0.0
  0
VERTEX
  5
2D6A9
  8
0
 10
318.90231598404722
 20
409.17251748445909
 30
0.0
  0
VERTEX
  5
2D6AA
  8
0
 10
319.41181502423751
 20
409.16696953259861
 30
0.0
  0
VERTEX
  5
2D6AB
  8
0
 10
320.43155272688642
 20
409.12318067914288
 30
0.0
  0
VERTEX
  5
2D6AC
  8
0
 10
321.48482412012532
 20
409.03535379820858
 30
0.0
  0
VERTEX
  5
2D6AD
  8
0
 10
322.03664218810081
 20
408.97396579771419
 30
0.0
  0
SEQEND
  5
2D6AE
  8
0
  0
POLYLINE
  5
285F0
  8
0
 66
     1
 10
0.0
 20
0.0
 30
0.0
  0
VERTEX
  5
2D6AF
  8
0
 10
320.56412886540238
 20
404.53062969394517
 30
0.0
  0
VERTEX
  5
2D6B0
  8
0
 10
320.28461872959178
 20
404.5129348188766
 30
0.0
  0
VERTEX
  5
2D6B1
  8
0
 10
319.73098081717399
 20
404.4871537549065
 30
0.0
  0
VERTEX
  5
2D6B2
  8
0
 10
319.1793511139021
 20
404.47415966482907
 30
0.0
  0
VERTEX
  5
2D6B3
  8
0
 10
318.90231598404722
 20
404.47251748445888
 30
0.0
  0
SEQEND
  5
2D6B4
  8
0
  0
POLYLINE
  5
285F1
  8
0
 66
     1
 10
0.0
 20
0.0
 30
0.0
  0
VERTEX
  5
2D6B5
  8
0
 10
318.90231598404722
 20
404.47251748445888
 30
0.0
  0
VERTEX
  5
2D6B6
  8
0
 10
318.32215084140807
 20
404.47970761807892
 30
0.0
  0
VERTEX
  5
2D6B7
  8
0
 10
317.15733449825711
 20
404.53648220186318
 30
0.0
  0
VERTEX
  5
2D6B8
  8
0
 10
315.9382133407135
 20
404.65109254061639
 30
0.0
  0
VERTEX
  5
2D6B9
  8
0
 10
315.2890655493693
 20
404.73193719387473
 30
0.0
  0
SEQEND
  5
2D6BA
  8
0
  0
LINE
  5
285F2
  8
0
 10
315.2890655493693
 20
404.73193719387473
 30
0.0
 11
315.2890655493693
 21
408.9130977750437
 31
0.0
  0
POLYLINE
  5
285F3
  8
0
 66
     1
 10
0.0
 20
0.0
 30
0.0
  0
VERTEX
  5
2D6BB
  8
0
 10
315.2890655493693
 20
408.9130977750437
 30
0.0
  0
VERTEX
  5
2D6BC
  8
0
 10
315.9382133407135
 20
408.99394242830158
 30
0.0
  0
VERTEX
  5
2D6BD
  8
0
 10
317.15733449825711
 20
409.10855276705468
 30
0.0
  0
VERTEX
  5
2D6BE
  8
0
 10
318.32215084140807
 20
409.16532735083911
 30
0.0
  0
VERTEX
  5
2D6BF
  8
0
 10
318.90231598404722
 20
409.17251748445909
 30
0.0
  0
SEQEND
  5
2D6C0
  8
0
  0
LINE
  5
285F4
  8
0
 10
319.25676755274708
 20
467.772517484459
 30
0.0
 11
313.08731598404762
 21
467.772517484459
 31
0.0
  0
LINE
  5
285F5
  8
0
 10
320.48055937885869
 20
465.272517484459
 30
0.0
 11
312.64398265071401
 21
465.272517484459
 31
0.0
  0
POLYLINE
  5
285F6
  8
0
 66
     1
 10
0.0
 20
0.0
 30
0.0
  0
VERTEX
  5
2D6C1
  8
0
 10
315.2890655493693
 20
460.0319371938744
 30
0.0
  0
VERTEX
  5
2D6C2
  8
0
 10
314.96449165369631
 20
459.95109254061663
 30
0.0
  0
VERTEX
  5
2D6C3
  8
0
 10
314.35493107492499
 20
459.83648220186342
 30
0.0
  0
VERTEX
  5
2D6C4
  8
0
 10
313.7725229033494
 20
459.7797076180791
 30
0.0
  0
VERTEX
  5
2D6C5
  8
0
 10
313.48244033202991
 20
459.772517484459
 30
0.0
  0
SEQEND
  5
2D6C6
  8
0
  0
POLYLINE
  5
285F7
  8
0
 66
     1
 10
0.0
 20
0.0
 30
0.0
  0
VERTEX
  5
2D6C7
  8
0
 10
313.48244033202991
 20
459.772517484459
 30
0.0
  0
VERTEX
  5
2D6C8
  8
0
 10
313.37080357061768
 20
459.77358432642171
 30
0.0
  0
VERTEX
  5
2D6C9
  8
0
 10
313.14852425592107
 20
459.78203815002001
 30
0.0
  0
VERTEX
  5
2D6CA
  8
0
 10
312.92618412996308
 20
459.79880699375371
 30
0.0
  0
VERTEX
  5
2D6CB
  8
0
 10
312.81448227896459
 20
459.81029708208962
 30
0.0
  0
SEQEND
  5
2D6CC
  8
0
  0
POLYLINE
  5
285F8
  8
0
 66
     1
 10
0.0
 20
0.0
 30
0.0
  0
VERTEX
  5
2D6CD
  8
0
 10
311.67581511469052
 20
465.0130977750436
 30
0.0
  0
VERTEX
  5
2D6CE
  8
0
 10
312.0003890103626
 20
465.09394242830149
 30
0.0
  0
VERTEX
  5
2D6CF
  8
0
 10
312.60994958913489
 20
465.20855276705458
 30
0.0
  0
VERTEX
  5
2D6D0
  8
0
 10
313.19235776071042
 20
465.26532735083902
 30
0.0
  0
VERTEX
  5
2D6D1
  8
0
 10
313.48244033202991
 20
465.272517484459
 30
0.0
  0
SEQEND
  5
2D6D2
  8
0
  0
POLYLINE
  5
285F9
  8
0
 66
     1
 10
0.0
 20
0.0
 30
0.0
  0
VERTEX
  5
2D6D3
  8
0
 10
313.48244033202991
 20
465.272517484459
 30
0.0
  0
VERTEX
  5
2D6D4
  8
0
 10
313.7725229033494
 20
465.26532735083902
 30
0.0
  0
VERTEX
  5
2D6D5
  8
0
 10
314.35493107492499
 20
465.20855276705458
 30
0.0
  0
VERTEX
  5
2D6D6
  8
0
 10
314.96449165369631
 20
465.09394242830149
 30
0.0
  0
VERTEX
  5
2D6D7
  8
0
 10
315.2890655493693
 20
465.0130977750436
 30
0.0
  0
SEQEND
  5
2D6D8
  8
0
  0
LINE
  5
285FA
  8
0
 10
311.67581511469052
 20
463.22177062177161
 30
0.0
 11
311.67581511469052
 21
465.0130977750436
 31
0.0
  0
POLYLINE
  5
285FB
  8
0
 66
     1
 10
0.0
 20
0.0
 30
0.0
  0
VERTEX
  5
2D6D9
  8
0
 10
318.90231598404722
 20
465.272517484459
 30
0.0
  0
VERTEX
  5
2D6DA
  8
0
 10
319.1680472841735
 20
465.2710065223377
 30
0.0
  0
VERTEX
  5
2D6DB
  8
0
 10
319.69714456869588
 20
465.25904741155051
 30
0.0
  0
VERTEX
  5
2D6DC
  8
0
 10
320.22773780233177
 20
465.2353226972441
 30
0.0
  0
VERTEX
  5
2D6DD
  8
0
 10
320.49530627326112
 20
465.21904621022532
 30
0.0
  0
SEQEND
  5
2D6DE
  8
0
  0
POLYLINE
  5
285FC
  8
0
 66
     1
 10
0.0
 20
0.0
 30
0.0
  0
VERTEX
  5
2D6DF
  8
0
 10
322.2301952638245
 20
459.99485950269849
 30
0.0
  0
VERTEX
  5
2D6E0
  8
0
 10
321.6396349532688
 20
459.92590598628522
 30
0.0
  0
VERTEX
  5
2D6E1
  8
0
 10
320.51955393662229
 20
459.827602875845
 30
0.0
  0
VERTEX
  5
2D6E2
  8
0
 10
319.44070597642258
 20
459.77871127359782
 30
0.0
  0
VERTEX
  5
2D6E3
  8
0
 10
318.90231598404722
 20
459.772517484459
 30
0.0
  0
SEQEND
  5
2D6E4
  8
0
  0
POLYLINE
  5
285FD
  8
0
 66
     1
 10
0.0
 20
0.0
 30
0.0
  0
VERTEX
  5
2D6E5
  8
0
 10
318.90231598404722
 20
459.772517484459
 30
0.0
  0
VERTEX
  5
2D6E6
  8
0
 10
318.32215084140807
 20
459.7797076180791
 30
0.0
  0
VERTEX
  5
2D6E7
  8
0
 10
317.15733449825711
 20
459.83648220186342
 30
0.0
  0
VERTEX
  5
2D6E8
  8
0
 10
315.9382133407135
 20
459.95109254061663
 30
0.0
  0
VERTEX
  5
2D6E9
  8
0
 10
315.2890655493693
 20
460.0319371938744
 30
0.0
  0
SEQEND
  5
2D6EA
  8
0
  0
LINE
  5
285FE
  8
0
 10
315.2890655493693
 20
460.0319371938744
 30
0.0
 11
315.2890655493693
 21
465.0130977750436
 31
0.0
  0
POLYLINE
  5
285FF
  8
0
 66
     1
 10
0.0
 20
0.0
 30
0.0
  0
VERTEX
  5
2D6EB
  8
0
 10
315.2890655493693
 20
465.0130977750436
 30
0.0
  0
VERTEX
  5
2D6EC
  8
0
 10
315.9382133407135
 20
465.09394242830149
 30
0.0
  0
VERTEX
  5
2D6ED
  8
0
 10
317.15733449825711
 20
465.20855276705458
 30
0.0
  0
VERTEX
  5
2D6EE
  8
0
 10
318.32215084140807
 20
465.26532735083902
 30
0.0
  0
VERTEX
  5
2D6EF
  8
0
 10
318.90231598404722
 20
465.272517484459
 30
0.0
  0
SEQEND
  5
2D6F0
  8
0
  0
LINE
  5
286B1
  8
0
 10
390.70231598404729
 20
292.44368873141963
 30
0.0
 11
390.70231598404729
 21
293.24368873141981
 31
0.0
  0
LINE
  5
286B2
  8
0
 10
321.10231598404698
 20
293.24368873141981
 30
0.0
 11
321.10231598404698
 21
292.44368873141963
 31
0.0
  0
LINE
  5
286B3
  8
0
 10
390.40353664802569
 20
283.94368873141963
 30
0.0
 11
391.90231598404722
 21
292.44368873141963
 31
0.0
  0
LINE
  5
286B4
  8
0
 10
319.90231598404722
 20
292.44368873141963
 30
0.0
 11
321.40109532006949
 21
283.94368873141963
 31
0.0
  0
LINE
  5
286B5
  8
0
 10
388.90231598404722
 20
278.2436887314197
 30
0.0
 11
388.90231598404722
 21
283.94368873141963
 31
0.0
  0
LINE
  5
286B6
  8
0
 10
322.90231598404722
 20
283.94368873141963
 30
0.0
 11
322.90231598404722
 21
281.94368873141963
 31
0.0
  0
LINE
  5
286B7
  8
0
 10
405.90231598404711
 20
295.74368873141981
 30
0.0
 11
405.90231598404711
 21
293.24368873141981
 31
0.0
  0
LINE
  5
286B8
  8
0
 10
305.90231598404722
 20
295.74368873141981
 30
0.0
 11
305.90231598404722
 21
293.24368873141981
 31
0.0
  0
LINE
  5
286B9
  8
0
 10
305.90231598404722
 20
295.74368873141981
 30
0.0
 11
405.90231598404711
 21
295.74368873141981
 31
0.0
  0
LINE
  5
286BA
  8
0
 10
305.90231598404722
 20
293.24368873141981
 30
0.0
 11
405.90231598404711
 21
293.24368873141981
 31
0.0
  0
LINE
  5
286BB
  8
0
 10
319.90231598404722
 20
292.44368873141963
 30
0.0
 11
391.90231598404722
 21
292.44368873141963
 31
0.0
  0
LINE
  5
286BC
  8
0
 10
321.40109532006949
 20
283.94368873141963
 30
0.0
 11
390.40353664802569
 21
283.94368873141963
 31
0.0
  0
LINE
  5
286BD
  8
0
 10
334.3616567555091
 20
281.94368873141963
 30
0.0
 11
310.90231598404722
 21
281.94368873141963
 31
0.0
  0
LINE
  5
286BE
  8
0
 10
334.3616567555091
 20
281.94368873141963
 30
0.0
 11
334.3616567555091
 21
200.1830750390545
 31
0.0
  0
LINE
  5
286BF
  8
0
 10
310.90231598404722
 20
281.94368873141963
 30
0.0
 11
310.90231598404722
 21
278.2436887314197
 31
0.0
  0
ARC
  5
286C0
  8
0
 10
323.60231598404698
 20
202.24368873141981
 30
0.0
 40
10.000000000000041
 50
270.0
 51
325.05814374493218
  0
LINE
  5
286C1
  8
0
 10
314.20231598404729
 20
192.2436887314197
 30
0.0
 11
323.60231598404698
 21
192.2436887314197
 31
0.0
  0
LINE
  5
286C2
  8
0
 10
310.90231598404722
 20
278.2436887314197
 30
0.0
 11
304.24140119739968
 21
203.12696479989421
 31
0.0
  0
LINE
  5
286C3
  8
0
 10
331.79965286050992
 20
196.51624007309141
 30
0.0
 11
334.3616567555091
 21
200.1830750390545
 31
0.0
  0
POLYLINE
  5
286C4
  8
0
 66
     1
 10
0.0
 20
0.0
 30
0.0
  0
VERTEX
  5
2D6F1
  8
0
 10
334.3616567555091
 20
200.1830750390545
 30
0.0
  0
VERTEX
  5
2D6F2
  8
0
 10
334.62697450944961
 20
200.5628076456824
 30
0.0
  0
VERTEX
  5
2D6F3
  8
0
 10
335.16470404369193
 20
201.3324260924928
 30
0.0
  0
VERTEX
  5
2D6F4
  8
0
 10
335.71169178570022
 20
202.1152952295233
 30
0.0
  0
VERTEX
  5
2D6F5
  8
0
 10
335.98858133058371
 20
202.51158981239769
 30
0.0
  0
VERTEX
  5
2D6F6
  8
0
 10
336.26769353540931
 20
202.91106554858919
 30
0.0
  0
VERTEX
  5
2D6F7
  8
0
 10
336.83246106849577
 20
203.71938178183339
 30
0.0
  0
VERTEX
  5
2D6F8
  8
0
 10
337.4057422471933
 20
204.53988306033531
 30
0.0
  0
VERTEX
  5
2D6F9
  8
0
 10
337.98728113285779
 20
205.3722030752206
 30
0.0
  0
VERTEX
  5
2D6FA
  8
0
 10
338.57681810023229
 20
206.21597024119461
 30
0.0
  0
VERTEX
  5
2D6FB
  8
0
 10
339.17408995335518
 20
207.0708078624375
 30
0.0
  0
VERTEX
  5
2D6FC
  8
0
 10
339.47554326585401
 20
207.5022590202725
 30
0.0
  0
VERTEX
  5
2D6FD
  8
0
 10
339.77883004306108
 20
207.9363343007781
 30
0.0
  0
VERTEX
  5
2D6FE
  8
0
 10
340.39076838602608
 20
208.81216314607261
 30
0.0
  0
VERTEX
  5
2D6FF
  8
0
 10
341.00963178530219
 20
209.69790338872011
 30
0.0
  0
VERTEX
  5
2D700
  8
0
 10
341.63514395228049
 20
210.59315959421929
 30
0.0
  0
VERTEX
  5
2D701
  8
0
 10
342.2670256300425
 20
211.49753207971571
 30
0.0
  0
VERTEX
  5
2D702
  8
0
 10
342.90499471803378
 20
212.41061709243331
 30
0.0
  0
VERTEX
  5
2D703
  8
0
 10
343.2261731378531
 20
212.8702995552139
 30
0.0
  0
VERTEX
  5
2D704
  8
0
 10
343.54876639800301
 20
213.33200698993281
 30
0.0
  0
VERTEX
  5
2D705
  8
0
 10
344.19805326115778
 20
214.26129042209499
 30
0.0
  0
VERTEX
  5
2D706
  8
0
 10
344.85256543648211
 20
215.1980525147728
 30
0.0
  0
VERTEX
  5
2D707
  8
0
 10
345.18168979007532
 20
215.6691074925821
 30
0.0
  0
VERTEX
  5
2D708
  8
0
 10
345.51201072014192
 20
216.14187505500561
 30
0.0
  0
VERTEX
  5
2D709
  8
0
 10
346.17609470594198
 20
217.09233667772969
 30
0.0
  0
VERTEX
  5
2D70A
  8
0
 10
346.84452091675939
 20
218.0490130538947
 30
0.0
  0
VERTEX
  5
2D70B
  8
0
 10
347.18026917373481
 20
218.5295484078197
 30
0.0
  0
VERTEX
  5
2D70C
  8
0
 10
347.51699093690507
 20
219.01147707990549
 30
0.0
  0
VERTEX
  5
2D70D
  8
0
 10
348.19320454535409
 20
219.97929906829361
 30
0.0
  0
VERTEX
  5
2D70E
  8
0
 10
348.8728598497691
 20
220.95204693955839
 30
0.0
  0
VERTEX
  5
2D70F
  8
0
 10
349.5556534212883
 20
221.9292864150602
 30
0.0
  0
VERTEX
  5
2D710
  8
0
 10
350.24128042998473
 20
222.91058121090461
 30
0.0
  0
VERTEX
  5
2D711
  8
0
 10
350.92943478095458
 20
223.89549323271791
 30
0.0
  0
VERTEX
  5
2D712
  8
0
 10
351.2743637428639
 20
224.38916835193589
 30
0.0
  0
VERTEX
  5
2D713
  8
0
 10
351.6198092509776
 20
224.8835827712337
 30
0.0
  0
VERTEX
  5
2D714
  8
0
 10
352.31209562566892
 20
225.87440869860069
 30
0.0
  0
VERTEX
  5
2D715
  8
0
 10
353.00598483708558
 20
226.86752866531609
 30
0.0
  0
VERTEX
  5
2D716
  8
0
 10
353.70116710170441
 20
227.8624992977166
 30
0.0
  0
VERTEX
  5
2D717
  8
0
 10
354.3973320587238
 20
228.8588763959178
 30
0.0
  0
VERTEX
  5
2D718
  8
0
 10
355.09416890862582
 20
229.856215132123
 30
0.0
  0
VERTEX
  5
2D719
  8
0
 10
355.44274208273958
 20
230.35510598296599
 30
0.0
  0
VERTEX
  5
2D71A
  8
0
 10
355.79136655192821
 20
230.85407024922091
 30
0.0
  0
VERTEX
  5
2D71B
  8
0
 10
356.4886137280746
 20
231.85199625956011
 30
0.0
  0
VERTEX
  5
2D71C
  8
0
 10
357.18559915439528
 20
232.84954764384381
 30
0.0
  0
VERTEX
  5
2D71D
  8
0
 10
357.88201166507503
 20
233.8462790500225
 30
0.0
  0
VERTEX
  5
2D71E
  8
0
 10
358.57754035007753
 20
234.84174549212099
 30
0.0
  0
VERTEX
  5
2D71F
  8
0
 10
359.27187469394448
 20
235.83550254890361
 30
0.0
  0
VERTEX
  5
2D720
  8
0
 10
359.61849709388389
 20
236.3316013794192
 30
0.0
  0
VERTEX
  5
2D721
  8
0
 10
359.96470471442439
 20
236.8271065622794
 30
0.0
  0
VERTEX
  5
2D722
  8
0
 10
360.65572110086669
 20
237.8161148353756
 30
0.0
  0
VERTEX
  5
2D723
  8
0
 10
361.34461535230639
 20
238.80208583017429
 30
0.0
  0
VERTEX
  5
2D724
  8
0
 10
362.03107991519659
 20
239.78457936463559
 30
0.0
  0
VERTEX
  5
2D725
  8
0
 10
362.71480832071393
 20
240.76315680921471
 30
0.0
  0
VERTEX
  5
2D726
  8
0
 10
363.39549532157707
 20
241.73738128268809
 30
0.0
  0
VERTEX
  5
2D727
  8
0
 10
363.73460327305378
 20
242.22272515595071
 30
0.0
  0
VERTEX
  5
2D728
  8
0
 10
364.07283702832859
 20
242.70681784719449
 30
0.0
  0
VERTEX
  5
2D729
  8
0
 10
364.74653104499788
 20
243.6710337024106
 30
0.0
  0
VERTEX
  5
2D72A
  8
0
 10
365.41627660411268
 20
244.62959837877679
 30
0.0
  0
VERTEX
  5
2D72B
  8
0
 10
366.08177470096598
 20
245.58208392967211
 30
0.0
  0
VERTEX
  5
2D72C
  8
0
 10
366.74272822711282
 20
246.52806512247301
 30
0.0
  0
VERTEX
  5
2D72D
  8
0
 10
367.39884210300988
 20
247.467119628398
 30
0.0
  0
VERTEX
  5
2D72E
  8
0
 10
367.72499254697499
 20
247.93391823648199
 30
0.0
  0
VERTEX
  5
2D72F
  8
0
 10
368.04982340975312
 20
248.39882821104669
 30
0.0
  0
VERTEX
  5
2D730
  8
0
 10
368.69538151984671
 20
249.32277491357581
 30
0.0
  0
VERTEX
  5
2D731
  8
0
 10
369.33522822695699
 20
250.23854724439479
 30
0.0
  0
VERTEX
  5
2D732
  8
0
 10
369.65292043363843
 20
250.69324010967469
 30
0.0
  0
VERTEX
  5
2D733
  8
0
 10
369.96907787458082
 20
251.14573636132261
 30
0.0
  0
VERTEX
  5
2D734
  8
0
 10
370.59664748356948
 20
252.0439372541114
 30
0.0
  0
VERTEX
  5
2D735
  8
0
 10
371.21765687847068
 20
252.9327489252646
 30
0.0
  0
VERTEX
  5
2D736
  8
0
 10
371.52561473825239
 20
253.3735096323399
 30
0.0
  0
VERTEX
  5
2D737
  8
0
 10
371.83182881260751
 20
253.81177456905789
 30
0.0
  0
VERTEX
  5
2D738
  8
0
 10
372.43888909185262
 20
254.68062174869371
 30
0.0
  0
VERTEX
  5
2D739
  8
0
 10
373.03856669704783
 20
255.53890257149939
 30
0.0
  0
VERTEX
  5
2D73A
  8
0
 10
373.63059390498893
 20
256.38623386210389
 30
0.0
  0
VERTEX
  5
2D73B
  8
0
 10
374.21470640795911
 20
257.22223733349892
 30
0.0
  0
VERTEX
  5
2D73C
  8
0
 10
374.79064343172291
 20
258.04653975593101
 30
0.0
  0
VERTEX
  5
2D73D
  8
0
 10
375.07546564182309
 20
258.45418786338178
 30
0.0
  0
VERTEX
  5
2D73E
  8
0
 10
375.3581478519464
 20
258.85877312352022
 30
0.0
  0
VERTEX
  5
2D73F
  8
0
 10
375.91696630899241
 20
259.65857481856261
 30
0.0
  0
VERTEX
  5
2D740
  8
0
 10
376.4668493210329
 20
260.44558777341172
 30
0.0
  0
VERTEX
  5
2D741
  8
0
 10
377.00755139542349
 20
261.2194606298944
 30
0.0
  0
VERTEX
  5
2D742
  8
0
 10
377.5388311383058
 20
261.97984789617112
 30
0.0
  0
VERTEX
  5
2D743
  8
0
 10
378.0604513623785
 20
262.72641010098141
 30
0.0
  0
VERTEX
  5
2D744
  8
0
 10
378.3175662101566
 20
263.09440240417098
 30
0.0
  0
VERTEX
  5
2D745
  8
0
 10
378.57217919278349
 20
263.45881394519529
 30
0.0
  0
VERTEX
  5
2D746
  8
0
 10
379.0737861710777
 20
264.17673245061451
 30
0.0
  0
VERTEX
  5
2D747
  8
0
 10
379.5650483572208
 20
264.8798451059547
 30
0.0
  0
VERTEX
  5
2D748
  8
0
 10
380.04574642955691
 20
265.56783800992889
 30
0.0
  0
VERTEX
  5
2D749
  8
0
 10
380.51566578273008
 20
266.24040401139428
 30
0.0
  0
VERTEX
  5
2D74A
  8
0
 10
380.97459662348871
 20
266.89724284647127
 30
0.0
  0
VERTEX
  5
2D74B
  8
0
 10
381.19987713022692
 20
267.21967266044248
 30
0.0
  0
VERTEX
  5
2D74C
  8
0
 10
381.42233406435298
 20
267.53806127260032
 30
0.0
  0
VERTEX
  5
2D74D
  8
0
 10
381.8586782150806
 20
268.1625731994572
 30
0.0
  0
VERTEX
  5
2D74E
  8
0
 10
382.28343427191152
 20
268.77049981667727
 30
0.0
  0
VERTEX
  5
2D74F
  8
0
 10
382.69641260453233
 20
269.36156971832679
 30
0.0
  0
VERTEX
  5
2D750
  8
0
 10
383.09742884074058
 20
269.93551902407029
 30
0.0
  0
VERTEX
  5
2D751
  8
0
 10
383.48630394875357
 20
270.4920914969843
 30
0.0
  0
VERTEX
  5
2D752
  8
0
 10
383.67613411224562
 20
270.76378346530879
 30
0.0
  0
VERTEX
  5
2D753
  8
0
 10
383.86286431713779
 20
271.0310386579477
 30
0.0
  0
VERTEX
  5
2D754
  8
0
 10
384.22694183231579
 20
271.55211989657442
 30
0.0
  0
VERTEX
  5
2D755
  8
0
 10
384.57837395361997
 20
272.05510257863722
 30
0.0
  0
VERTEX
  5
2D756
  8
0
 10
384.91700378585853
 20
272.53976214991781
 30
0.0
  0
VERTEX
  5
2D757
  8
0
 10
385.24268014936212
 20
273.00588223646992
 30
0.0
  0
VERTEX
  5
2D758
  8
0
 10
385.55525764747381
 20
273.4532547412054
 30
0.0
  0
VERTEX
  5
2D759
  8
0
 10
385.70659048287331
 20
273.6698479061979
 30
0.0
  0
VERTEX
  5
2D75A
  8
0
 10
385.85459673146312
 20
273.88167993680872
 30
0.0
  0
VERTEX
  5
2D75B
  8
0
 10
386.14056376282588
 20
274.29096655489781
 30
0.0
  0
VERTEX
  5
2D75C
  8
0
 10
386.41303107294789
 20
274.68093187141682
 30
0.0
  0
VERTEX
  5
2D75D
  8
0
 10
386.54416408257481
 20
274.86861429681448
 30
0.0
  0
VERTEX
  5
2D75E
  8
0
 10
386.6718770200996
 20
275.05140178821421
 30
0.0
  0
VERTEX
  5
2D75F
  8
0
 10
386.91698604374602
 20
275.40221091076552
 30
0.0
  0
VERTEX
  5
2D760
  8
0
 10
387.14824871613291
 20
275.73320262201469
 30
0.0
  0
VERTEX
  5
2D761
  8
0
 10
387.25865516344493
 20
275.8912204229473
 30
0.0
  0
VERTEX
  5
2D762
  8
0
 10
387.36556179114717
 20
276.0442291522931
 30
0.0
  0
VERTEX
  5
2D763
  8
0
 10
387.56882825040339
 20
276.33515164529308
 30
0.0
  0
VERTEX
  5
2D764
  8
0
 10
387.7579573465618
 20
276.605840220056
 30
0.0
  0
VERTEX
  5
2D765
  8
0
 10
387.93286464384249
 20
276.85617402896332
 30
0.0
  0
VERTEX
  5
2D766
  8
0
 10
388.09347205571697
 20
277.08604131168067
 30
0.0
  0
VERTEX
  5
2D767
  8
0
 10
388.23970787977493
 20
277.29533944505869
 30
0.0
  0
VERTEX
  5
2D768
  8
0
 10
388.30741579296131
 20
277.39224552081851
 30
0.0
  0
VERTEX
  5
2D769
  8
0
 10
388.37150682973061
 20
277.48397498894519
 30
0.0
  0
VERTEX
  5
2D76A
  8
0
 10
388.48881006457219
 20
277.65186372790407
 30
0.0
  0
VERTEX
  5
2D76B
  8
0
 10
388.59156521483061
 20
277.79893070880831
 30
0.0
  0
VERTEX
  5
2D76C
  8
0
 10
388.6797264059615
 20
277.92511027430828
 30
0.0
  0
VERTEX
  5
2D76D
  8
0
 10
388.75325427882223
 20
278.03034609213859
 30
0.0
  0
VERTEX
  5
2D76E
  8
0
 10
388.81211600724328
 20
278.11459118027318
 30
0.0
  0
VERTEX
  5
2D76F
  8
0
 10
388.8360385991391
 20
278.14883008077231
 30
0.0
  0
VERTEX
  5
2D770
  8
0
 10
388.85628531268958
 20
278.1778079278929
 30
0.0
  0
VERTEX
  5
2D771
  8
0
 10
388.88574247598439
 20
278.21996811218378
 30
0.0
  0
VERTEX
  5
2D772
  8
0
 10
388.9004743461183
 20
278.24105291093292
 30
0.0
  0
VERTEX
  5
2D773
  8
0
 10
388.90231598404722
 20
278.2436887314197
 30
0.0
  0
SEQEND
  5
2D774
  8
0
  0
ARC
  5
286C5
  8
0
 10
314.20231598404729
 20
202.24368873141981
 30
0.0
 40
10.000000000000011
 50
174.93259717388781
 51
270.0
  0
LINE
  5
286CA
  8
1
 10
355.90231598404671
 20
306.8814811489255
 30
0.0
 11
355.90231598404722
 21
243.9936887314197
 31
0.0
  0
CIRCLE
  5
286CB
  8
0
 10
318.90231598404722
 20
202.24368873141981
 30
0.0
 40
6.2583333333333391
  0
ARC
  5
286CC
  8
0
 10
318.90231598404722
 20
202.24368873141981
 30
0.0
 40
15.999999999999989
 50
151.51056945108721
 51
355.03759689462379
  0
ARC
  5
286CD
  8
0
 10
318.90231598404722
 20
202.24368873141981
 30
0.0
 40
53.499999999999979
 50
100.8602282512839
 51
40.05156953016612
  0
ARC
  5
286CE
  8
0
 10
318.90231598404722
 20
202.24368873141981
 30
0.0
 40
62.499999999999957
 50
98.518683704574201
 51
42.252533922177669
  0
LINE
  5
286CF
  8
0
 10
364.29141532215499
 20
180.10594581857089
 30
0.0
 11
335.08060881743222
 21
194.3530080892169
 31
0.0
  0
ARC
  5
286D0
  8
0
 10
318.90231598404722
 20
202.24368873141981
 30
0.0
 40
18.0
 50
139.5838949680134
 51
4.7404185328973298
  0
LINE
  5
286D1
  8
0
 10
318.90231598404722
 20
184.2436887314197
 30
0.0
 11
318.90231598404722
 21
151.7436887314197
 31
0.0
  0
LINE
  5
286D2
  8
0
 10
277.03591857001811
 20
174.00444710614639
 30
0.0
 11
303.97963967805669
 21
192.1782164689466
 31
0.0
  0
ARC
  5
286D3
  8
0
 10
318.90231598404722
 20
202.24368873141981
 30
0.0
 40
50.5
 50
101.83398356034429
 51
39.137134731832518
  0
LINE
  5
286D4
  8
0
 10
362.63659887516133
 20
227.4936887314197
 30
0.0
 11
347.22761058881127
 21
218.59730519635559
 31
0.0
  0
LINE
  5
286D5
  8
0
 10
275.168033092933
 20
227.4936887314197
 30
0.0
 11
303.31385871592693
 21
211.2436887314197
 31
0.0
  0
ARC
  5
286D6
  8
0
 10
318.90231598404353
 20
202.2436887314179
 30
0.0
 40
46.439712300848527
 50
29.999999999997289
 51
37.702899576810061
  0
ARC
  5
286D7
  8
0
 10
318.90231598404722
 20
202.24368873141981
 30
0.0
 40
46.439712300844313
 50
150.0000000000027
 51
214.0000000000027
  0
ARC
  5
286D8
  8
0
 10
318.90231598404722
 20
202.24368873141981
 30
0.0
 40
46.439712300844363
 50
270.0
 51
334.00000000000358
  0
LINE
  5
286D9
  8
1
 10
245.26452356654229
 20
202.24368873141981
 30
0.0
 11
392.54010840155212
 21
202.24368873141981
 31
0.0
  0
LINE
  5
286DA
  8
1
 10
318.90231598404722
 20
128.6058963139148
 30
0.0
 11
318.90231598404722
 21
267.24406357791122
 31
0.0
  0
CIRCLE
  5
286ED
  8
0
 10
355.90231598404722
 20
434.772517484459
 30
0.0
 40
8.9249999999999972
  0
CIRCLE
  5
286EE
  8
0
 10
355.90231598404722
 20
434.772517484459
 30
0.0
 40
13.57900689360916
  0
CIRCLE
  5
286EF
  8
0
 10
355.90231598404722
 20
434.772517484459
 30
0.0
 40
20.175000000000001
  0
CIRCLE
  5
286F0
  8
0
 10
355.90231598404722
 20
434.772517484459
 30
0.0
 40
25.668546822706869
  0
CIRCLE
  5
286F1
  8
0
 10
355.90231598404722
 20
434.772517484459
 30
0.0
 40
27.174999999999962
  0
CIRCLE
  5
286F2
  8
0
 10
355.90231598404722
 20
434.772517484459
 30
0.0
 40
31.175000000000001
  0
LINE
  5
286F3
  8
1
 10
402.7608112670614
 20
404.77251748445912
 30
0.0
 11
389.04382070103293
 21
404.77251748445912
 31
0.0
  0
LINE
  5
286F4
  8
1
 10
395.90231598404722
 20
397.91402220144482
 30
0.0
 11
395.90231598404722
 21
411.63101276747329
 31
0.0
  0
LINE
  5
286F5
  8
1
 10
400.26081126706129
 20
412.272517484459
 30
0.0
 11
386.54382070103293
 21
412.272517484459
 31
0.0
  0
LINE
  5
286F6
  8
1
 10
393.40231598404722
 20
405.41402220144482
 30
0.0
 11
393.40231598404722
 21
419.13101276747278
 31
0.0
  0
LINE
  5
286F7
  8
1
 10
325.2608112670614
 20
412.272517484459
 30
0.0
 11
311.54382070103293
 21
412.272517484459
 31
0.0
  0
LINE
  5
286F8
  8
1
 10
318.40231598404722
 20
405.41402220144482
 30
0.0
 11
318.40231598404722
 21
419.13101276747278
 31
0.0
  0
LINE
  5
286F9
  8
1
 10
322.7608112670614
 20
404.77251748445912
 30
0.0
 11
309.04382070103298
 21
404.77251748445912
 31
0.0
  0
LINE
  5
286FA
  8
1
 10
315.90231598404722
 20
397.91402220144482
 30
0.0
 11
315.90231598404722
 21
411.63101276747278
 31
0.0
  0
LINE
  5
286FB
  8
1
 10
402.7608112670614
 20
464.7725174844586
 30
0.0
 11
389.04382070103293
 21
464.7725174844586
 31
0.0
  0
LINE
  5
286FC
  8
1
 10
395.90231598404722
 20
471.63101276747278
 30
0.0
 11
395.90231598404722
 21
457.91402220144431
 31
0.0
  0
LINE
  5
286FD
  8
1
 10
400.26081126706129
 20
457.2725174844586
 30
0.0
 11
386.54382070103293
 21
457.2725174844586
 31
0.0
  0
LINE
  5
286FE
  8
1
 10
393.40231598404722
 20
464.13101276747278
 30
0.0
 11
393.40231598404722
 21
450.41402220144482
 31
0.0
  0
LINE
  5
286FF
  8
1
 10
325.2608112670614
 20
457.2725174844586
 30
0.0
 11
311.54382070103293
 21
457.2725174844586
 31
0.0
  0
LINE
  5
28700
  8
1
 10
318.40231598404722
 20
464.13101276747278
 30
0.0
 11
318.40231598404722
 21
450.41402220144482
 31
0.0
  0
LINE
  5
28701
  8
1
 10
322.7608112670614
 20
464.7725174844586
 30
0.0
 11
309.04382070103298
 21
464.7725174844586
 31
0.0
  0
LINE
  5
28702
  8
1
 10
315.90231598404722
 20
471.63101276747278
 30
0.0
 11
315.90231598404722
 21
457.91402220144482
 31
0.0
  0
LINE
  5
28703
  8
1
 10
318.90231598404722
 20
483.36311804212392
 30
0.0
 11
318.90231598404722
 21
386.1819169267938
 31
0.0
  0
LINE
  5
28714
  8
0
 10
315.28906554936839
 20
208.50202206475299
 30
0.0
 11
322.51556641872588
 21
208.50202206475299
 31
0.0
  0
LINE
  5
28715
  8
0
 10
315.28906554936839
 20
195.98535539808651
 30
0.0
 11
322.51556641872588
 21
195.98535539808651
 31
0.0
  0
LINE
  5
28716
  8
0
 10
322.51556641872588
 20
208.50202206475299
 30
0.0
 11
326.1288168534038
 21
202.24368873141981
 31
0.0
  0
LINE
  5
28717
  8
0
 10
326.1288168534038
 20
202.24368873141981
 30
0.0
 11
322.51556641872588
 21
195.98535539808651
 31
0.0
  0
LINE
  5
28718
  8
0
 10
315.28906554936839
 20
208.50202206475299
 30
0.0
 11
311.67581511469052
 21
202.24368873141981
 31
0.0
  0
LINE
  5
28719
  8
0
 10
311.67581511469052
 20
202.24368873141981
 30
0.0
 11
315.28906554936839
 21
195.98535539808651
 31
0.0
  0
LINE
  5
2871A
  8
1
 10
486.27427697997382
 20
202.24368873141981
 30
0.0
 11
578.74505230930697
 21
202.24368873141981
 31
0.0
  0
LINE
  5
2871B
  8
1
 10
532.50966464464045
 20
128.6058963139148
 30
0.0
 11
532.50966464464045
 21
306.88148114892471
 31
0.0
  0
LINE
  5
28722
  8
1
 10
151.53035498812051
 20
202.24368873141981
 30
0.0
 11
59.059579658787243
 21
202.24368873141981
 31
0.0
  0
LINE
  5
28723
  8
1
 10
105.2949673234538
 20
128.6058963139148
 30
0.0
 11
105.2949673234538
 21
306.88148114892471
 31
0.0
  0
LINE
  5
287DC
  8
0
 10
256.40231598404722
 20
448.74650485992458
 30
0.0
 11
256.40231598404722
 21
420.79853010899291
 31
0.0
  0
ARC
  5
287DD
  8
0
 10
258.90231598404722
 20
448.74650485992458
 30
0.0
 40
2.499999999999992
 50
104.9999999999944
 51
180.0
  0
LINE
  5
287DE
  8
0
 10
262.40231598404722
 20
452.272517484459
 30
0.0
 11
258.25526837129109
 21
451.16131942564738
 31
0.0
  0
LINE
  5
287E2
  8
0
 10
258.25526837129109
 20
418.38371554327023
 30
0.0
 11
262.40231598404722
 21
417.27251748445912
 31
0.0
  0
ARC
  5
287E4
  8
0
 10
258.90231598404722
 20
420.79853010899291
 30
0.0
 40
2.4999999999999849
 50
180.0
 51
255.0000000000056
  0
LINE
  5
287E5
  8
0
 10
305.90231598404722
 20
448.74650485992458
 30
0.0
 11
256.40231598404722
 21
448.74650485992458
 31
0.0
  0
LINE
  5
287E6
  8
0
 10
305.90231598404722
 20
452.272517484459
 30
0.0
 11
262.40231598404722
 21
452.272517484459
 31
0.0
  0
LINE
  5
287E7
  8
0
 10
305.90231598404722
 20
417.27251748445912
 30
0.0
 11
262.40231598404722
 21
417.27251748445912
 31
0.0
  0
LINE
  5
287E8
  8
0
 10
305.90231598404722
 20
420.79853010899342
 30
0.0
 11
256.40231598404722
 21
420.79853010899291
 31
0.0
  0
LINE
  5
287F6
  8
0
 10
304.2023159840474
 20
459.77251748445809
 30
0.0
 11
304.2023159840474
 21
457.27251748445809
 31
0.0
  0
LINE
  5
28865
  8
0
 10
304.2023159840474
 20
457.27251748445809
 30
0.0
 11
305.90231598404722
 21
457.27251748445809
 31
0.0
  0
LINE
  5
28866
  8
0
 10
304.2023159840474
 20
459.77251748445809
 30
0.0
 11
305.90231598404722
 21
459.77251748445809
 31
0.0
  0
LINE
  5
28867
  8
0
 10
304.2023159840474
 20
409.77251748445991
 30
0.0
 11
304.2023159840474
 21
412.27251748446002
 31
0.0
  0
LINE
  5
28868
  8
0
 10
304.2023159840474
 20
412.27251748446002
 30
0.0
 11
305.90231598404722
 21
412.27251748446002
 31
0.0
  0
LINE
  5
28869
  8
0
 10
304.2023159840474
 20
409.77251748445991
 30
0.0
 11
305.90231598404722
 21
409.77251748445991
 31
0.0
  0
LINE
  5
2D21C
  8
0
 10
567.30966464464041
 20
292.44368873141963
 30
0.0
 11
567.30966464464041
 21
293.24368873141981
 31
0.0
  0
LINE
  5
2D21D
  8
0
 10
497.7096646446405
 20
293.24368873141981
 30
0.0
 11
497.7096646446405
 21
292.44368873141963
 31
0.0
  0
LINE
  5
2D21E
  8
0
 10
567.01088530861853
 20
283.94368873141963
 30
0.0
 11
568.50966464464045
 21
292.44368873141963
 31
0.0
  0
LINE
  5
2D21F
  8
0
 10
496.5096646446404
 20
292.44368873141963
 30
0.0
 11
498.00844398066232
 21
283.94368873141963
 31
0.0
  0
LINE
  5
2D222
  8
0
 10
565.50966464464045
 20
231.01286519014141
 30
0.0
 11
565.50966464464045
 21
283.94368873141963
 31
0.0
  0
LINE
  5
2D223
  8
0
 10
499.50966464464051
 20
283.94368873141963
 30
0.0
 11
499.50966464464051
 21
231.01286519014141
 31
0.0
  0
LINE
  5
2D22A
  8
0
 10
575.00966464464045
 20
295.74368873141981
 30
0.0
 11
575.00966464464045
 21
293.24368873141981
 31
0.0
  0
LINE
  5
2D22C
  8
0
 10
490.0096646446404
 20
295.74368873141981
 30
0.0
 11
575.00966464464045
 21
295.74368873141981
 31
0.0
  0
LINE
  5
2D22E
  8
0
 10
490.0096646446404
 20
293.24368873141981
 30
0.0
 11
575.00966464464045
 21
293.24368873141981
 31
0.0
  0
LINE
  5
2D22F
  8
0
 10
490.0096646446404
 20
295.74368873141981
 30
0.0
 11
490.0096646446404
 21
293.24368873141981
 31
0.0
  0
LINE
  5
2D241
  8
0
 10
496.5096646446404
 20
292.44368873141963
 30
0.0
 11
568.50966464464045
 21
292.44368873141963
 31
0.0
  0
LINE
  5
2D242
  8
0
 10
498.00844398066232
 20
283.94368873141963
 30
0.0
 11
567.01088530861853
 21
283.94368873141963
 31
0.0
  0
LINE
  5
2D248
  8
0
 10
507.5096646446404
 20
192.2436887314197
 30
0.0
 11
507.5096646446404
 21
200.1830750390545
 31
0.0
  0
LINE
  5
2D249
  8
0
 10
507.5096646446404
 20
192.2436887314197
 30
0.0
 11
512.00966464464045
 21
192.2436887314197
 31
0.0
  0
POLYLINE
  5
2D24D
  8
0
 66
     1
 10
0.0
 20
0.0
 30
0.0
  0
VERTEX
  5
2D775
  8
0
 10
507.5096646446404
 20
200.1830750390545
 30
0.0
  0
VERTEX
  5
2D776
  8
0
 10
507.08901998104329
 20
200.89592233069831
 30
0.0
  0
VERTEX
  5
2D777
  8
0
 10
506.27765407158739
 20
202.35659578554441
 30
0.0
  0
VERTEX
  5
2D778
  8
0
 10
505.5072349532411
 20
203.86200017224289
 30
0.0
  0
VERTEX
  5
2D779
  8
0
 10
505.13775879690343
 20
204.63074476253041
 30
0.0
  0
VERTEX
  5
2D77A
  8
0
 10
504.77896520979539
 20
205.40978563359201
 30
0.0
  0
VERTEX
  5
2D77B
  8
0
 10
504.09398163207868
 20
206.99753615775811
 30
0.0
  0
VERTEX
  5
2D77C
  8
0
 10
503.4533534434895
 20
208.62277334954251
 30
0.0
  0
VERTEX
  5
2D77D
  8
0
 10
502.85808063099142
 20
210.28296029902771
 30
0.0
  0
VERTEX
  5
2D77E
  8
0
 10
502.3090923841882
 20
211.97550554155811
 30
0.0
  0
VERTEX
  5
2D77F
  8
0
 10
501.80724564490691
 20
213.69776710288349
 30
0.0
  0
VERTEX
  5
2D780
  8
0
 10
501.57424804812439
 20
214.56920308829649
 30
0.0
  0
VERTEX
  5
2D781
  8
0
 10
501.35332376955648
 20
215.44705662313939
 30
0.0
  0
VERTEX
  5
2D782
  8
0
 10
500.94803530634948
 20
217.22064355323619
 30
0.0
  0
VERTEX
  5
2D783
  8
0
 10
500.5920128892962
 20
219.0157594171032
 30
0.0
  0
VERTEX
  5
2D784
  8
0
 10
500.28581225069593
 20
220.82960213313621
 30
0.0
  0
VERTEX
  5
2D785
  8
0
 10
500.02991135366659
 20
222.65934038809701
 30
0.0
  0
VERTEX
  5
2D786
  8
0
 10
499.82470964607239
 20
224.5021180566446
 30
0.0
  0
VERTEX
  5
2D787
  8
0
 10
499.7412241907823
 20
225.42749844375521
 30
0.0
  0
VERTEX
  5
2D788
  8
0
 10
499.67052743700378
 20
226.3550586596011
 30
0.0
  0
VERTEX
  5
2D789
  8
0
 10
499.56760539679362
 20
228.2152698539785
 30
0.0
  0
VERTEX
  5
2D78A
  8
0
 10
499.51610418134169
 20
230.07984794777889
 30
0.0
  0
VERTEX
  5
2D78B
  8
0
 10
499.50966464464051
 20
231.01286519014141
 30
0.0
  0
SEQEND
  5
2D78C
  8
0
  0
POLYLINE
  5
2D24E
  8
0
 66
     1
 10
0.0
 20
0.0
 30
0.0
  0
VERTEX
  5
2D78D
  8
0
 10
499.50966464464051
 20
231.01286519014141
 30
0.0
  0
VERTEX
  5
2D78E
  8
0
 10
499.51315499104589
 20
231.69978545372581
 30
0.0
  0
VERTEX
  5
2D78F
  8
0
 10
499.54107333243923
 20
233.07304477777231
 30
0.0
  0
VERTEX
  5
2D790
  8
0
 10
499.59688639352157
 20
234.44456098420869
 30
0.0
  0
VERTEX
  5
2D791
  8
0
 10
499.6352396076129
 20
235.12930269646591
 30
0.0
  0
VERTEX
  5
2D792
  8
0
 10
499.68054695087119
 20
235.81317363339801
 30
0.0
  0
VERTEX
  5
2D793
  8
0
 10
499.7919842193046
 20
237.17772474240249
 30
0.0
  0
VERTEX
  5
2D794
  8
0
 10
499.93110391176691
 20
238.53705976475251
 30
0.0
  0
VERTEX
  5
2D795
  8
0
 10
500.09778831910961
 20
239.89002856731079
 30
0.0
  0
VERTEX
  5
2D796
  8
0
 10
500.29189640968252
 20
241.23548640339499
 30
0.0
  0
VERTEX
  5
2D797
  8
0
 10
500.5132639486626
 20
242.5722948813509
 30
0.0
  0
VERTEX
  5
2D798
  8
0
 10
500.63411237710119
 20
243.2371018385011
 30
0.0
  0
VERTEX
  5
2D799
  8
0
 10
500.76170363701112
 20
243.89932292774569
 30
0.0
  0
VERTEX
  5
2D79A
  8
0
 10
501.03700526994902
 20
245.2154477443674
 30
0.0
  0
VERTEX
  5
2D79B
  8
0
 10
501.3389359148095
 20
246.5195557582247
 30
0.0
  0
VERTEX
  5
2D79C
  8
0
 10
501.66724010812362
 20
247.8105435637417
 30
0.0
  0
VERTEX
  5
2D79D
  8
0
 10
502.0216400717681
 20
249.0873188563483
 30
0.0
  0
VERTEX
  5
2D79E
  8
0
 10
502.40183594799089
 20
250.34880135667939
 30
0.0
  0
VERTEX
  5
2D79F
  8
0
 10
502.60150767243113
 20
250.97347373573851
 30
0.0
  0
VERTEX
  5
2D7A0
  8
0
 10
502.8075060531246
 20
251.5939237245984
 30
0.0
  0
VERTEX
  5
2D7A1
  8
0
 10
503.23830714975929
 20
252.8216324622754
 30
0.0
  0
VERTEX
  5
2D7A2
  8
0
 10
503.6938747371579
 20
254.03088880554881
 30
0.0
  0
VERTEX
  5
2D7A3
  8
0
 10
503.93082631975398
 20
254.6282769607806
 30
0.0
  0
VERTEX
  5
2D7A4
  8
0
 10
504.17382335966022
 20
255.22066960282521
 30
0.0
  0
VERTEX
  5
2D7A5
  8
0
 10
504.6777469328153
 20
256.38996818076788
 30
0.0
  0
VERTEX
  5
2D7A6
  8
0
 10
505.2052190869706
 20
257.53779519604268
 30
0.0
  0
VERTEX
  5
2D7A7
  8
0
 10
505.47764718310373
 20
258.10335264287278
 30
0.0
  0
VERTEX
  5
2D7A8
  8
0
 10
505.75579352802328
 20
258.66317947239992
 30
0.0
  0
VERTEX
  5
2D7A9
  8
0
 10
506.32900441502971
 20
259.76516882238872
 30
0.0
  0
VERTEX
  5
2D7AA
  8
0
 10
506.92436675435192
 20
260.84283085300098
 30
0.0
  0
VERTEX
  5
2D7AB
  8
0
 10
507.54137681001322
 20
261.89525375457009
 30
0.0
  0
VERTEX
  5
2D7AC
  8
0
 10
508.17951252990628
 20
262.921547072252
 30
0.0
  0
VERTEX
  5
2D7AD
  8
0
 10
508.83823398750383
 20
263.92084245943988
 30
0.0
  0
VERTEX
  5
2D7AE
  8
0
 10
509.17514086548448
 20
264.4101007972049
 30
0.0
  0
VERTEX
  5
2D7AF
  8
0
 10
509.5169838386887
 20
264.89229441246971
 30
0.0
  0
VERTEX
  5
2D7B0
  8
0
 10
510.21518779332382
 20
265.8350809860039
 30
0.0
  0
VERTEX
  5
2D7B1
  8
0
 10
510.93225510115712
 20
266.74840448847863
 30
0.0
  0
VERTEX
  5
2D7B2
  8
0
 10
511.66757905165798
 20
267.63149215702828
 30
0.0
  0
VERTEX
  5
2D7B3
  8
0
 10
512.42053748735259
 20
268.4835968113203
 30
0.0
  0
VERTEX
  5
2D7B4
  8
0
 10
513.19049333023247
 20
269.30399748574843
 30
0.0
  0
VERTEX
  5
2D7B5
  8
0
 10
513.58164224505595
 20
269.70209084743237
 30
0.0
  0
VERTEX
  5
2D7B6
  8
0
 10
513.97679512078525
 20
270.09200003943721
 30
0.0
  0
VERTEX
  5
2D7B7
  8
0
 10
514.77877756919543
 20
270.8469377435531
 30
0.0
  0
VERTEX
  5
2D7B8
  8
0
 10
515.59576211824492
 20
271.56817184543161
 30
0.0
  0
VERTEX
  5
2D7B9
  8
0
 10
516.42705751744143
 20
272.255092109016
 30
0.0
  0
VERTEX
  5
2D7BA
  8
0
 10
517.27196040788419
 20
272.90711733118411
 30
0.0
  0
VERTEX
  5
2D7BB
  8
0
 10
518.12975591737666
 20
273.52369583350361
 30
0.0
  0
VERTEX
  5
2D7BC
  8
0
 10
518.56326200719741
 20
273.81852835375588
 30
0.0
  0
VERTEX
  5
2D7BD
  8
0
 10
518.9997182652794
 20
274.10430592900502
 30
0.0
  0
VERTEX
  5
2D7BE
  8
0
 10
519.88111137659234
 20
274.64845636358041
 30
0.0
  0
VERTEX
  5
2D7BF
  8
0
 10
520.77318950474955
 20
275.15568673163853
 30
0.0
  0
VERTEX
  5
2D7C0
  8
0
 10
521.67519786259288
 20
275.6255678656471
 30
0.0
  0
VERTEX
  5
2D7C1
  8
0
 10
522.58637326099961
 20
276.05770219925671
 30
0.0
  0
VERTEX
  5
2D7C2
  8
0
 10
523.50594475461412
 20
276.45172410367832
 30
0.0
  0
VERTEX
  5
2D7C3
  8
0
 10
523.96863615625705
 20
276.63433744556369
 30
0.0
  0
VERTEX
  5
2D7C4
  8
0
 10
524.43313429414775
 20
276.80730019704328
 30
0.0
  0
VERTEX
  5
2D7C5
  8
0
 10
525.3671573846832
 20
277.12412962647801
 30
0.0
  0
VERTEX
  5
2D7C6
  8
0
 10
526.30722374943662
 20
277.40194432265349
 30
0.0
  0
VERTEX
  5
2D7C7
  8
0
 10
527.25253799841221
 20
277.6405092266005
 30
0.0
  0
VERTEX
  5
2D7C8
  8
0
 10
528.20230030137873
 20
277.83962248859461
 30
0.0
  0
VERTEX
  5
2D7C9
  8
0
 10
529.15570706460812
 20
277.99911563893693
 30
0.0
  0
VERTEX
  5
2D7CA
  8
0
 10
529.63352513396785
 20
278.06396118846988
 30
0.0
  0
VERTEX
  5
2D7CB
  8
0
 10
530.11195161079422
 20
278.11885373049972
 30
0.0
  0
VERTEX
  5
2D7CC
  8
0
 10
531.07022486158439
 20
278.19873545290187
 30
0.0
  0
VERTEX
  5
2D7CD
  8
0
 10
532.02971602213825
 20
278.23869321823258
 30
0.0
  0
VERTEX
  5
2D7CE
  8
0
 10
532.50966464464045
 20
278.2436887314197
 30
0.0
  0
VERTEX
  5
2D7CF
  8
0
 10
532.98961326714254
 20
278.23869321823258
 30
0.0
  0
VERTEX
  5
2D7D0
  8
0
 10
533.9491044276964
 20
278.19873545290187
 30
0.0
  0
VERTEX
  5
2D7D1
  8
0
 10
534.90737767848668
 20
278.11885373049972
 30
0.0
  0
VERTEX
  5
2D7D2
  8
0
 10
535.38580415531305
 20
278.06396118846988
 30
0.0
  0
VERTEX
  5
2D7D3
  8
0
 10
535.86362222467278
 20
277.99911563893693
 30
0.0
  0
VERTEX
  5
2D7D4
  8
0
 10
536.81702898790218
 20
277.83962248859461
 30
0.0
  0
VERTEX
  5
2D7D5
  8
0
 10
537.7667912908687
 20
277.6405092266005
 30
0.0
  0
VERTEX
  5
2D7D6
  8
0
 10
538.71210553984417
 20
277.40194432265349
 30
0.0
  0
VERTEX
  5
2D7D7
  8
0
 10
539.65217190459771
 20
277.12412962647801
 30
0.0
  0
VERTEX
  5
2D7D8
  8
0
 10
540.58619499513316
 20
276.80730019704328
 30
0.0
  0
VERTEX
  5
2D7D9
  8
0
 10
541.05069313302374
 20
276.63433744556369
 30
0.0
  0
VERTEX
  5
2D7DA
  8
0
 10
541.51338453466678
 20
276.45172410367832
 30
0.0
  0
VERTEX
  5
2D7DB
  8
0
 10
542.43295602828141
 20
276.05770219925671
 30
0.0
  0
VERTEX
  5
2D7DC
  8
0
 10
543.34413142668791
 20
275.6255678656471
 30
0.0
  0
VERTEX
  5
2D7DD
  8
0
 10
544.24613978453135
 20
275.15568673163853
 30
0.0
  0
VERTEX
  5
2D7DE
  8
0
 10
545.13821791268845
 20
274.64845636358041
 30
0.0
  0
VERTEX
  5
2D7DF
  8
0
 10
546.01961102400151
 20
274.10430592900502
 30
0.0
  0
VERTEX
  5
2D7E0
  8
0
 10
546.4560672820835
 20
273.81852835375588
 30
0.0
  0
VERTEX
  5
2D7E1
  8
0
 10
546.88957337190413
 20
273.52369583350361
 30
0.0
  0
VERTEX
  5
2D7E2
  8
0
 10
547.74736888139648
 20
272.90711733118411
 30
0.0
  0
VERTEX
  5
2D7E3
  8
0
 10
548.59227177183936
 20
272.255092109016
 30
0.0
  0
VERTEX
  5
2D7E4
  8
0
 10
549.42356717103587
 20
271.56817184543161
 30
0.0
  0
VERTEX
  5
2D7E5
  8
0
 10
550.24055172008548
 20
270.8469377435531
 30
0.0
  0
VERTEX
  5
2D7E6
  8
0
 10
551.04253416849588
 20
270.09200003943721
 30
0.0
  0
VERTEX
  5
2D7E7
  8
0
 10
551.43768704422484
 20
269.70209084743237
 30
0.0
  0
VERTEX
  5
2D7E8
  8
0
 10
551.82883595904855
 20
269.30399748574843
 30
0.0
  0
VERTEX
  5
2D7E9
  8
0
 10
552.59879180192809
 20
268.4835968113203
 30
0.0
  0
VERTEX
  5
2D7EA
  8
0
 10
553.35175023762281
 20
267.63149215702828
 30
0.0
  0
VERTEX
  5
2D7EB
  8
0
 10
554.08707418812378
 20
266.74840448847863
 30
0.0
  0
VERTEX
  5
2D7EC
  8
0
 10
554.80414149595708
 20
265.8350809860039
 30
0.0
  0
VERTEX
  5
2D7ED
  8
0
 10
555.5023454505922
 20
264.89229441246971
 30
0.0
  0
VERTEX
  5
2D7EE
  8
0
 10
555.84418842379625
 20
264.4101007972049
 30
0.0
  0
VERTEX
  5
2D7EF
  8
0
 10
556.18109530177696
 20
263.92084245943988
 30
0.0
  0
VERTEX
  5
2D7F0
  8
0
 10
556.83981675937457
 20
262.921547072252
 30
0.0
  0
VERTEX
  5
2D7F1
  8
0
 10
557.47795247926774
 20
261.89525375457009
 30
0.0
  0
VERTEX
  5
2D7F2
  8
0
 10
558.09496253492875
 20
260.84283085300098
 30
0.0
  0
VERTEX
  5
2D7F3
  8
0
 10
558.69032487425125
 20
259.76516882238872
 30
0.0
  0
VERTEX
  5
2D7F4
  8
0
 10
559.26353576125746
 20
258.66317947239992
 30
0.0
  0
VERTEX
  5
2D7F5
  8
0
 10
559.54168210617706
 20
258.10335264287278
 30
0.0
  0
VERTEX
  5
2D7F6
  8
0
 10
559.81411020231019
 20
257.53779519604268
 30
0.0
  0
VERTEX
  5
2D7F7
  8
0
 10
560.34158235646555
 20
256.3899681807689
 30
0.0
  0
VERTEX
  5
2D7F8
  8
0
 10
560.84550592962069
 20
255.22066960282521
 30
0.0
  0
VERTEX
  5
2D7F9
  8
0
 10
561.08850296952687
 20
254.6282769607806
 30
0.0
  0
VERTEX
  5
2D7FA
  8
0
 10
561.32545455212278
 20
254.03088880554881
 30
0.0
  0
VERTEX
  5
2D7FB
  8
0
 10
561.78102213952161
 20
252.8216324622754
 30
0.0
  0
VERTEX
  5
2D7FC
  8
0
 10
562.21182323615631
 20
251.5939237245984
 30
0.0
  0
VERTEX
  5
2D7FD
  8
0
 10
562.41782161684966
 20
250.97347373573851
 30
0.0
  0
VERTEX
  5
2D7FE
  8
0
 10
562.61749334128979
 20
250.34880135667939
 30
0.0
  0
VERTEX
  5
2D7FF
  8
0
 10
562.99768921751286
 20
249.0873188563483
 30
0.0
  0
VERTEX
  5
2D800
  8
0
 10
563.35208918115723
 20
247.8105435637417
 30
0.0
  0
VERTEX
  5
2D801
  8
0
 10
563.68039337447135
 20
246.5195557582247
 30
0.0
  0
VERTEX
  5
2D802
  8
0
 10
563.98232401933183
 20
245.2154477443674
 30
0.0
  0
VERTEX
  5
2D803
  8
0
 10
564.25762565226978
 20
243.89932292774569
 30
0.0
  0
VERTEX
  5
2D804
  8
0
 10
564.38521691217954
 20
243.2371018385011
 30
0.0
  0
VERTEX
  5
2D805
  8
0
 10
564.50606534061831
 20
242.5722948813509
 30
0.0
  0
VERTEX
  5
2D806
  8
0
 10
564.72743287959827
 20
241.23548640339499
 30
0.0
  0
VERTEX
  5
2D807
  8
0
 10
564.92154097017124
 20
239.89002856731079
 30
0.0
  0
VERTEX
  5
2D808
  8
0
 10
565.08822537751394
 20
238.53705976475251
 30
0.0
  0
VERTEX
  5
2D809
  8
0
 10
565.2273450699762
 20
237.17772474240249
 30
0.0
  0
VERTEX
  5
2D80A
  8
0
 10
565.3387823384096
 20
235.81317363339801
 30
0.0
  0
VERTEX
  5
2D80B
  8
0
 10
565.384089681668
 20
235.12930269646591
 30
0.0
  0
VERTEX
  5
2D80C
  8
0
 10
565.42244289575933
 20
234.44456098420869
 30
0.0
  0
VERTEX
  5
2D80D
  8
0
 10
565.47825595684162
 20
233.07304477777231
 30
0.0
  0
VERTEX
  5
2D80E
  8
0
 10
565.50617429823501
 20
231.69978545372581
 30
0.0
  0
VERTEX
  5
2D80F
  8
0
 10
565.50966464464045
 20
231.01286519014141
 30
0.0
  0
SEQEND
  5
2D810
  8
0
  0
POLYLINE
  5
2D24F
  8
0
 66
     1
 10
0.0
 20
0.0
 30
0.0
  0
VERTEX
  5
2D811
  8
0
 10
565.50966464464045
 20
231.01286519014141
 30
0.0
  0
VERTEX
  5
2D812
  8
0
 10
565.50322510793922
 20
230.07984794777889
 30
0.0
  0
VERTEX
  5
2D813
  8
0
 10
565.45172389248728
 20
228.2152698539785
 30
0.0
  0
VERTEX
  5
2D814
  8
0
 10
565.34880185227712
 20
226.3550586596011
 30
0.0
  0
VERTEX
  5
2D815
  8
0
 10
565.2781050984986
 20
225.42749844375521
 30
0.0
  0
VERTEX
  5
2D816
  8
0
 10
565.1946196432084
 20
224.5021180566446
 30
0.0
  0
VERTEX
  5
2D817
  8
0
 10
564.98941793561426
 20
222.65934038809701
 30
0.0
  0
VERTEX
  5
2D818
  8
0
 10
564.73351703858498
 20
220.82960213313621
 30
0.0
  0
VERTEX
  5
2D819
  8
0
 10
564.42731639998442
 20
219.0157594171032
 30
0.0
  0
VERTEX
  5
2D81A
  8
0
 10
564.07129398293125
 20
217.22064355323619
 30
0.0
  0
VERTEX
  5
2D81B
  8
0
 10
563.66600551972442
 20
215.44705662313939
 30
0.0
  0
VERTEX
  5
2D81C
  8
0
 10
563.44508124115634
 20
214.56920308829649
 30
0.0
  0
VERTEX
  5
2D81D
  8
0
 10
563.21208364437393
 20
213.69776710288349
 30
0.0
  0
VERTEX
  5
2D81E
  8
0
 10
562.71023690509264
 20
211.97550554155811
 30
0.0
  0
VERTEX
  5
2D81F
  8
0
 10
562.16124865828942
 20
210.28296029902771
 30
0.0
  0
VERTEX
  5
2D820
  8
0
 10
561.5659758457914
 20
208.62277334954251
 30
0.0
  0
VERTEX
  5
2D821
  8
0
 10
560.925347657202
 20
206.99753615775811
 30
0.0
  0
VERTEX
  5
2D822
  8
0
 10
560.24036407948552
 20
205.40978563359201
 30
0.0
  0
VERTEX
  5
2D823
  8
0
 10
559.88157049237736
 20
204.63074476253041
 30
0.0
  0
VERTEX
  5
2D824
  8
0
 10
559.51209433603981
 20
203.86200017224289
 30
0.0
  0
VERTEX
  5
2D825
  8
0
 10
558.74167521769346
 20
202.35659578554441
 30
0.0
  0
VERTEX
  5
2D826
  8
0
 10
557.9303093082375
 20
200.89592233069831
 30
0.0
  0
VERTEX
  5
2D827
  8
0
 10
557.50966464464045
 20
200.1830750390545
 30
0.0
  0
SEQEND
  5
2D828
  8
0
  0
LINE
  5
2D250
  8
0
 10
557.50966464464045
 20
200.1830750390545
 30
0.0
 11
557.50966464464045
 21
192.2436887314197
 31
0.0
  0
LINE
  5
2D253
  8
0
 10
553.00966464464045
 20
192.2436887314197
 30
0.0
 11
557.50966464464045
 21
192.2436887314197
 31
0.0
  0
POLYLINE
  5
2D254
  8
0
 66
     1
 10
0.0
 20
0.0
 30
0.0
  0
VERTEX
  5
2D829
  8
0
 10
512.00966464464045
 20
198.69098125668549
 30
0.0
  0
VERTEX
  5
2D82A
  8
0
 10
511.49221150126391
 20
199.37907211788931
 30
0.0
  0
VERTEX
  5
2D82B
  8
0
 10
510.49139173666481
 20
200.80577144202019
 30
0.0
  0
VERTEX
  5
2D82C
  8
0
 10
509.53779934448397
 20
202.29726248129009
 30
0.0
  0
VERTEX
  5
2D82D
  8
0
 10
509.07935667175201
 20
203.06631041057699
 30
0.0
  0
VERTEX
  5
2D82E
  8
0
 10
508.63347970145202
 20
203.85034611090671
 30
0.0
  0
VERTEX
  5
2D82F
  8
0
 10
507.78037249833068
 20
205.461691095069
 30
0.0
  0
VERTEX
  5
2D830
  8
0
 10
506.98030757943951
 20
207.12784123219529
 30
0.0
  0
VERTEX
  5
2D831
  8
0
 10
506.23500101778922
 20
208.84522276818731
 30
0.0
  0
VERTEX
  5
2D832
  8
0
 10
505.546051434248
 20
210.61015206183851
 30
0.0
  0
VERTEX
  5
2D833
  8
0
 10
504.9149365686323
 20
212.41884348593791
 30
0.0
  0
VERTEX
  5
2D834
  8
0
 10
504.62149510987172
 20
213.33839109564451
 30
0.0
  0
VERTEX
  5
2D835
  8
0
 10
504.34301011007642
 20
214.26741754713021
 30
0.0
  0
VERTEX
  5
2D836
  8
0
 10
503.83149879348201
 20
216.15190920710299
 30
0.0
  0
VERTEX
  5
2D837
  8
0
 10
503.38149976827378
 20
218.06827638726921
 30
0.0
  0
VERTEX
  5
2D838
  8
0
 10
502.99397824510328
 20
220.01240863868949
 30
0.0
  0
VERTEX
  5
2D839
  8
0
 10
502.6697654255542
 20
221.9801359586472
 30
0.0
  0
VERTEX
  5
2D83A
  8
0
 10
502.40955671928123
 20
223.96723773495609
 30
0.0
  0
VERTEX
  5
2D83B
  8
0
 10
502.30363372043621
 20
224.96672349034631
 30
0.0
  0
VERTEX
  5
2D83C
  8
0
 10
502.21391025241587
 20
225.96945179882371
 30
0.0
  0
VERTEX
  5
2D83D
  8
0
 10
502.08324567043121
 20
227.98248356685411
 30
0.0
  0
VERTEX
  5
2D83E
  8
0
 10
502.01784323803753
 20
230.0020152525712
 30
0.0
  0
VERTEX
  5
2D83F
  8
0
 10
502.0096646446404
 20
231.01286519014141
 30
0.0
  0
SEQEND
  5
2D840
  8
0
  0
POLYLINE
  5
2D255
  8
0
 66
     1
 10
0.0
 20
0.0
 30
0.0
  0
VERTEX
  5
2D841
  8
0
 10
502.0096646446404
 20
231.01286519014141
 30
0.0
  0
VERTEX
  5
2D842
  8
0
 10
502.01289057086359
 20
231.6477460398182
 30
0.0
  0
VERTEX
  5
2D843
  8
0
 10
502.0386938863939
 20
232.91697056658811
 30
0.0
  0
VERTEX
  5
2D844
  8
0
 10
502.09027868527301
 20
234.184584030113
 30
0.0
  0
VERTEX
  5
2D845
  8
0
 10
502.12572635284232
 20
234.81745137022881
 30
0.0
  0
VERTEX
  5
2D846
  8
0
 10
502.16760132161153
 20
235.44951390284771
 30
0.0
  0
VERTEX
  5
2D847
  8
0
 10
502.27059637273919
 20
236.71068992783691
 30
0.0
  0
VERTEX
  5
2D848
  8
0
 10
502.39917669456048
 20
237.967045024252
 30
0.0
  0
VERTEX
  5
2D849
  8
0
 10
502.55323349528629
 20
239.21751619025241
 30
0.0
  0
VERTEX
  5
2D84A
  8
0
 10
502.73263642748242
 20
240.46104540239051
 30
0.0
  0
VERTEX
  5
2D84B
  8
0
 10
502.93723369835789
 20
241.69658051080481
 30
0.0
  0
VERTEX
  5
2D84C
  8
0
 10
503.04892694282393
 20
242.3110233045345
 30
0.0
  0
VERTEX
  5
2D84D
  8
0
 10
503.16685219819499
 20
242.92307612944199
 30
0.0
  0
VERTEX
  5
2D84E
  8
0
 10
503.42129764681948
 20
244.13949452056201
 30
0.0
  0
VERTEX
  5
2D84F
  8
0
 10
503.7003547579784
 20
245.34480647276359
 30
0.0
  0
VERTEX
  5
2D850
  8
0
 10
504.00378742149633
 20
246.53799217180219
 30
0.0
  0
VERTEX
  5
2D851
  8
0
 10
504.33133890304629
 20
247.71804206345311
 30
0.0
  0
VERTEX
  5
2D852
  8
0
 10
504.68273206137337
 20
248.8839577076987
 30
0.0
  0
VERTEX
  5
2D853
  8
0
 10
504.86727714002268
 20
249.4613064216783
 30
0.0
  0
VERTEX
  5
2D854
  8
0
 10
505.05766958278491
 20
250.03475262350361
 30
0.0
  0
VERTEX
  5
2D855
  8
0
 10
505.45583423270449
 20
251.1694531234771
 30
0.0
  0
VERTEX
  5
2D856
  8
0
 10
505.87688912408839
 20
252.2870991377149
 30
0.0
  0
VERTEX
  5
2D857
  8
0
 10
506.09588982921508
 20
252.8392306145206
 30
0.0
  0
VERTEX
  5
2D858
  8
0
 10
506.32047800246158
 20
253.38674502610681
 30
0.0
  0
VERTEX
  5
2D859
  8
0
 10
506.78622554734739
 20
254.46746037844781
 30
0.0
  0
VERTEX
  5
2D85A
  8
0
 10
507.27373768982437
 20
255.52833080165601
 30
0.0
  0
VERTEX
  5
2D85B
  8
0
 10
507.52552729382609
 20
256.05104298736302
 30
0.0
  0
VERTEX
  5
2D85C
  8
0
 10
507.7826019459489
 20
256.5684586934413
 30
0.0
  0
VERTEX
  5
2D85D
  8
0
 10
508.31238776575759
 20
257.5869640017645
 30
0.0
  0
VERTEX
  5
2D85E
  8
0
 10
508.86264689755581
 20
258.58298496945099
 30
0.0
  0
VERTEX
  5
2D85F
  8
0
 10
509.43291376718201
 20
259.5556788633258
 30
0.0
  0
VERTEX
  5
2D860
  8
0
 10
510.02270587193152
 20
260.50422268724378
 30
0.0
  0
VERTEX
  5
2D861
  8
0
 10
510.63152418880208
 20
261.42781387843212
 30
0.0
  0
VERTEX
  5
2D862
  8
0
 10
510.94290781845069
 20
261.88000719060892
 30
0.0
  0
VERTEX
  5
2D863
  8
0
 10
511.25885359671543
 20
262.32567098653539
 30
0.0
  0
VERTEX
  5
2D864
  8
0
 10
511.90416331236293
 20
263.19703433480208
 30
0.0
  0
VERTEX
  5
2D865
  8
0
 10
512.56690733929975
 20
264.04116666284699
 30
0.0
  0
VERTEX
  5
2D866
  8
0
 10
513.24652492991424
 20
264.85735375044533
 30
0.0
  0
VERTEX
  5
2D867
  8
0
 10
513.94244105987445
 20
265.64490502183708
 30
0.0
  0
VERTEX
  5
2D868
  8
0
 10
514.65406691465716
 20
266.40315413002099
 30
0.0
  0
VERTEX
  5
2D869
  8
0
 10
515.01558333593357
 20
266.771088903698
 30
0.0
  0
VERTEX
  5
2D86A
  8
0
 10
515.38080038774376
 20
267.13145952055038
 30
0.0
  0
VERTEX
  5
2D86B
  8
0
 10
516.12202659006243
 20
267.82920497435589
 30
0.0
  0
VERTEX
  5
2D86C
  8
0
 10
516.87711837024472
 20
268.49580012912151
 30
0.0
  0
VERTEX
  5
2D86D
  8
0
 10
517.64543684525961
 20
269.13068097879841
 30
0.0
  0
VERTEX
  5
2D86E
  8
0
 10
518.42633194097186
 20
269.7333103508027
 30
0.0
  0
VERTEX
  5
2D86F
  8
0
 10
519.21914294216947
 20
270.303178360522
 30
0.0
  0
VERTEX
  5
2D870
  8
0
 10
519.6198076615492
 20
270.57567508378543
 30
0.0
  0
VERTEX
  5
2D871
  8
0
 10
520.02319905159436
 20
270.83980284272729
 30
0.0
  0
VERTEX
  5
2D872
  8
0
 10
520.83781995750519
 20
271.34272975953257
 30
0.0
  0
VERTEX
  5
2D873
  8
0
 10
521.66231640928663
 20
271.81153358455589
 30
0.0
  0
VERTEX
  5
2D874
  8
0
 10
522.49599080062671
 20
272.2458176629579
 30
0.0
  0
VERTEX
  5
2D875
  8
0
 10
523.33813775976023
 20
272.64521454705118
 30
0.0
  0
VERTEX
  5
2D876
  8
0
 10
524.18804474628291
 20
273.00938630719889
 30
0.0
  0
VERTEX
  5
2D877
  8
0
 10
524.61568376901357
 20
273.17816530500198
 30
0.0
  0
VERTEX
  5
2D878
  8
0
 10
525.04499265403365
 20
273.33802481773267
 30
0.0
  0
VERTEX
  5
2D879
  8
0
 10
525.90825641952824
 20
273.63085201766449
 30
0.0
  0
VERTEX
  5
2D87A
  8
0
 10
526.7771056354369
 20
273.88762014594801
 30
0.0
  0
VERTEX
  5
2D87B
  8
0
 10
527.65080516858097
 20
274.10811195111182
 30
0.0
  0
VERTEX
  5
2D87C
  8
0
 10
528.52861578192892
 20
274.2921408750762
 30
0.0
  0
VERTEX
  5
2D87D
  8
0
 10
529.40979476006476
 20
274.43955121099862
 30
0.0
  0
VERTEX
  5
2D87E
  8
0
 10
529.85141449083665
 20
274.49948421889991
 30
0.0
  0
VERTEX
  5
2D87F
  8
0
 10
530.29359653760093
 20
274.55021823501829
 30
0.0
  0
VERTEX
  5
2D880
  8
0
 10
531.1792733299975
 20
274.62404831178361
 30
0.0
  0
VERTEX
  5
2D881
  8
0
 10
532.0660757662672
 20
274.66097897368041
 30
0.0
  0
VERTEX
  5
2D882
  8
0
 10
532.50966464464045
 20
274.66559603889891
 30
0.0
  0
VERTEX
  5
2D883
  8
0
 10
532.9532535230137
 20
274.66097897368041
 30
0.0
  0
VERTEX
  5
2D884
  8
0
 10
533.84005595928329
 20
274.62404831178361
 30
0.0
  0
VERTEX
  5
2D885
  8
0
 10
534.72573275167986
 20
274.55021823501829
 30
0.0
  0
VERTEX
  5
2D886
  8
0
 10
535.16791479844414
 20
274.49948421889991
 30
0.0
  0
VERTEX
  5
2D887
  8
0
 10
535.60953452921603
 20
274.43955121099862
 30
0.0
  0
VERTEX
  5
2D888
  8
0
 10
536.49071350735198
 20
274.2921408750762
 30
0.0
  0
VERTEX
  5
2D889
  8
0
 10
537.36852412069993
 20
274.10811195111182
 30
0.0
  0
VERTEX
  5
2D88A
  8
0
 10
538.24222365384378
 20
273.88762014594801
 30
0.0
  0
VERTEX
  5
2D88B
  8
0
 10
539.11107286975255
 20
273.63085201766449
 30
0.0
  0
VERTEX
  5
2D88C
  8
0
 10
539.97433663524725
 20
273.33802481773267
 30
0.0
  0
VERTEX
  5
2D88D
  8
0
 10
540.40364552026722
 20
273.17816530500198
 30
0.0
  0
VERTEX
  5
2D88E
  8
0
 10
540.83128454299788
 20
273.00938630719889
 30
0.0
  0
VERTEX
  5
2D88F
  8
0
 10
541.68119152952056
 20
272.64521454705118
 30
0.0
  0
VERTEX
  5
2D890
  8
0
 10
542.52333848865408
 20
272.2458176629579
 30
0.0
  0
VERTEX
  5
2D891
  8
0
 10
543.35701287999416
 20
271.81153358455589
 30
0.0
  0
VERTEX
  5
2D892
  8
0
 10
544.18150933177571
 20
271.34272975953257
 30
0.0
  0
VERTEX
  5
2D893
  8
0
 10
544.99613023768643
 20
270.83980284272729
 30
0.0
  0
VERTEX
  5
2D894
  8
0
 10
545.39952162773159
 20
270.57567508378543
 30
0.0
  0
VERTEX
  5
2D895
  8
0
 10
545.80018634711132
 20
270.303178360522
 30
0.0
  0
VERTEX
  5
2D896
  8
0
 10
546.59299734830893
 20
269.7333103508027
 30
0.0
  0
VERTEX
  5
2D897
  8
0
 10
547.37389244402129
 20
269.13068097879841
 30
0.0
  0
VERTEX
  5
2D898
  8
0
 10
548.14221091903607
 20
268.49580012912151
 30
0.0
  0
VERTEX
  5
2D899
  8
0
 10
548.89730269921847
 20
267.82920497435589
 30
0.0
  0
VERTEX
  5
2D89A
  8
0
 10
549.63852890153703
 20
267.13145952055038
 30
0.0
  0
VERTEX
  5
2D89B
  8
0
 10
550.00374595334733
 20
266.771088903698
 30
0.0
  0
VERTEX
  5
2D89C
  8
0
 10
550.36526237462363
 20
266.40315413002099
 30
0.0
  0
VERTEX
  5
2D89D
  8
0
 10
551.07688822940645
 20
265.64490502183708
 30
0.0
  0
VERTEX
  5
2D89E
  8
0
 10
551.77280435936655
 20
264.85735375044533
 30
0.0
  0
VERTEX
  5
2D89F
  8
0
 10
552.45242194998104
 20
264.04116666284699
 30
0.0
  0
VERTEX
  5
2D8A0
  8
0
 10
553.11516597691798
 20
263.19703433480208
 30
0.0
  0
VERTEX
  5
2D8A1
  8
0
 10
553.76047569256536
 20
262.32567098653539
 30
0.0
  0
VERTEX
  5
2D8A2
  8
0
 10
554.07642147083016
 20
261.88000719060892
 30
0.0
  0
VERTEX
  5
2D8A3
  8
0
 10
554.38780510047877
 20
261.42781387843212
 30
0.0
  0
VERTEX
  5
2D8A4
  8
0
 10
554.99662341734938
 20
260.50422268724378
 30
0.0
  0
VERTEX
  5
2D8A5
  8
0
 10
555.58641552209883
 20
259.5556788633258
 30
0.0
  0
VERTEX
  5
2D8A6
  8
0
 10
556.15668239172498
 20
258.58298496945099
 30
0.0
  0
VERTEX
  5
2D8A7
  8
0
 10
556.70694152352326
 20
257.5869640017645
 30
0.0
  0
VERTEX
  5
2D8A8
  8
0
 10
557.23672734333195
 20
256.5684586934413
 30
0.0
  0
VERTEX
  5
2D8A9
  8
0
 10
557.49380199545465
 20
256.05104298736302
 30
0.0
  0
VERTEX
  5
2D8AA
  8
0
 10
557.74559159945647
 20
255.52833080165601
 30
0.0
  0
VERTEX
  5
2D8AB
  8
0
 10
558.23310374193352
 20
254.46746037844781
 30
0.0
  0
VERTEX
  5
2D8AC
  8
0
 10
558.69885128681926
 20
253.38674502610681
 30
0.0
  0
VERTEX
  5
2D8AD
  8
0
 10
558.92343946006577
 20
252.8392306145206
 30
0.0
  0
VERTEX
  5
2D8AE
  8
0
 10
559.14244016519251
 20
252.2870991377149
 30
0.0
  0
VERTEX
  5
2D8AF
  8
0
 10
559.56349505657624
 20
251.1694531234771
 30
0.0
  0
VERTEX
  5
2D8B0
  8
0
 10
559.96165970649599
 20
250.03475262350361
 30
0.0
  0
VERTEX
  5
2D8B1
  8
0
 10
560.15205214925822
 20
249.4613064216783
 30
0.0
  0
VERTEX
  5
2D8B2
  8
0
 10
560.33659722790753
 20
248.8839577076987
 30
0.0
  0
VERTEX
  5
2D8B3
  8
0
 10
560.68799038623456
 20
247.71804206345311
 30
0.0
  0
VERTEX
  5
2D8B4
  8
0
 10
561.01554186778446
 20
246.53799217180219
 30
0.0
  0
VERTEX
  5
2D8B5
  8
0
 10
561.31897453130239
 20
245.34480647276359
 30
0.0
  0
VERTEX
  5
2D8B6
  8
0
 10
561.59803164246136
 20
244.13949452056201
 30
0.0
  0
VERTEX
  5
2D8B7
  8
0
 10
561.8524770910858
 20
242.92307612944199
 30
0.0
  0
VERTEX
  5
2D8B8
  8
0
 10
561.97040234645692
 20
242.3110233045345
 30
0.0
  0
VERTEX
  5
2D8B9
  8
0
 10
562.08209559092302
 20
241.69658051080481
 30
0.0
  0
VERTEX
  5
2D8BA
  8
0
 10
562.28669286179843
 20
240.46104540239051
 30
0.0
  0
VERTEX
  5
2D8BB
  8
0
 10
562.46609579399455
 20
239.21751619025241
 30
0.0
  0
VERTEX
  5
2D8BC
  8
0
 10
562.62015259472037
 20
237.967045024252
 30
0.0
  0
VERTEX
  5
2D8BD
  8
0
 10
562.74873291654171
 20
236.71068992783691
 30
0.0
  0
VERTEX
  5
2D8BE
  8
0
 10
562.85172796766926
 20
235.44951390284771
 30
0.0
  0
VERTEX
  5
2D8BF
  8
0
 10
562.89360293643847
 20
234.81745137022881
 30
0.0
  0
VERTEX
  5
2D8C0
  8
0
 10
562.9290506040079
 20
234.184584030113
 30
0.0
  0
VERTEX
  5
2D8C1
  8
0
 10
562.98063540288706
 20
232.91697056658811
 30
0.0
  0
VERTEX
  5
2D8C2
  8
0
 10
563.00643871841714
 20
231.6477460398182
 30
0.0
  0
VERTEX
  5
2D8C3
  8
0
 10
563.00966464464045
 20
231.01286519014141
 30
0.0
  0
SEQEND
  5
2D8C4
  8
0
  0
POLYLINE
  5
2D256
  8
0
 66
     1
 10
0.0
 20
0.0
 30
0.0
  0
VERTEX
  5
2D8C5
  8
0
 10
563.00966464464045
 20
231.01286519014141
 30
0.0
  0
VERTEX
  5
2D8C6
  8
0
 10
563.00148605124321
 20
230.0020152525712
 30
0.0
  0
VERTEX
  5
2D8C7
  8
0
 10
562.93608361884947
 20
227.98248356685411
 30
0.0
  0
VERTEX
  5
2D8C8
  8
0
 10
562.80541903686503
 20
225.96945179882371
 30
0.0
  0
VERTEX
  5
2D8C9
  8
0
 10
562.71569556884458
 20
224.96672349034631
 30
0.0
  0
VERTEX
  5
2D8CA
  8
0
 10
562.60977256999956
 20
223.96723773495609
 30
0.0
  0
VERTEX
  5
2D8CB
  8
0
 10
562.34956386372664
 20
221.9801359586472
 30
0.0
  0
VERTEX
  5
2D8CC
  8
0
 10
562.02535104417746
 20
220.01240863868949
 30
0.0
  0
VERTEX
  5
2D8CD
  8
0
 10
561.63782952100689
 20
218.06827638726921
 30
0.0
  0
VERTEX
  5
2D8CE
  8
0
 10
561.18783049579883
 20
216.15190920710299
 30
0.0
  0
VERTEX
  5
2D8CF
  8
0
 10
560.67631917920448
 20
214.26741754713021
 30
0.0
  0
VERTEX
  5
2D8D0
  8
0
 10
560.39783417940896
 20
213.33839109564451
 30
0.0
  0
VERTEX
  5
2D8D1
  8
0
 10
560.10439272064855
 20
212.41884348593791
 30
0.0
  0
VERTEX
  5
2D8D2
  8
0
 10
559.47327785503285
 20
210.61015206183851
 30
0.0
  0
VERTEX
  5
2D8D3
  8
0
 10
558.78432827149163
 20
208.84522276818731
 30
0.0
  0
VERTEX
  5
2D8D4
  8
0
 10
558.03902170984134
 20
207.12784123219529
 30
0.0
  0
VERTEX
  5
2D8D5
  8
0
 10
557.23895679095006
 20
205.461691095069
 30
0.0
  0
VERTEX
  5
2D8D6
  8
0
 10
556.38584958782894
 20
203.85034611090671
 30
0.0
  0
VERTEX
  5
2D8D7
  8
0
 10
555.93997261752884
 20
203.06631041057699
 30
0.0
  0
VERTEX
  5
2D8D8
  8
0
 10
555.48152994479688
 20
202.29726248129009
 30
0.0
  0
VERTEX
  5
2D8D9
  8
0
 10
554.52793755261609
 20
200.80577144202019
 30
0.0
  0
VERTEX
  5
2D8DA
  8
0
 10
553.52711778801688
 20
199.37907211788931
 30
0.0
  0
VERTEX
  5
2D8DB
  8
0
 10
553.00966464464045
 20
198.69098125668549
 30
0.0
  0
SEQEND
  5
2D8DC
  8
0
  0
LINE
  5
2D258
  8
0
 10
512.00966464464045
 20
192.2436887314197
 30
0.0
 11
512.00966464464045
 21
263.33476854843229
 31
0.0
  0
LINE
  5
2D25C
  8
0
 10
553.00966464464045
 20
263.33476854843229
 30
0.0
 11
553.00966464464045
 21
192.2436887314197
 31
0.0
  0
LINE
  5
2D25F
  8
0
 10
506.90966464464049
 20
196.4286887314201
 30
0.0
 11
507.5096646446404
 21
196.4286887314201
 31
0.0
  0
LINE
  5
2D260
  8
0
 10
566.74266464464029
 20
206.24368873141981
 30
0.0
 11
565.50966464464045
 21
206.24368873141981
 31
0.0
  0
LINE
  5
2D261
  8
0
 10
565.50966464464045
 20
198.2436887314197
 30
0.0
 11
566.74266464464029
 21
198.2436887314197
 31
0.0
  0
LINE
  5
2D262
  8
0
 10
567.50966464464045
 20
205.4766887314199
 30
0.0
 11
566.74266464464029
 21
206.24368873141981
 31
0.0
  0
LINE
  5
2D263
  8
0
 10
566.74266464464029
 20
198.2436887314197
 30
0.0
 11
567.50966464464045
 21
199.01068873141961
 31
0.0
  0
LINE
  5
2D265
  8
0
 10
553.00966464464045
 20
206.24368873141981
 30
0.0
 11
552.50966464464045
 21
206.24368873141981
 31
0.0
  0
LINE
  5
2D266
  8
0
 10
552.50966464464045
 20
198.2436887314197
 30
0.0
 11
553.00966464464045
 21
198.2436887314197
 31
0.0
  0
LINE
  5
2D268
  8
0
 10
565.50966464464045
 20
208.05868873141929
 30
0.0
 11
563.00966464464045
 21
208.05868873141929
 31
0.0
  0
LINE
  5
2D269
  8
0
 10
563.00966464464045
 20
196.4286887314201
 30
0.0
 11
565.50966464464045
 21
196.4286887314201
 31
0.0
  0
LINE
  5
2D26A
  8
0
 10
512.50966464464045
 20
206.24368873141981
 30
0.0
 11
512.00966464464045
 21
206.24368873141981
 31
0.0
  0
LINE
  5
2D26D
  8
0
 10
512.00966464464045
 20
198.2436887314197
 30
0.0
 11
512.50966464464045
 21
198.2436887314197
 31
0.0
  0
LINE
  5
2D26E
  8
0
 10
552.50966464464045
 20
208.24368873141981
 30
0.0
 11
550.00966464464045
 21
208.24368873141981
 31
0.0
  0
LINE
  5
2D270
  8
0
 10
515.00966464464045
 20
208.24368873141981
 30
0.0
 11
512.50966464464045
 21
208.24368873141981
 31
0.0
  0
LINE
  5
2D271
  8
0
 10
512.50966464464045
 20
196.2436887314197
 30
0.0
 11
515.00966464464045
 21
196.2436887314197
 31
0.0
  0
LINE
  5
2D273
  8
0
 10
550.00966464464045
 20
196.2436887314197
 30
0.0
 11
552.50966464464045
 21
196.2436887314197
 31
0.0
  0
LINE
  5
2D274
  8
0
 10
566.74266464464029
 20
198.2436887314197
 30
0.0
 11
566.74266464464029
 21
206.24368873141981
 31
0.0
  0
LINE
  5
2D275
  8
0
 10
567.50966464464045
 20
199.01068873141961
 30
0.0
 11
567.50966464464045
 21
205.4766887314199
 31
0.0
  0
LINE
  5
2D276
  8
0
 10
502.2096646446405
 20
195.98535539808651
 30
0.0
 11
502.2096646446405
 21
208.50202206475299
 31
0.0
  0
LINE
  5
2D277
  8
0
 10
506.90966464464049
 20
195.98535539808651
 30
0.0
 11
506.90966464464049
 21
201.19740769933011
 31
0.0
  0
POLYLINE
  5
2D284
  8
0
 66
     1
 10
0.0
 20
0.0
 30
0.0
  0
VERTEX
  5
2D8DD
  8
0
 10
502.46908435405612
 20
202.24368873141981
 30
0.0
  0
VERTEX
  5
2D8DE
  8
0
 10
502.38823970079778
 20
202.80586720953491
 30
0.0
  0
VERTEX
  5
2D8DF
  8
0
 10
502.27362936204457
 20
203.8616571022585
 30
0.0
  0
VERTEX
  5
2D8E0
  8
0
 10
502.21685477826031
 20
204.87041764617061
 30
0.0
  0
VERTEX
  5
2D8E1
  8
0
 10
502.2096646446405
 20
205.3728553980863
 30
0.0
  0
SEQEND
  5
2D8E2
  8
0
  0
POLYLINE
  5
2D285
  8
0
 66
     1
 10
0.0
 20
0.0
 30
0.0
  0
VERTEX
  5
2D8E3
  8
0
 10
502.2096646446405
 20
205.3728553980863
 30
0.0
  0
VERTEX
  5
2D8E4
  8
0
 10
502.21685477826031
 20
205.87529315000211
 30
0.0
  0
VERTEX
  5
2D8E5
  8
0
 10
502.27362936204457
 20
206.88405369391421
 30
0.0
  0
VERTEX
  5
2D8E6
  8
0
 10
502.38823970079778
 20
207.93984358663781
 30
0.0
  0
VERTEX
  5
2D8E7
  8
0
 10
502.46908435405612
 20
208.50202206475299
 30
0.0
  0
SEQEND
  5
2D8E8
  8
0
  0
POLYLINE
  5
2D287
  8
0
 66
     1
 10
0.0
 20
0.0
 30
0.0
  0
VERTEX
  5
2D8E9
  8
0
 10
506.90966464464049
 20
199.11452206475309
 30
0.0
  0
VERTEX
  5
2D8EA
  8
0
 10
506.9024745110205
 20
198.6120843128374
 30
0.0
  0
VERTEX
  5
2D8EB
  8
0
 10
506.84569992723618
 20
197.60332376892529
 30
0.0
  0
VERTEX
  5
2D8EC
  8
0
 10
506.73108958848292
 20
196.5475338762017
 30
0.0
  0
VERTEX
  5
2D8ED
  8
0
 10
506.65024493522492
 20
195.98535539808651
 30
0.0
  0
SEQEND
  5
2D8EE
  8
0
  0
POLYLINE
  5
2D289
  8
0
 66
     1
 10
0.0
 20
0.0
 30
0.0
  0
VERTEX
  5
2D8EF
  8
0
 10
502.46908435405612
 20
195.98535539808651
 30
0.0
  0
VERTEX
  5
2D8F0
  8
0
 10
502.38823970079778
 20
196.5475338762017
 30
0.0
  0
VERTEX
  5
2D8F1
  8
0
 10
502.27362936204457
 20
197.60332376892529
 30
0.0
  0
VERTEX
  5
2D8F2
  8
0
 10
502.21685477826031
 20
198.6120843128374
 30
0.0
  0
VERTEX
  5
2D8F3
  8
0
 10
502.2096646446405
 20
199.11452206475309
 30
0.0
  0
SEQEND
  5
2D8F4
  8
0
  0
POLYLINE
  5
2D28A
  8
0
 66
     1
 10
0.0
 20
0.0
 30
0.0
  0
VERTEX
  5
2D8F5
  8
0
 10
502.2096646446405
 20
199.11452206475309
 30
0.0
  0
VERTEX
  5
2D8F6
  8
0
 10
502.21685477826031
 20
199.6169598166689
 30
0.0
  0
VERTEX
  5
2D8F7
  8
0
 10
502.27362936204457
 20
200.625720360581
 30
0.0
  0
VERTEX
  5
2D8F8
  8
0
 10
502.38823970079778
 20
201.68151025330459
 30
0.0
  0
VERTEX
  5
2D8F9
  8
0
 10
502.46908435405612
 20
202.24368873141981
 30
0.0
  0
SEQEND
  5
2D8FA
  8
0
  0
LINE
  5
2D28B
  8
0
 10
502.46908435405612
 20
202.24368873141981
 30
0.0
 11
506.34589755318552
 21
202.24368873141981
 31
0.0
  0
POLYLINE
  5
2D28E
  8
0
 66
     1
 10
0.0
 20
0.0
 30
0.0
  0
VERTEX
  5
2D8FB
  8
0
 10
506.75865274999018
 20
201.46587606667799
 30
0.0
  0
VERTEX
  5
2D8FC
  8
0
 10
506.8050701109841
 20
201.0584128918963
 30
0.0
  0
VERTEX
  5
2D8FD
  8
0
 10
506.87193269804169
 20
200.2707213808153
 30
0.0
  0
VERTEX
  5
2D8FE
  8
0
 10
506.90542201008037
 20
199.50030328425689
 30
0.0
  0
VERTEX
  5
2D8FF
  8
0
 10
506.90966464464049
 20
199.11452206475309
 30
0.0
  0
SEQEND
  5
2D900
  8
0
  0
LINE
  5
2D293
  8
0
 10
565.50966464464045
 20
196.4286887314201
 30
0.0
 11
565.50966464464045
 21
208.05868873141929
 31
0.0
  0
LINE
  5
2D294
  8
0
 10
563.00966464464045
 20
195.98535539808651
 30
0.0
 11
563.00966464464045
 21
208.50202206475299
 31
0.0
  0
POLYLINE
  5
2D29F
  8
0
 66
     1
 10
0.0
 20
0.0
 30
0.0
  0
VERTEX
  5
2D901
  8
0
 10
563.00966464464045
 20
205.3728553980863
 30
0.0
  0
VERTEX
  5
2D902
  8
0
 10
563.00247451102041
 20
204.87041764617061
 30
0.0
  0
VERTEX
  5
2D903
  8
0
 10
562.94569992723609
 20
203.8616571022585
 30
0.0
  0
VERTEX
  5
2D904
  8
0
 10
562.83108958848311
 20
202.80586720953491
 30
0.0
  0
VERTEX
  5
2D905
  8
0
 10
562.75024493522506
 20
202.24368873141981
 30
0.0
  0
SEQEND
  5
2D906
  8
0
  0
POLYLINE
  5
2D2A2
  8
0
 66
     1
 10
0.0
 20
0.0
 30
0.0
  0
VERTEX
  5
2D907
  8
0
 10
562.75024493522506
 20
208.50202206475299
 30
0.0
  0
VERTEX
  5
2D908
  8
0
 10
562.83108958848311
 20
207.93984358663781
 30
0.0
  0
VERTEX
  5
2D909
  8
0
 10
562.94569992723609
 20
206.88405369391421
 30
0.0
  0
VERTEX
  5
2D90A
  8
0
 10
563.00247451102041
 20
205.87529315000211
 30
0.0
  0
VERTEX
  5
2D90B
  8
0
 10
563.00966464464045
 20
205.3728553980863
 30
0.0
  0
SEQEND
  5
2D90C
  8
0
  0
POLYLINE
  5
2D2A3
  8
0
 66
     1
 10
0.0
 20
0.0
 30
0.0
  0
VERTEX
  5
2D90D
  8
0
 10
563.00966464464045
 20
199.11452206475309
 30
0.0
  0
VERTEX
  5
2D90E
  8
0
 10
563.00247451102041
 20
198.6120843128374
 30
0.0
  0
VERTEX
  5
2D90F
  8
0
 10
562.94569992723609
 20
197.60332376892529
 30
0.0
  0
VERTEX
  5
2D910
  8
0
 10
562.83108958848311
 20
196.5475338762017
 30
0.0
  0
VERTEX
  5
2D911
  8
0
 10
562.75024493522506
 20
195.98535539808651
 30
0.0
  0
SEQEND
  5
2D912
  8
0
  0
POLYLINE
  5
2D2A5
  8
0
 66
     1
 10
0.0
 20
0.0
 30
0.0
  0
VERTEX
  5
2D913
  8
0
 10
557.76908435405585
 20
195.98535539808651
 30
0.0
  0
VERTEX
  5
2D914
  8
0
 10
557.68823970079927
 20
196.54753387618979
 30
0.0
  0
VERTEX
  5
2D915
  8
0
 10
557.5736293620472
 20
197.6033237688944
 30
0.0
  0
VERTEX
  5
2D916
  8
0
 10
557.51685477826175
 20
198.61208431278641
 30
0.0
  0
VERTEX
  5
2D917
  8
0
 10
557.50966464464045
 20
199.1145220646913
 30
0.0
  0
SEQEND
  5
2D918
  8
0
  0
POLYLINE
  5
2D2A6
  8
0
 66
     1
 10
0.0
 20
0.0
 30
0.0
  0
VERTEX
  5
2D919
  8
0
 10
557.50966464464045
 20
199.11452206475309
 30
0.0
  0
VERTEX
  5
2D91A
  8
0
 10
557.51067611665803
 20
199.30279641780271
 30
0.0
  0
VERTEX
  5
2D91B
  8
0
 10
557.5186926051141
 20
199.67767624551561
 30
0.0
  0
VERTEX
  5
2D91C
  8
0
 10
557.53459436273261
 20
200.0525495491938
 30
0.0
  0
VERTEX
  5
2D91D
  8
0
 10
557.5454889564221
 20
200.2407981392835
 30
0.0
  0
SEQEND
  5
2D91E
  8
0
  0
LINE
  5
2D2A9
  8
0
 10
558.67343173609538
 20
202.24368873141981
 30
0.0
 11
562.75024493522506
 21
202.24368873141981
 31
0.0
  0
POLYLINE
  5
2D2AA
  8
0
 66
     1
 10
0.0
 20
0.0
 30
0.0
  0
VERTEX
  5
2D91F
  8
0
 10
562.75024493522506
 20
202.24368873141981
 30
0.0
  0
VERTEX
  5
2D920
  8
0
 10
562.83108958848311
 20
201.68151025330459
 30
0.0
  0
VERTEX
  5
2D921
  8
0
 10
562.94569992723609
 20
200.625720360581
 30
0.0
  0
VERTEX
  5
2D922
  8
0
 10
563.00247451102041
 20
199.6169598166689
 30
0.0
  0
VERTEX
  5
2D923
  8
0
 10
563.00966464464045
 20
199.11452206475309
 30
0.0
  0
SEQEND
  5
2D924
  8
0
  0
LINE
  5
2D2AF
  8
0
 10
512.50966464464045
 20
196.2436887314197
 30
0.0
 11
512.50966464464045
 21
208.24368873141981
 31
0.0
  0
LINE
  5
2D2B0
  8
0
 10
552.50966464464045
 20
196.2436887314197
 30
0.0
 11
552.50966464464045
 21
208.24368873141981
 31
0.0
  0
LINE
  5
2D2B7
  8
0
 10
546.48365202010632
 20
264.74368873141981
 30
0.0
 11
518.53567726917447
 21
264.74368873141981
 31
0.0
  0
LINE
  5
2D2B8
  8
0
 10
518.53567726917447
 20
139.7436887314197
 30
0.0
 11
546.48365202010632
 21
139.7436887314197
 31
0.0
  0
ARC
  5
2D2B9
  8
0
 10
546.48365202010632
 20
142.2436887314197
 30
0.0
 40
2.499999999999992
 50
270.0
 51
345.00000000000563
  0
ARC
  5
2D2BA
  8
0
 10
546.48365202010632
 20
262.24368873141981
 30
0.0
 40
2.499999999999992
 50
14.999999999994451
 51
90.0
  0
LINE
  5
2D2BB
  8
0
 10
550.00966464464045
 20
258.7436887314197
 30
0.0
 11
548.89846658582883
 21
262.89073634417582
 31
0.0
  0
LINE
  5
2D2BC
  8
0
 10
548.89846658582883
 20
141.5966411186636
 30
0.0
 11
550.00966464464045
 21
145.7436887314197
 31
0.0
  0
LINE
  5
2D2C4
  8
0
 10
550.00216464464052
 20
186.2286887314194
 30
0.0
 11
550.00966464464045
 21
186.2286887314194
 31
0.0
  0
LINE
  5
2D2C6
  8
0
 10
550.00216464464052
 20
186.2436887314197
 30
0.0
 11
550.00966464464045
 21
186.2436887314197
 31
0.0
  0
LINE
  5
2D2CD
  8
0
 10
516.12086270345196
 20
262.89073634417582
 30
0.0
 11
515.00966464464045
 21
258.7436887314197
 31
0.0
  0
LINE
  5
2D2CE
  8
0
 10
515.00966464464045
 20
145.7436887314197
 30
0.0
 11
516.12086270345196
 21
141.5966411186636
 31
0.0
  0
ARC
  5
2D2CF
  8
0
 10
518.53567726917447
 20
142.2436887314197
 30
0.0
 40
2.4999999999999778
 50
194.9999999999944
 51
270.0
  0
ARC
  5
2D2D0
  8
0
 10
518.53567726917447
 20
262.24368873141981
 30
0.0
 40
2.4999999999999778
 50
90.0
 51
165.00000000000551
  0
LINE
  5
2D2E3
  8
0
 10
546.48365202010632
 20
139.7436887314197
 30
0.0
 11
546.48365202010632
 21
264.74368873141981
 31
0.0
  0
LINE
  5
2D2E5
  8
0
 10
550.00966464464045
 20
145.7436887314197
 30
0.0
 11
550.00966464464045
 21
258.7436887314197
 31
0.0
  0
LINE
  5
2D2E8
  8
0
 10
515.00966464464045
 20
145.7436887314197
 30
0.0
 11
515.00966464464045
 21
258.7436887314197
 31
0.0
  0
LINE
  5
2D2E9
  8
0
 10
518.53567726917447
 20
139.7436887314197
 30
0.0
 11
518.53567726917447
 21
264.74368873141981
 31
0.0
  0
LINE
  5
2D380
  8
0
 10
140.0949673234538
 20
292.44368873141963
 30
0.0
 11
140.0949673234538
 21
293.24368873141981
 31
0.0
  0
LINE
  5
2D381
  8
0
 10
70.494967323453693
 20
293.24368873141981
 30
0.0
 11
70.494967323453693
 21
292.44368873141963
 31
0.0
  0
LINE
  5
2D382
  8
0
 10
139.79618798743189
 20
283.94368873141963
 30
0.0
 11
141.2949673234539
 21
292.44368873141963
 31
0.0
  0
LINE
  5
2D383
  8
0
 10
69.294967323453875
 20
292.44368873141963
 30
0.0
 11
70.793746659475801
 21
283.94368873141963
 31
0.0
  0
LINE
  5
2D386
  8
0
 10
138.29496732345379
 20
231.01286519014229
 30
0.0
 11
138.29496732345379
 21
283.94368873141963
 31
0.0
  0
LINE
  5
2D387
  8
0
 10
72.294967323453875
 20
283.94368873141963
 30
0.0
 11
72.294967323453875
 21
231.01286519014229
 31
0.0
  0
LINE
  5
2D38F
  8
0
 10
62.794967323453868
 20
295.74368873141981
 30
0.0
 11
62.794967323453868
 21
293.24368873141981
 31
0.0
  0
LINE
  5
2D391
  8
0
 10
62.794967323453868
 20
295.74368873141981
 30
0.0
 11
147.79496732345379
 21
295.74368873141981
 31
0.0
  0
LINE
  5
2D392
  8
0
 10
147.79496732345379
 20
295.74368873141981
 30
0.0
 11
147.79496732345379
 21
293.24368873141981
 31
0.0
  0
LINE
  5
2D393
  8
0
 10
62.794967323453868
 20
293.24368873141981
 30
0.0
 11
147.79496732345379
 21
293.24368873141981
 31
0.0
  0
LINE
  5
2D3A4
  8
0
 10
69.294967323453875
 20
292.44368873141963
 30
0.0
 11
141.2949673234539
 21
292.44368873141963
 31
0.0
  0
LINE
  5
2D3A5
  8
0
 10
70.793746659475801
 20
283.94368873141963
 30
0.0
 11
139.79618798743189
 21
283.94368873141963
 31
0.0
  0
LINE
  5
2D3A8
  8
0
 10
80.294967323453875
 20
281.94368873141963
 30
0.0
 11
130.29496732345379
 21
281.94368873141963
 31
0.0
  0
LINE
  5
2D3A9
  8
0
 10
130.29496732345379
 20
281.94368873141963
 30
0.0
 11
130.29496732345379
 21
192.2436887314197
 31
0.0
  0
LINE
  5
2D3AA
  8
0
 10
130.29496732345379
 20
192.2436887314197
 30
0.0
 11
125.7949673234538
 21
192.2436887314197
 31
0.0
  0
POLYLINE
  5
2D3AF
  8
0
 66
     1
 10
0.0
 20
0.0
 30
0.0
  0
VERTEX
  5
2D925
  8
0
 10
134.30384059913959
 20
208.497123522995
 30
0.0
  0
VERTEX
  5
2D926
  8
0
 10
134.5182180457
 20
209.072340768902
 30
0.0
  0
VERTEX
  5
2D927
  8
0
 10
134.93022977126739
 20
210.2352056038844
 30
0.0
  0
VERTEX
  5
2D928
  8
0
 10
135.3196573980442
 20
211.41390443789169
 30
0.0
  0
VERTEX
  5
2D929
  8
0
 10
135.50580875503641
 20
212.0089113543481
 30
0.0
  0
VERTEX
  5
2D92A
  8
0
 10
135.68620415551871
 20
212.6075390217211
 30
0.0
  0
VERTEX
  5
2D92B
  8
0
 10
136.02959070996849
 20
213.81519972410479
 30
0.0
  0
VERTEX
  5
2D92C
  8
0
 10
136.34955537733049
 20
215.03596622491111
 30
0.0
  0
VERTEX
  5
2D92D
  8
0
 10
136.6458543226245
 20
216.26890821649431
 30
0.0
  0
VERTEX
  5
2D92E
  8
0
 10
136.91826174576909
 20
217.51308611265
 30
0.0
  0
VERTEX
  5
2D92F
  8
0
 10
137.1665700536596
 20
218.76755176464761
 30
0.0
  0
VERTEX
  5
2D930
  8
0
 10
137.28162718422729
 20
219.398344038982
 30
0.0
  0
VERTEX
  5
2D931
  8
0
 10
137.3905900183658
 20
220.03134918377779
 30
0.0
  0
VERTEX
  5
2D932
  8
0
 10
137.59015092133899
 20
221.30351526989131
 30
0.0
  0
VERTEX
  5
2D933
  8
0
 10
137.76510068350899
 20
222.58308054533879
 30
0.0
  0
VERTEX
  5
2D934
  8
0
 10
137.91530598118041
 20
223.86906989378079
 30
0.0
  0
VERTEX
  5
2D935
  8
0
 10
138.04065234763311
 20
225.16050330329651
 30
0.0
  0
VERTEX
  5
2D936
  8
0
 10
138.1410442603551
 20
226.45639661321911
 30
0.0
  0
VERTEX
  5
2D937
  8
0
 10
138.18185764404981
 20
227.10570723071399
 30
0.0
  0
VERTEX
  5
2D938
  8
0
 10
138.21640521383571
 20
227.75576226412801
 30
0.0
  0
VERTEX
  5
2D939
  8
0
 10
138.26667777786949
 20
229.0576100504459
 30
0.0
  0
VERTEX
  5
2D93A
  8
0
 10
138.29182364132129
 20
230.36094787503501
 30
0.0
  0
VERTEX
  5
2D93B
  8
0
 10
138.29496732345379
 20
231.01286519014229
 30
0.0
  0
SEQEND
  5
2D93C
  8
0
  0
POLYLINE
  5
2D3B1
  8
0
 66
     1
 10
0.0
 20
0.0
 30
0.0
  0
VERTEX
  5
2D93D
  8
0
 10
72.294967323453875
 20
231.01286519014229
 30
0.0
  0
VERTEX
  5
2D93E
  8
0
 10
72.298111005586406
 20
230.36094787503501
 30
0.0
  0
VERTEX
  5
2D93F
  8
0
 10
72.323256869038005
 20
229.0576100504459
 30
0.0
  0
VERTEX
  5
2D940
  8
0
 10
72.373529433071781
 20
227.75576226412801
 30
0.0
  0
VERTEX
  5
2D941
  8
0
 10
72.408077002857908
 20
227.10570723071399
 30
0.0
  0
VERTEX
  5
2D942
  8
0
 10
72.448890386552648
 20
226.4563966132182
 30
0.0
  0
VERTEX
  5
2D943
  8
0
 10
72.549282299274637
 20
225.16050330329651
 30
0.0
  0
VERTEX
  5
2D944
  8
0
 10
72.674628665727141
 20
223.86906989378079
 30
0.0
  0
VERTEX
  5
2D945
  8
0
 10
72.824833963398532
 20
222.58308054533791
 30
0.0
  0
VERTEX
  5
2D946
  8
0
 10
72.999783725568705
 20
221.30351526989131
 30
0.0
  0
VERTEX
  5
2D947
  8
0
 10
73.199344628541894
 20
220.03134918377779
 30
0.0
  0
VERTEX
  5
2D948
  8
0
 10
73.308307462680432
 20
219.398344038982
 30
0.0
  0
VERTEX
  5
2D949
  8
0
 10
73.423364593248152
 20
218.7675517646467
 30
0.0
  0
VERTEX
  5
2D94A
  8
0
 10
73.671672901138663
 20
217.51308611265
 30
0.0
  0
VERTEX
  5
2D94B
  8
0
 10
73.944080324283263
 20
216.26890821649431
 30
0.0
  0
VERTEX
  5
2D94C
  8
0
 10
74.240379269577261
 20
215.03596622491111
 30
0.0
  0
VERTEX
  5
2D94D
  8
0
 10
74.560343936939262
 20
213.81519972410479
 30
0.0
  0
VERTEX
  5
2D94E
  8
0
 10
74.903730491389069
 20
212.6075390217211
 30
0.0
  0
VERTEX
  5
2D94F
  8
0
 10
75.084125891871281
 20
212.0089113543481
 30
0.0
  0
VERTEX
  5
2D950
  8
0
 10
75.270277248863522
 20
211.41390443789169
 30
0.0
  0
VERTEX
  5
2D951
  8
0
 10
75.659704875640273
 20
210.23520560388349
 30
0.0
  0
VERTEX
  5
2D952
  8
0
 10
76.071716601207754
 20
209.072340768902
 30
0.0
  0
VERTEX
  5
2D953
  8
0
 10
76.286094047768074
 20
208.497123522995
 30
0.0
  0
SEQEND
  5
2D954
  8
0
  0
LINE
  5
2D3B3
  8
0
 10
80.294967323453875
 20
192.2436887314197
 30
0.0
 11
80.294967323453875
 21
281.94368873141963
 31
0.0
  0
LINE
  5
2D3B5
  8
0
 10
84.794967323453875
 20
192.2436887314197
 30
0.0
 11
80.294967323453875
 21
192.2436887314197
 31
0.0
  0
POLYLINE
  5
2D3BA
  8
0
 66
     1
 10
0.0
 20
0.0
 30
0.0
  0
VERTEX
  5
2D955
  8
0
 10
125.78532322217551
 20
263.34727349137847
 30
0.0
  0
VERTEX
  5
2D956
  8
0
 10
125.63075065218339
 20
263.54655304647082
 30
0.0
  0
VERTEX
  5
2D957
  8
0
 10
125.3187744181223
 20
263.9405621261767
 30
0.0
  0
VERTEX
  5
2D958
  8
0
 10
125.00307184609591
 20
264.32844351365111
 30
0.0
  0
VERTEX
  5
2D959
  8
0
 10
124.8438415161777
 20
264.52006372072168
 30
0.0
  0
VERTEX
  5
2D95A
  8
0
 10
124.68370168689439
 20
264.71012502595931
 30
0.0
  0
VERTEX
  5
2D95B
  8
0
 10
124.36072337382799
 20
265.0855356339361
 30
0.0
  0
VERTEX
  5
2D95C
  8
0
 10
124.03419701166879
 20
265.45460547540188
 30
0.0
  0
VERTEX
  5
2D95D
  8
0
 10
123.704183365463
 20
265.81726586816421
 30
0.0
  0
VERTEX
  5
2D95E
  8
0
 10
123.3707438492258
 20
266.17344932280139
 30
0.0
  0
VERTEX
  5
2D95F
  8
0
 10
123.03394051450999
 20
266.52308955521772
 30
0.0
  0
VERTEX
  5
2D960
  8
0
 10
122.8642969778207
 20
266.69543558193533
 30
0.0
  0
VERTEX
  5
2D961
  8
0
 10
122.6938360388599
 20
266.8661214989807
 30
0.0
  0
VERTEX
  5
2D962
  8
0
 10
122.3504937141463
 20
267.20248131743301
 30
0.0
  0
VERTEX
  5
2D963
  8
0
 10
122.0039774347895
 20
267.53210641556512
 30
0.0
  0
VERTEX
  5
2D964
  8
0
 10
121.65435168586779
 20
267.85493545166992
 30
0.0
  0
VERTEX
  5
2D965
  8
0
 10
121.3016815311171
 20
268.1709083487558
 30
0.0
  0
VERTEX
  5
2D966
  8
0
 10
120.9460326008234
 20
268.47996630572737
 30
0.0
  0
VERTEX
  5
2D967
  8
0
 10
120.76711175622491
 20
268.63188415790319
 30
0.0
  0
VERTEX
  5
2D968
  8
0
 10
120.5874710796097
 20
268.78205180832629
 30
0.0
  0
VERTEX
  5
2D969
  8
0
 10
120.2260636941173
 20
269.0771086398363
 30
0.0
  0
VERTEX
  5
2D96A
  8
0
 10
119.8618777005908
 20
269.36508189154569
 30
0.0
  0
VERTEX
  5
2D96B
  8
0
 10
119.678763885126
 20
269.50639537617923
 30
0.0
  0
VERTEX
  5
2D96C
  8
0
 10
119.4949808723604
 20
269.64591797296271
 30
0.0
  0
VERTEX
  5
2D96D
  8
0
 10
119.125441487231
 20
269.9195646217895
 30
0.0
  0
VERTEX
  5
2D96E
  8
0
 10
118.7533283147736
 20
270.18597091365058
 30
0.0
  0
VERTEX
  5
2D96F
  8
0
 10
118.5663281801082
 20
270.3164433800257
 30
0.0
  0
VERTEX
  5
2D970
  8
0
 10
118.37871060353019
 20
270.44508727156608
 30
0.0
  0
VERTEX
  5
2D971
  8
0
 10
118.00165806812601
 20
270.69686547517807
 30
0.0
  0
VERTEX
  5
2D972
  8
0
 10
117.62224087629509
 20
270.94125866972718
 30
0.0
  0
VERTEX
  5
2D973
  8
0
 10
117.24052963582361
 20
271.17822137476918
 30
0.0
  0
VERTEX
  5
2D974
  8
0
 10
116.85659538140909
 20
271.4077094926397
 30
0.0
  0
VERTEX
  5
2D975
  8
0
 10
116.4705095614426
 20
271.62968031666151
 30
0.0
  0
VERTEX
  5
2D976
  8
0
 10
116.2766822518476
 20
271.73783377994999
 30
0.0
  0
VERTEX
  5
2D977
  8
0
 10
116.08234402471039
 20
271.8440925390878
 30
0.0
  0
VERTEX
  5
2D978
  8
0
 10
115.69217100702549
 20
272.05090625879711
 30
0.0
  0
VERTEX
  5
2D979
  8
0
 10
115.3000631177833
 20
272.2500829887104
 30
0.0
  0
VERTEX
  5
2D97A
  8
0
 10
114.90609332645001
 20
272.44158566296028
 30
0.0
  0
VERTEX
  5
2D97B
  8
0
 10
114.5103349489832
 20
272.62537864378191
 30
0.0
  0
VERTEX
  5
2D97C
  8
0
 10
114.1128616341875
 20
272.8014277281527
 30
0.0
  0
VERTEX
  5
2D97D
  8
0
 10
113.9135049781846
 20
272.88653801460708
 30
0.0
  0
VERTEX
  5
2D97E
  8
0
 10
113.71374735001061
 20
272.96970015415081
 30
0.0
  0
VERTEX
  5
2D97F
  8
0
 10
113.3130663697761
 20
273.13016460705597
 30
0.0
  0
VERTEX
  5
2D980
  8
0
 10
112.91089325836261
 20
273.28279122517421
 30
0.0
  0
VERTEX
  5
2D981
  8
0
 10
112.5073028583281
 20
273.42755160539758
 30
0.0
  0
VERTEX
  5
2D982
  8
0
 10
112.1023702759805
 20
273.56441880848888
 30
0.0
  0
VERTEX
  5
2D983
  8
0
 10
111.6961708674023
 20
273.69336736409332
 30
0.0
  0
VERTEX
  5
2D984
  8
0
 10
111.4926197168997
 20
273.75486459242251
 30
0.0
  0
VERTEX
  5
2D985
  8
0
 10
111.28878022442611
 20
273.8143732754807
 30
0.0
  0
VERTEX
  5
2D986
  8
0
 10
110.88027416056801
 20
273.92741402401037
 30
0.0
  0
VERTEX
  5
2D987
  8
0
 10
110.4707286969187
 20
274.0324685733213
 30
0.0
  0
VERTEX
  5
2D988
  8
0
 10
110.0602200479961
 20
274.12951737324778
 30
0.0
  0
VERTEX
  5
2D989
  8
0
 10
109.6488246075632
 20
274.21854236345638
 30
0.0
  0
VERTEX
  5
2D98A
  8
0
 10
109.2366189344102
 20
274.2995269768071
 30
0.0
  0
VERTEX
  5
2D98B
  8
0
 10
109.0302362268046
 20
274.33699937398978
 30
0.0
  0
VERTEX
  5
2D98C
  8
0
 10
108.8236797381075
 20
274.37245614243881
 30
0.0
  0
VERTEX
  5
2D98D
  8
0
 10
108.4100838647316
 20
274.43731628856949
 30
0.0
  0
VERTEX
  5
2D98E
  8
0
 10
107.99590828256331
 20
274.49409534502678
 30
0.0
  0
VERTEX
  5
2D98F
  8
0
 10
107.5812300677639
 20
274.54278274549051
 30
0.0
  0
VERTEX
  5
2D990
  8
0
 10
107.1661263900337
 20
274.58336942946062
 30
0.0
  0
VERTEX
  5
2D991
  8
0
 10
106.7506744982479
 20
274.61584784394199
 30
0.0
  0
VERTEX
  5
2D992
  8
0
 10
106.5428421304705
 20
274.6290445023742
 30
0.0
  0
VERTEX
  5
2D993
  8
0
 10
106.3349517060842
 20
274.64021194485213
 30
0.0
  0
VERTEX
  5
2D994
  8
0
 10
105.91903537763299
 20
274.65645719814438
 30
0.0
  0
VERTEX
  5
2D995
  8
0
 10
105.5030029130007
 20
274.66458058065291
 30
0.0
  0
VERTEX
  5
2D996
  8
0
 10
105.2949673234538
 20
274.66559603889891
 30
0.0
  0
VERTEX
  5
2D997
  8
0
 10
105.08693173390679
 20
274.66458058065291
 30
0.0
  0
VERTEX
  5
2D998
  8
0
 10
104.6708992692747
 20
274.65645719814438
 30
0.0
  0
VERTEX
  5
2D999
  8
0
 10
104.2549829408235
 20
274.64021194485213
 30
0.0
  0
VERTEX
  5
2D99A
  8
0
 10
104.047092516437
 20
274.6290445023742
 30
0.0
  0
VERTEX
  5
2D99B
  8
0
 10
103.8392601486598
 20
274.61584784394199
 30
0.0
  0
VERTEX
  5
2D99C
  8
0
 10
103.423808256874
 20
274.58336942946062
 30
0.0
  0
VERTEX
  5
2D99D
  8
0
 10
103.0087045791435
 20
274.54278274549051
 30
0.0
  0
VERTEX
  5
2D99E
  8
0
 10
102.5940263643444
 20
274.49409534502678
 30
0.0
  0
VERTEX
  5
2D99F
  8
0
 10
102.1798507821759
 20
274.43731628856949
 30
0.0
  0
VERTEX
  5
2D9A0
  8
0
 10
101.76625490879989
 20
274.37245614243881
 30
0.0
  0
VERTEX
  5
2D9A1
  8
0
 10
101.5596984201029
 20
274.33699937398978
 30
0.0
  0
VERTEX
  5
2D9A2
  8
0
 10
101.3533157124975
 20
274.2995269768071
 30
0.0
  0
VERTEX
  5
2D9A3
  8
0
 10
100.9411100393442
 20
274.21854236345638
 30
0.0
  0
VERTEX
  5
2D9A4
  8
0
 10
100.5297145989114
 20
274.12951737324778
 30
0.0
  0
VERTEX
  5
2D9A5
  8
0
 10
100.119205949989
 20
274.0324685733213
 30
0.0
  0
VERTEX
  5
2D9A6
  8
0
 10
99.709660486339544
 20
273.92741402401037
 30
0.0
  0
VERTEX
  5
2D9A7
  8
0
 10
99.301154422481645
 20
273.8143732754807
 30
0.0
  0
VERTEX
  5
2D9A8
  8
0
 10
99.097314930007997
 20
273.75486459242251
 30
0.0
  0
VERTEX
  5
2D9A9
  8
0
 10
98.893763779505434
 20
273.69336736409332
 30
0.0
  0
VERTEX
  5
2D9AA
  8
0
 10
98.487564370927203
 20
273.56441880848888
 30
0.0
  0
VERTEX
  5
2D9AB
  8
0
 10
98.082631788579405
 20
273.42755160539758
 30
0.0
  0
VERTEX
  5
2D9AC
  8
0
 10
97.679041388544874
 20
273.28279122517421
 30
0.0
  0
VERTEX
  5
2D9AD
  8
0
 10
97.276868277131598
 20
273.13016460705597
 30
0.0
  0
VERTEX
  5
2D9AE
  8
0
 10
96.876187296897115
 20
272.96970015415081
 30
0.0
  0
VERTEX
  5
2D9AF
  8
0
 10
96.676429668723145
 20
272.88653801460708
 30
0.0
  0
VERTEX
  5
2D9B0
  8
0
 10
96.477073012720211
 20
272.8014277281527
 30
0.0
  0
VERTEX
  5
2D9B1
  8
0
 10
96.07959969792455
 20
272.62537864378191
 30
0.0
  0
VERTEX
  5
2D9B2
  8
0
 10
95.683841320457532
 20
272.44158566296028
 30
0.0
  0
VERTEX
  5
2D9B3
  8
0
 10
95.289871529124184
 20
272.2500829887104
 30
0.0
  0
VERTEX
  5
2D9B4
  8
0
 10
94.897763639881987
 20
272.05090625879711
 30
0.0
  0
VERTEX
  5
2D9B5
  8
0
 10
94.507590622197085
 20
271.8440925390878
 30
0.0
  0
VERTEX
  5
2D9B6
  8
0
 10
94.313252395059848
 20
271.73783377994999
 30
0.0
  0
VERTEX
  5
2D9B7
  8
0
 10
94.119425085465068
 20
271.62968031666151
 30
0.0
  0
VERTEX
  5
2D9B8
  8
0
 10
93.733339265498444
 20
271.4077094926397
 30
0.0
  0
VERTEX
  5
2D9B9
  8
0
 10
93.349405011084187
 20
271.17822137476918
 30
0.0
  0
VERTEX
  5
2D9BA
  8
0
 10
92.967693770612655
 20
270.94125866972718
 30
0.0
  0
VERTEX
  5
2D9BB
  8
0
 10
92.588276578781688
 20
270.69686547517807
 30
0.0
  0
VERTEX
  5
2D9BC
  8
0
 10
92.211224043377342
 20
270.44508727156608
 30
0.0
  0
VERTEX
  5
2D9BD
  8
0
 10
92.023606466799265
 20
270.3164433800257
 30
0.0
  0
VERTEX
  5
2D9BE
  8
0
 10
91.836606332134124
 20
270.18597091365058
 30
0.0
  0
VERTEX
  5
2D9BF
  8
0
 10
91.464493159676749
 20
269.9195646217895
 30
0.0
  0
VERTEX
  5
2D9C0
  8
0
 10
91.094953774547093
 20
269.64591797296271
 30
0.0
  0
VERTEX
  5
2D9C1
  8
0
 10
90.911170761781705
 20
269.50639537617923
 30
0.0
  0
VERTEX
  5
2D9C2
  8
0
 10
90.728056946316869
 20
269.36508189154569
 30
0.0
  0
VERTEX
  5
2D9C3
  8
0
 10
90.363870952790421
 20
269.0771086398363
 30
0.0
  0
VERTEX
  5
2D9C4
  8
0
 10
90.002463567298037
 20
268.78205180832629
 30
0.0
  0
VERTEX
  5
2D9C5
  8
0
 10
89.822822890682559
 20
268.63188415790319
 30
0.0
  0
VERTEX
  5
2D9C6
  8
0
 10
89.643902046084108
 20
268.47996630572737
 30
0.0
  0
VERTEX
  5
2D9C7
  8
0
 10
89.288253115790667
 20
268.1709083487558
 30
0.0
  0
VERTEX
  5
2D9C8
  8
0
 10
88.935582961039927
 20
267.85493545166992
 30
0.0
  0
VERTEX
  5
2D9C9
  8
0
 10
88.585957212118046
 20
267.53210641556512
 30
0.0
  0
VERTEX
  5
2D9CA
  8
0
 10
88.239440932761227
 20
267.20248131743301
 30
0.0
  0
VERTEX
  5
2D9CB
  8
0
 10
87.896098608047865
 20
266.8661214989815
 30
0.0
  0
VERTEX
  5
2D9CC
  8
0
 10
87.725637669087064
 20
266.69543558193533
 30
0.0
  0
VERTEX
  5
2D9CD
  8
0
 10
87.555994132397686
 20
266.52308955521772
 30
0.0
  0
VERTEX
  5
2D9CE
  8
0
 10
87.219190797681904
 20
266.17344932280139
 30
0.0
  0
VERTEX
  5
2D9CF
  8
0
 10
86.885751281444755
 20
265.81726586816421
 30
0.0
  0
VERTEX
  5
2D9D0
  8
0
 10
86.555737635238984
 20
265.45460547540188
 30
0.0
  0
VERTEX
  5
2D9D1
  8
0
 10
86.229211273079727
 20
265.0855356339361
 30
0.0
  0
VERTEX
  5
2D9D2
  8
0
 10
85.906232960013298
 20
264.71012502595931
 30
0.0
  0
VERTEX
  5
2D9D3
  8
0
 10
85.746093130729832
 20
264.52006372072168
 30
0.0
  0
VERTEX
  5
2D9D4
  8
0
 10
85.586862800811559
 20
264.32844351365111
 30
0.0
  0
VERTEX
  5
2D9D5
  8
0
 10
85.271160228785433
 20
263.9405621261767
 30
0.0
  0
VERTEX
  5
2D9D6
  8
0
 10
84.959183994724285
 20
263.54655304647082
 30
0.0
  0
VERTEX
  5
2D9D7
  8
0
 10
84.804611424732215
 20
263.34727349137938
 30
0.0
  0
SEQEND
  5
2D9D8
  8
0
  0
LINE
  5
2D3BF
  8
0
 10
125.7949673234538
 20
277.24368873141981
 30
0.0
 11
125.7949673234538
 21
192.2436887314197
 31
0.0
  0
LINE
  5
2D3C0
  8
0
 10
84.794967323453875
 20
277.24368873141981
 30
0.0
 11
125.7949673234538
 21
277.24368873141981
 31
0.0
  0
LINE
  5
2D3C1
  8
0
 10
84.794967323453875
 20
192.2436887314197
 30
0.0
 11
84.794967323453875
 21
277.24368873141981
 31
0.0
  0
LINE
  5
2D3C3
  8
0
 10
130.29496732345379
 20
196.4286887314201
 30
0.0
 11
130.89496732345381
 21
196.4286887314201
 31
0.0
  0
LINE
  5
2D3C4
  8
0
 10
130.89496732345381
 20
208.05868873142029
 30
0.0
 11
130.29496732345379
 21
208.05868873142029
 31
0.0
  0
LINE
  5
2D3C5
  8
0
 10
71.0619673234537
 20
198.2436887314197
 30
0.0
 11
72.294967323453875
 21
198.2436887314197
 31
0.0
  0
LINE
  5
2D3C6
  8
0
 10
72.294967323453875
 20
206.24368873141981
 30
0.0
 11
71.0619673234537
 21
206.24368873141981
 31
0.0
  0
LINE
  5
2D3C7
  8
0
 10
70.294967323453875
 20
199.01068873141961
 30
0.0
 11
71.0619673234537
 21
198.2436887314197
 31
0.0
  0
LINE
  5
2D3C8
  8
0
 10
71.0619673234537
 20
206.24368873141981
 30
0.0
 11
70.294967323453875
 21
205.4766887314199
 31
0.0
  0
LINE
  5
2D3CA
  8
0
 10
84.794967323453875
 20
198.2436887314197
 30
0.0
 11
85.294967323453875
 21
198.2436887314197
 31
0.0
  0
LINE
  5
2D3CB
  8
0
 10
85.294967323453875
 20
206.24368873141981
 30
0.0
 11
84.794967323453875
 21
206.24368873141981
 31
0.0
  0
LINE
  5
2D3CD
  8
0
 10
72.294967323453875
 20
196.4286887314201
 30
0.0
 11
74.794967323453875
 21
196.4286887314201
 31
0.0
  0
LINE
  5
2D3CE
  8
0
 10
74.794967323453875
 20
208.05868873142029
 30
0.0
 11
72.294967323453875
 21
208.05868873142029
 31
0.0
  0
LINE
  5
2D3CF
  8
0
 10
125.2949673234539
 20
198.2436887314197
 30
0.0
 11
125.7949673234538
 21
198.2436887314197
 31
0.0
  0
LINE
  5
2D3D2
  8
0
 10
125.7949673234538
 20
206.24368873141981
 30
0.0
 11
125.2949673234539
 21
206.24368873141981
 31
0.0
  0
LINE
  5
2D3D3
  8
0
 10
85.294967323453875
 20
196.2436887314197
 30
0.0
 11
87.794967323453875
 21
196.2436887314197
 31
0.0
  0
LINE
  5
2D3D5
  8
0
 10
122.7949673234538
 20
196.2436887314197
 30
0.0
 11
125.2949673234539
 21
196.2436887314197
 31
0.0
  0
LINE
  5
2D3D6
  8
0
 10
125.2949673234539
 20
208.24368873141981
 30
0.0
 11
122.7949673234538
 21
208.24368873141981
 31
0.0
  0
LINE
  5
2D3D8
  8
0
 10
87.794967323453875
 20
208.24368873141981
 30
0.0
 11
85.294967323453875
 21
208.24368873141981
 31
0.0
  0
LINE
  5
2D3D9
  8
0
 10
71.0619673234537
 20
206.24368873141981
 30
0.0
 11
71.0619673234537
 21
198.2436887314197
 31
0.0
  0
LINE
  5
2D3DA
  8
0
 10
70.294967323453875
 20
205.4766887314199
 30
0.0
 11
70.294967323453875
 21
199.01068873141961
 31
0.0
  0
LINE
  5
2D3DB
  8
0
 10
135.5949673234538
 20
208.50202206475299
 30
0.0
 11
135.5949673234538
 21
195.98535539808651
 31
0.0
  0
LINE
  5
2D3DC
  8
0
 10
130.89496732345381
 20
208.50202206475299
 30
0.0
 11
130.89496732345381
 21
195.98535539808651
 31
0.0
  0
POLYLINE
  5
2D3DD
  8
0
 66
     1
 10
0.0
 20
0.0
 30
0.0
  0
VERTEX
  5
2D9D9
  8
0
 10
135.33554761403821
 20
208.50202206475299
 30
0.0
  0
VERTEX
  5
2D9DA
  8
0
 10
135.41639226729649
 20
207.93984358663869
 30
0.0
  0
VERTEX
  5
2D9DB
  8
0
 10
135.5310026060497
 20
206.88405369391421
 30
0.0
  0
VERTEX
  5
2D9DC
  8
0
 10
135.58777718983399
 20
205.87529315000211
 30
0.0
  0
VERTEX
  5
2D9DD
  8
0
 10
135.5949673234538
 20
205.3728553980863
 30
0.0
  0
SEQEND
  5
2D9DE
  8
0
  0
POLYLINE
  5
2D3DE
  8
0
 66
     1
 10
0.0
 20
0.0
 30
0.0
  0
VERTEX
  5
2D9DF
  8
0
 10
135.5949673234538
 20
205.3728553980863
 30
0.0
  0
VERTEX
  5
2D9E0
  8
0
 10
135.58777718983399
 20
204.87041764617061
 30
0.0
  0
VERTEX
  5
2D9E1
  8
0
 10
135.53100260604941
 20
203.8616571022585
 30
0.0
  0
VERTEX
  5
2D9E2
  8
0
 10
135.41639226729649
 20
202.80586720953491
 30
0.0
  0
VERTEX
  5
2D9E3
  8
0
 10
135.33554761403821
 20
202.24368873141981
 30
0.0
  0
SEQEND
  5
2D9E4
  8
0
  0
POLYLINE
  5
2D3DF
  8
0
 66
     1
 10
0.0
 20
0.0
 30
0.0
  0
VERTEX
  5
2D9E5
  8
0
 10
131.15438703286941
 20
202.24368873141981
 30
0.0
  0
VERTEX
  5
2D9E6
  8
0
 10
131.0735423796113
 20
202.80586720953491
 30
0.0
  0
VERTEX
  5
2D9E7
  8
0
 10
130.95893204085809
 20
203.8616571022585
 30
0.0
  0
VERTEX
  5
2D9E8
  8
0
 10
130.9021574570738
 20
204.87041764617061
 30
0.0
  0
VERTEX
  5
2D9E9
  8
0
 10
130.89496732345381
 20
205.3728553980863
 30
0.0
  0
SEQEND
  5
2D9EA
  8
0
  0
POLYLINE
  5
2D3E0
  8
0
 66
     1
 10
0.0
 20
0.0
 30
0.0
  0
VERTEX
  5
2D9EB
  8
0
 10
130.89496732345381
 20
205.3728553980863
 30
0.0
  0
VERTEX
  5
2D9EC
  8
0
 10
130.9021574570738
 20
205.87529315000211
 30
0.0
  0
VERTEX
  5
2D9ED
  8
0
 10
130.95893204085809
 20
206.88405369391421
 30
0.0
  0
VERTEX
  5
2D9EE
  8
0
 10
131.0735423796113
 20
207.93984358663869
 30
0.0
  0
VERTEX
  5
2D9EF
  8
0
 10
131.15438703286941
 20
208.50202206475299
 30
0.0
  0
SEQEND
  5
2D9F0
  8
0
  0
LINE
  5
2D3E1
  8
0
 10
135.33554761403821
 20
202.24368873141981
 30
0.0
 11
131.15438703286941
 21
202.24368873141981
 31
0.0
  0
POLYLINE
  5
2D3E2
  8
0
 66
     1
 10
0.0
 20
0.0
 30
0.0
  0
VERTEX
  5
2D9F1
  8
0
 10
135.33554761403821
 20
202.24368873141981
 30
0.0
  0
VERTEX
  5
2D9F2
  8
0
 10
135.41639226729649
 20
201.68151025330459
 30
0.0
  0
VERTEX
  5
2D9F3
  8
0
 10
135.53100260604941
 20
200.625720360581
 30
0.0
  0
VERTEX
  5
2D9F4
  8
0
 10
135.58777718983399
 20
199.6169598166689
 30
0.0
  0
VERTEX
  5
2D9F5
  8
0
 10
135.5949673234538
 20
199.11452206475309
 30
0.0
  0
SEQEND
  5
2D9F6
  8
0
  0
POLYLINE
  5
2D3E3
  8
0
 66
     1
 10
0.0
 20
0.0
 30
0.0
  0
VERTEX
  5
2D9F7
  8
0
 10
135.5949673234538
 20
199.11452206475309
 30
0.0
  0
VERTEX
  5
2D9F8
  8
0
 10
135.58777718983399
 20
198.6120843128374
 30
0.0
  0
VERTEX
  5
2D9F9
  8
0
 10
135.53100260604941
 20
197.60332376892529
 30
0.0
  0
VERTEX
  5
2D9FA
  8
0
 10
135.41639226729649
 20
196.5475338762017
 30
0.0
  0
VERTEX
  5
2D9FB
  8
0
 10
135.33554761403821
 20
195.98535539808651
 30
0.0
  0
SEQEND
  5
2D9FC
  8
0
  0
POLYLINE
  5
2D3E4
  8
0
 66
     1
 10
0.0
 20
0.0
 30
0.0
  0
VERTEX
  5
2D9FD
  8
0
 10
131.15438703286941
 20
195.98535539808651
 30
0.0
  0
VERTEX
  5
2D9FE
  8
0
 10
131.0735423796113
 20
196.5475338762017
 30
0.0
  0
VERTEX
  5
2D9FF
  8
0
 10
130.95893204085809
 20
197.60332376892529
 30
0.0
  0
VERTEX
  5
2DA00
  8
0
 10
130.9021574570738
 20
198.6120843128374
 30
0.0
  0
VERTEX
  5
2DA01
  8
0
 10
130.89496732345381
 20
199.11452206475309
 30
0.0
  0
SEQEND
  5
2DA02
  8
0
  0
POLYLINE
  5
2D3E5
  8
0
 66
     1
 10
0.0
 20
0.0
 30
0.0
  0
VERTEX
  5
2DA03
  8
0
 10
130.89496732345381
 20
199.11452206475309
 30
0.0
  0
VERTEX
  5
2DA04
  8
0
 10
130.9021574570738
 20
199.6169598166689
 30
0.0
  0
VERTEX
  5
2DA05
  8
0
 10
130.95893204085809
 20
200.625720360581
 30
0.0
  0
VERTEX
  5
2DA06
  8
0
 10
131.0735423796113
 20
201.68151025330459
 30
0.0
  0
VERTEX
  5
2DA07
  8
0
 10
131.15438703286941
 20
202.24368873141981
 30
0.0
  0
SEQEND
  5
2DA08
  8
0
  0
LINE
  5
2D3F4
  8
0
 10
72.294967323453875
 20
208.05868873142029
 30
0.0
 11
72.294967323453875
 21
196.4286887314201
 31
0.0
  0
LINE
  5
2D3F5
  8
0
 10
74.794967323453875
 20
208.50202206475299
 30
0.0
 11
74.794967323453875
 21
195.98535539808651
 31
0.0
  0
POLYLINE
  5
2D3F6
  8
0
 66
     1
 10
0.0
 20
0.0
 30
0.0
  0
VERTEX
  5
2DA09
  8
0
 10
80.035547614038236
 20
208.50202206475299
 30
0.0
  0
VERTEX
  5
2DA0A
  8
0
 10
80.116392267296547
 20
207.93984358663869
 30
0.0
  0
VERTEX
  5
2DA0B
  8
0
 10
80.231002606049515
 20
206.88405369391421
 30
0.0
  0
VERTEX
  5
2DA0C
  8
0
 10
80.287777189833818
 20
205.87529315000211
 30
0.0
  0
VERTEX
  5
2DA0D
  8
0
 10
80.294967323453875
 20
205.3728553980863
 30
0.0
  0
SEQEND
  5
2DA0E
  8
0
  0
POLYLINE
  5
2D3F7
  8
0
 66
     1
 10
0.0
 20
0.0
 30
0.0
  0
VERTEX
  5
2DA0F
  8
0
 10
80.294967323453875
 20
205.3728553980863
 30
0.0
  0
VERTEX
  5
2DA10
  8
0
 10
80.287777189833818
 20
204.87041764617061
 30
0.0
  0
VERTEX
  5
2DA11
  8
0
 10
80.231002606049515
 20
203.8616571022585
 30
0.0
  0
VERTEX
  5
2DA12
  8
0
 10
80.116392267296547
 20
202.80586720953491
 30
0.0
  0
VERTEX
  5
2DA13
  8
0
 10
80.035547614038236
 20
202.24368873141981
 30
0.0
  0
SEQEND
  5
2DA14
  8
0
  0
POLYLINE
  5
2D3F8
  8
0
 66
     1
 10
0.0
 20
0.0
 30
0.0
  0
VERTEX
  5
2DA15
  8
0
 10
75.054387032869272
 20
202.24368873141981
 30
0.0
  0
VERTEX
  5
2DA16
  8
0
 10
74.973542379611217
 20
202.80586720953491
 30
0.0
  0
VERTEX
  5
2DA17
  8
0
 10
74.858932040858235
 20
203.8616571022585
 30
0.0
  0
VERTEX
  5
2DA18
  8
0
 10
74.80215745707369
 20
204.87041764617061
 30
0.0
  0
VERTEX
  5
2DA19
  8
0
 10
74.794967323453875
 20
205.3728553980863
 30
0.0
  0
SEQEND
  5
2DA1A
  8
0
  0
POLYLINE
  5
2D3F9
  8
0
 66
     1
 10
0.0
 20
0.0
 30
0.0
  0
VERTEX
  5
2DA1B
  8
0
 10
74.794967323453875
 20
205.3728553980863
 30
0.0
  0
VERTEX
  5
2DA1C
  8
0
 10
74.80215745707369
 20
205.87529315000211
 30
0.0
  0
VERTEX
  5
2DA1D
  8
0
 10
74.858932040858235
 20
206.88405369391421
 30
0.0
  0
VERTEX
  5
2DA1E
  8
0
 10
74.973542379611217
 20
207.93984358663869
 30
0.0
  0
VERTEX
  5
2DA1F
  8
0
 10
75.054387032869272
 20
208.50202206475299
 30
0.0
  0
SEQEND
  5
2DA20
  8
0
  0
LINE
  5
2D3FA
  8
0
 10
80.035547614038236
 20
202.24368873141981
 30
0.0
 11
75.054387032869272
 21
202.24368873141981
 31
0.0
  0
POLYLINE
  5
2D3FB
  8
0
 66
     1
 10
0.0
 20
0.0
 30
0.0
  0
VERTEX
  5
2DA21
  8
0
 10
80.035547614038236
 20
202.24368873141981
 30
0.0
  0
VERTEX
  5
2DA22
  8
0
 10
80.116392267296547
 20
201.68151025330459
 30
0.0
  0
VERTEX
  5
2DA23
  8
0
 10
80.231002606049515
 20
200.625720360581
 30
0.0
  0
VERTEX
  5
2DA24
  8
0
 10
80.287777189833818
 20
199.6169598166689
 30
0.0
  0
VERTEX
  5
2DA25
  8
0
 10
80.294967323453875
 20
199.11452206475309
 30
0.0
  0
SEQEND
  5
2DA26
  8
0
  0
POLYLINE
  5
2D3FC
  8
0
 66
     1
 10
0.0
 20
0.0
 30
0.0
  0
VERTEX
  5
2DA27
  8
0
 10
80.294967323453875
 20
199.11452206475309
 30
0.0
  0
VERTEX
  5
2DA28
  8
0
 10
80.287777189833818
 20
198.6120843128374
 30
0.0
  0
VERTEX
  5
2DA29
  8
0
 10
80.231002606049515
 20
197.60332376892529
 30
0.0
  0
VERTEX
  5
2DA2A
  8
0
 10
80.116392267296547
 20
196.5475338762017
 30
0.0
  0
VERTEX
  5
2DA2B
  8
0
 10
80.035547614038236
 20
195.98535539808651
 30
0.0
  0
SEQEND
  5
2DA2C
  8
0
  0
POLYLINE
  5
2D3FD
  8
0
 66
     1
 10
0.0
 20
0.0
 30
0.0
  0
VERTEX
  5
2DA2D
  8
0
 10
75.054387032869272
 20
195.98535539808651
 30
0.0
  0
VERTEX
  5
2DA2E
  8
0
 10
74.973542379611217
 20
196.5475338762017
 30
0.0
  0
VERTEX
  5
2DA2F
  8
0
 10
74.858932040858235
 20
197.60332376892529
 30
0.0
  0
VERTEX
  5
2DA30
  8
0
 10
74.80215745707369
 20
198.6120843128374
 30
0.0
  0
VERTEX
  5
2DA31
  8
0
 10
74.794967323453875
 20
199.11452206475309
 30
0.0
  0
SEQEND
  5
2DA32
  8
0
  0
POLYLINE
  5
2D3FE
  8
0
 66
     1
 10
0.0
 20
0.0
 30
0.0
  0
VERTEX
  5
2DA33
  8
0
 10
74.794967323453875
 20
199.11452206475309
 30
0.0
  0
VERTEX
  5
2DA34
  8
0
 10
74.80215745707369
 20
199.6169598166689
 30
0.0
  0
VERTEX
  5
2DA35
  8
0
 10
74.858932040858235
 20
200.625720360581
 30
0.0
  0
VERTEX
  5
2DA36
  8
0
 10
74.973542379611217
 20
201.68151025330459
 30
0.0
  0
VERTEX
  5
2DA37
  8
0
 10
75.054387032869272
 20
202.24368873141981
 30
0.0
  0
SEQEND
  5
2DA38
  8
0
  0
LINE
  5
2D40D
  8
0
 10
125.2949673234539
 20
208.24368873141981
 30
0.0
 11
125.2949673234539
 21
196.2436887314197
 31
0.0
  0
LINE
  5
2D40E
  8
0
 10
85.294967323453875
 20
208.24368873141981
 30
0.0
 11
85.294967323453875
 21
196.2436887314197
 31
0.0
  0
LINE
  5
2D415
  8
0
 10
91.320979947988008
 20
139.7436887314197
 30
0.0
 11
119.2689546989197
 21
139.7436887314197
 31
0.0
  0
LINE
  5
2D416
  8
0
 10
119.2689546989197
 20
264.74368873141981
 30
0.0
 11
91.320979947988008
 21
264.74368873141981
 31
0.0
  0
ARC
  5
2D417
  8
0
 10
91.320979947988008
 20
262.24368873141981
 30
0.0
 40
2.499999999999992
 50
90.0
 51
165.00000000000551
  0
ARC
  5
2D418
  8
0
 10
91.320979947988008
 20
142.2436887314197
 30
0.0
 40
2.499999999999992
 50
194.9999999999944
 51
270.0
  0
LINE
  5
2D419
  8
0
 10
87.794967323453875
 20
145.7436887314197
 30
0.0
 11
88.906165382265272
 21
141.5966411186636
 31
0.0
  0
LINE
  5
2D41A
  8
0
 10
88.906165382265272
 20
262.89073634417582
 30
0.0
 11
87.794967323453875
 21
258.7436887314197
 31
0.0
  0
LINE
  5
2D423
  8
0
 10
122.7874673234537
 20
186.2436887314197
 30
0.0
 11
122.7949673234538
 21
186.2436887314197
 31
0.0
  0
LINE
  5
2D425
  8
0
 10
122.7874673234537
 20
186.2286887314194
 30
0.0
 11
122.7949673234538
 21
186.2286887314194
 31
0.0
  0
LINE
  5
2D42B
  8
0
 10
121.68376926464219
 20
141.5966411186636
 30
0.0
 11
122.7949673234538
 21
145.7436887314197
 31
0.0
  0
LINE
  5
2D42C
  8
0
 10
122.7949673234538
 20
258.7436887314197
 30
0.0
 11
121.68376926464219
 21
262.89073634417582
 31
0.0
  0
ARC
  5
2D42D
  8
0
 10
119.2689546989197
 20
262.24368873141981
 30
0.0
 40
2.4999999999999778
 50
14.999999999994451
 51
90.0
  0
ARC
  5
2D42E
  8
0
 10
119.2689546989197
 20
142.2436887314197
 30
0.0
 40
2.4999999999999849
 50
270.0
 51
345.00000000000563
  0
LINE
  5
2D441
  8
0
 10
91.320979947988008
 20
264.74368873141981
 30
0.0
 11
91.320979947988008
 21
139.7436887314197
 31
0.0
  0
LINE
  5
2D443
  8
0
 10
87.794967323453875
 20
258.7436887314197
 30
0.0
 11
87.794967323453875
 21
145.7436887314197
 31
0.0
  0
LINE
  5
2D446
  8
0
 10
122.7949673234538
 20
258.7436887314197
 30
0.0
 11
122.7949673234538
 21
145.7436887314197
 31
0.0
  0
LINE
  5
2D447
  8
0
 10
119.2689546989197
 20
264.74368873141981
 30
0.0
 11
119.2689546989197
 21
139.7436887314197
 31
0.0
  0
LINE
  5
2D4BD
  8
0
 10
502.2096646446405
 20
195.98535539808651
 30
0.0
 11
506.90966464464049
 21
195.98535539808651
 31
0.0
  0
LINE
  5
2D4BE
  8
0
 10
502.2096646446405
 20
208.50202206475299
 30
0.0
 11
503.50095060483631
 21
208.50202206475299
 31
0.0
  0
LINE
  5
2D4BF
  8
0
 10
563.00966464464045
 20
208.50202206475299
 30
0.0
 11
561.5183786844442
 21
208.50202206475299
 31
0.0
  0
LINE
  5
2D4C0
  8
0
 10
563.00966464464045
 20
195.98535539808651
 30
0.0
 11
557.50966464464045
 21
195.98535539808651
 31
0.0
  0
LINE
  5
2D4C1
  8
0
 10
130.89496732345381
 20
195.98535539808651
 30
0.0
 11
135.5949673234538
 21
195.98535539808651
 31
0.0
  0
LINE
  5
2D4C2
  8
0
 10
130.89496732345381
 20
208.50202206475299
 30
0.0
 11
135.5949673234538
 21
208.50202206475299
 31
0.0
  0
LINE
  5
2D4C3
  8
0
 10
74.794967323453875
 20
208.50202206475299
 30
0.0
 11
80.294967323453875
 21
208.50202206475299
 31
0.0
  0
LINE
  5
2D4C4
  8
0
 10
74.794967323453875
 20
195.98535539808651
 30
0.0
 11
80.294967323453875
 21
195.98535539808651
 31
0.0
  0
LINE
  5
2D4C5
  8
3
 10
70.294967323453875
 20
205.4766887314199
 30
0.0
 11
72.294967323453875
 21
205.4766887314199
 31
0.0
  0
LINE
  5
2D4C6
  8
3
 10
70.294967323453875
 20
199.01068873141961
 30
0.0
 11
72.294967323453875
 21
199.01068873141961
 31
0.0
  0
LINE
  5
2D4C7
  8
3
 10
125.2949673234539
 20
199.01068873141961
 30
0.0
 11
125.7949673234538
 21
199.01068873141961
 31
0.0
  0
LINE
  5
2D4C8
  8
3
 10
125.2949673234539
 20
205.4766887314199
 30
0.0
 11
125.7949673234538
 21
205.4766887314199
 31
0.0
  0
LINE
  5
2D4C9
  8
3
 10
84.794967323453875
 20
205.4766887314199
 30
0.0
 11
85.294967323453875
 21
205.4766887314199
 31
0.0
  0
LINE
  5
2D4CA
  8
3
 10
84.794967323453875
 20
199.01068873141961
 30
0.0
 11
85.294967323453875
 21
199.01068873141961
 31
0.0
  0
LINE
  5
2D4CB
  8
3
 10
567.50966464464045
 20
205.4766887314199
 30
0.0
 11
565.50966464464045
 21
205.4766887314199
 31
0.0
  0
LINE
  5
2D4CC
  8
3
 10
553.00966464464045
 20
205.4766887314199
 30
0.0
 11
552.50966464464045
 21
205.4766887314199
 31
0.0
  0
LINE
  5
2D4CD
  8
3
 10
512.50966464464045
 20
205.4766887314199
 30
0.0
 11
512.00966464464045
 21
205.4766887314199
 31
0.0
  0
LINE
  5
2D4CE
  8
3
 10
567.50966464464045
 20
199.01068873141961
 30
0.0
 11
565.50966464464045
 21
199.01068873141961
 31
0.0
  0
LINE
  5
2D4CF
  8
3
 10
553.00966464464045
 20
199.01068873141961
 30
0.0
 11
552.50966464464045
 21
199.01068873141961
 31
0.0
  0
LINE
  5
2D4D0
  8
3
 10
512.50966464464045
 20
199.01068873141961
 30
0.0
 11
512.00966464464045
 21
199.01068873141961
 31
0.0
  0
TEXT
  5
2D630
  8
0
 62
     3
 10
0.0
 20
0.0
 30
0.0
 40
10.0
  1
CAF5-125SSL
  7
STANDARD1
  0
ENDSEC
  0
EOF
