  0
SECTION
  2
HEADER
  9
$ACADVER
  1
AC1009
  9
$INSBASE
 10
0.0
 20
0.0
 30
0.0
  9
$EXTMIN
 10
0.0
 20
-2.960436562073669
 30
0.0
  9
$EXTMAX
 10
762.1748549503327
 20
670.82012246912655
 30
0.0
  9
$LIMMIN
 10
0.0
 20
0.0
  9
$LIMMAX
 10
375.0
 20
270.0
  9
$ORTHOMODE
 70
     1
  9
$REGENMODE
 70
     1
  9
$FILLMODE
 70
     1
  9
$QTEXTMODE
 70
     0
  9
$MIRRTEXT
 70
     1
  9
$DRAGMODE
 70
     2
  9
$LTSCALE
 40
10.0
  9
$OSMODE
 70
  3071
  9
$ATTMODE
 70
     1
  9
$TEXTSIZE
 40
5.0
  9
$TRACEWID
 40
0.05
  9
$TEXTSTYLE
  7
STANDARD
  9
$CLAYER
  8
0
  9
$CELTYPE
  6
BYLAYER
  9
$CECOLOR
 62
     6
  9
$DIMSCALE
 40
2.0
  9
$DIMASZ
 40
3.0
  9
$DIMEXO
 40
2.0
  9
$DIMDLI
 40
0.38
  9
$DIMRND
 40
0.0
  9
$DIMDLE
 40
0.0
  9
$DIMEXE
 40
2.0
  9
$DIMTP
 40
0.0
  9
$DIMTM
 40
0.0
  9
$DIMTXT
 40
3.2000000000000002
  9
$DIMCEN
 40
0.0
  9
$DIMTSZ
 40
0.0
  9
$DIMTOL
 70
     0
  9
$DIMLIM
 70
     0
  9
$DIMTIH
 70
     0
  9
$DIMTOH
 70
     0
  9
$DIMSE1
 70
     0
  9
$DIMSE2
 70
     0
  9
$DIMTAD
 70
     1
  9
$DIMZIN
 70
     8
  9
$DIMBLK
  1

  9
$DIMASO
 70
     0
  9
$DIMSHO
 70
     0
  9
$DIMPOST
  1

  9
$DIMAPOST
  1

  9
$DIMALT
 70
     0
  9
$DIMALTD
 70
     2
  9
$DIMALTF
 40
25.399999999999999
  9
$DIMLFAC
 40
1.0
  9
$DIMTOFL
 70
     0
  9
$DIMTVP
 40
1.6000000000000001
  9
$DIMTIX
 70
     1
  9
$DIMSOXD
 70
     0
  9
$DIMSAH
 70
     0
  9
$DIMBLK1
  1

  9
$DIMBLK2
  1

  9
$DIMSTYLE
  2
STANDARD
  9
$DIMCLRD
 70
     0
  9
$DIMCLRE
 70
     0
  9
$DIMCLRT
 70
     0
  9
$DIMTFAC
 40
1.0
  9
$DIMGAP
 40
1.1999999999999991
  9
$LUNITS
 70
     2
  9
$LUPREC
 70
     4
  9
$SKETCHINC
 40
0.1
  9
$FILLETRAD
 40
0.0
  9
$AUNITS
 70
     0
  9
$AUPREC
 70
     4
  9
$MENU
  1
ACAD
  9
$ELEVATION
 40
0.0
  9
$PELEVATION
 40
0.0
  9
$THICKNESS
 40
0.0
  9
$LIMCHECK
 70
     0
  9
$BLIPMODE
 70
     0
  9
$CHAMFERA
 40
0.0
  9
$CHAMFERB
 40
0.0
  9
$SKPOLY
 70
     0
  9
$TDCREATE
 40
2448055.7149187499
  9
$TDUPDATE
 40
2456598.5601875228
  9
$TDINDWG
 40
3.1437169443999999
  9
$TDUSRTIMER
 40
3.1437169443999999
  9
$USRTIMER
 70
     1
  9
$ANGBASE
 50
0.0
  9
$ANGDIR
 70
     0
  9
$PDMODE
 70
     0
  9
$PDSIZE
 40
0.0
  9
$PLINEWID
 40
0.0
  9
$COORDS
 70
     1
  9
$SPLFRAME
 70
     0
  9
$SPLINETYPE
 70
     6
  9
$SPLINESEGS
 70
     8
  9
$ATTDIA
 70
     0
  9
$ATTREQ
 70
     1
  9
$HANDLING
 70
     1
  9
$HANDSEED
  5
31F20
  9
$SURFTAB1
 70
     6
  9
$SURFTAB2
 70
     6
  9
$SURFTYPE
 70
     6
  9
$SURFU
 70
     6
  9
$SURFV
 70
     6
  9
$UCSNAME
  2

  9
$UCSORG
 10
0.0
 20
0.0
 30
0.0
  9
$UCSXDIR
 10
1.0
 20
0.0
 30
0.0
  9
$UCSYDIR
 10
0.0
 20
1.0
 30
0.0
  9
$PUCSNAME
  2

  9
$PUCSORG
 10
0.0
 20
0.0
 30
0.0
  9
$PUCSXDIR
 10
1.0
 20
0.0
 30
0.0
  9
$PUCSYDIR
 10
0.0
 20
1.0
 30
0.0
  9
$USERI1
 70
     0
  9
$USERI2
 70
     0
  9
$USERI3
 70
     0
  9
$USERI4
 70
     0
  9
$USERI5
 70
     0
  9
$USERR1
 40
0.0
  9
$USERR2
 40
0.0
  9
$USERR3
 40
0.0
  9
$USERR4
 40
0.0
  9
$USERR5
 40
0.0
  9
$WORLDVIEW
 70
     1
  9
$SHADEDGE
 70
     3
  9
$SHADEDIF
 70
    70
  9
$TILEMODE
 70
     1
  9
$MAXACTVP
 70
    16
  9
$PLIMCHECK
 70
     0
  9
$PEXTMIN
 10
1.0000000000000000E+020
 20
1.0000000000000000E+020
 30
1.0000000000000000E+020
  9
$PEXTMAX
 10
-1.0000000000000000E+020
 20
-1.0000000000000000E+020
 30
-1.0000000000000000E+020
  9
$PLIMMIN
 10
0.0
 20
0.0
  9
$PLIMMAX
 10
12.0
 20
9.0
  9
$UNITMODE
 70
     0
  9
$VISRETAIN
 70
     0
  9
$PLINEGEN
 70
     1
  9
$PSLTSCALE
 70
     0
  0
ENDSEC
  0
SECTION
  2
TABLES
  0
TABLE
  2
VPORT
 70
     1
  0
VPORT
  2
*ACTIVE
 70
     0
 10
0.0
 20
0.0
 11
1.0
 21
1.0
 12
399.75851643674719
 22
333.925856896303
 13
0.0
 23
0.0
 14
5.0
 24
5.0
 15
10.0
 25
10.0
 16
0.0
 26
0.0
 36
1.0
 17
0.0
 27
0.0
 37
0.0
 40
679.87279158339868
 41
1.831871345029239
 42
50.0
 43
0.0
 44
0.0
 50
0.0
 51
0.0
 71
     0
 72
   500
 73
     1
 74
     1
 75
     0
 76
     0
 77
     0
 78
     2
  0
ENDTAB
  0
TABLE
  2
LTYPE
 70
     3
  0
LTYPE
  2
CONTINUOUS
 70
     0
  3
実線
 72
    65
 73
     0
 40
0.0
  0
LTYPE
  2
CENTER
 70
     0
  3
____ _ ____ _ ____ _ ____ _ ____ _ ____ _ ____
 72
    65
 73
     4
 40
2.0
 49
1.25
 49
-0.25
 49
0.25
 49
-0.25
  0
LTYPE
  2
PHANTOM2
 70
     0
  3
___ _ _ ___ _ _ ___ _ _ ___ _ _
 72
    65
 73
     6
 40
1.25
 49
0.625
 49
-0.125
 49
0.125
 49
-0.125
 49
0.125
 49
-0.125
  0
ENDTAB
  0
TABLE
  2
LAYER
 70
     4
  0
LAYER
  2
0
 70
     0
 62
     7
  6
CONTINUOUS
  0
LAYER
  2
1
 70
     0
 62
     1
  6
CENTER
  0
LAYER
  2
DEFPOINTS
 70
     0
 62
     7
  6
CONTINUOUS
  0
LAYER
  2
3
 70
     0
 62
     3
  6
CONTINUOUS
  0
ENDTAB
  0
TABLE
  2
STYLE
 70
     3
  0
STYLE
  2
STANDARD
 70
     0
 40
0.0
 41
1.0
 50
0.0
 71
     0
 42
5.0
  3
simplex.shx
  4
bigfont.shx
  0
STYLE
  2
07500
 70
     0
 40
0.0
 41
0.75
 50
0.0
 71
     0
 42
0.2
  3
simplex.shx
  4
bigfont.shx
  0
STYLE
  2
STANDARD1
 70
     0
 40
0.0
 41
1.0
 50
0.0
 71
     0
 42
3.0
  3
txt
  4

  0
ENDTAB
  0
TABLE
  2
VIEW
 70
     2
  0
VIEW
  2
ALL
 70
     0
 40
270.0
 10
220.99159663865549
 20
135.0
 41
0.0
 11
0.0
 21
0.0
 31
1.0
 12
0.0
 22
0.0
 32
0.0
 42
0.0
 43
0.0
 44
0.0
 50
0.0
 71
     0
  0
VIEW
  2
OLE1
 70
     0
 40
168.2487151179721
 10
2892.3009567448912
 20
702.51600084347126
 41
162.5749581879237
 11
0.0
 21
0.0
 31
1.0
 12
0.0
 22
0.0
 32
0.0
 42
50.0
 43
0.0
 44
0.0
 50
0.0
 71
     0
  0
ENDTAB
  0
TABLE
  2
UCS
 70
     0
  0
ENDTAB
  0
TABLE
  2
APPID
 70
    48
  0
APPID
  2
ACAD
 70
     0
  0
APPID
  2
DCO15
 70
     0
  0
APPID
  2
GENIUS_GENOREF_13
 70
     0
  0
APPID
  2
GENIUS_GENOENT_13
 70
     0
  0
APPID
  2
GENIUS_GENBH_13
 70
     0
  0
APPID
  2
GENIUS_GENOBJ_13
 70
     0
  0
APPID
  2
GENIUS_GENODEF_13
 70
     0
  0
APPID
  2
GENIUS_GENOLIS_13
 70
     0
  0
APPID
  2
GENIUS_GENOBJ-NBEHI-BHF_13
 70
     0
  0
APPID
  2
GENIUS_GENOBJ-NBEHI-BHB_13
 70
     0
  0
APPID
  2
GENIUS_GENOBJ-F-PART_13
 70
     0
  0
APPID
  2
GENIUS_GEFSTDP_13
 70
     0
  0
APPID
  2
GENIUS_GENOBJ-N-RSSYM_13
 70
     0
  0
APPID
  2
GENIUS_GENSYMENT_13
 70
     0
  0
APPID
  2
GENIUS_GENOBJ-N-TIT_13
 70
     0
  0
APPID
  2
GENIUS_GENTITLE_13
 70
     0
  0
APPID
  2
GENIUS_GENZVEED_13
 70
     0
  0
APPID
  2
GENIUS_GENOBJ-N-LEADER_13
 70
     0
  0
APPID
  2
GENIUS_GENOBJ-N-FIL_13
 70
     0
  0
APPID
  2
GENIUS_GENOBJ-N-SEC_13
 70
     0
  0
APPID
  2
GENIUS_GENOBJ-N-CRS_13
 70
     0
  0
APPID
  2
GENIUS_GENOBJ-N-ZOO_13
 70
     0
  0
APPID
  2
GENIUS_GENZOO_13
 70
     0
  0
APPID
  2
GENIUS_GENOBJ-F-TOL_13
 70
     0
  0
APPID
  2
GENIUS_GENFIL_13
 70
     0
  0
APPID
  2
GENIUS_GENOBJ-N-CHA_13
 70
     0
  0
APPID
  2
_CALL_MAC$
 70
     0
  0
APPID
  2
ASM_BASE
 70
     0
  0
APPID
  2
ASM_EXPLO_VER_2_00
 70
     0
  0
APPID
  2
ASM_CADM_VER_12_00
 70
     0
  0
APPID
  2
ASM_BASEFORO
 70
     0
  0
APPID
  2
ASM_BASETRAVI
 70
     0
  0
APPID
  2
ASM_BASETRAVI1
 70
     0
  0
APPID
  2
ASM_GRUPPI
 70
     0
  0
APPID
  2
ASM_CADM_ALBERO
 70
     0
  0
APPID
  2
ASM_GOLE
 70
     0
  0
APPID
  2
ACAD_MLEADERVER
 70
     0
  0
APPID
  2
ACAD_DSTYLE_DIMJAG
 70
     0
  0
APPID
  2
ACAD_DSTYLE_DIMTALN
 70
     0
  0
APPID
  2
ACAD_EXEMPT_FROM_CAD_STANDARDS
 70
     0
  0
APPID
  2
ACAD_DSTYLE_DIMRADIAL_EXTENSION
 70
     0
  0
APPID
  2
ACAD_PSEXT
 70
     0
  0
APPID
  2
ACAD_DSTYLE_DIMBREAK
 70
     0
  0
APPID
  2
ACAECLAYERSTANDARD
 70
     0
  0
APPID
  2
ACCMTRANSPARENCY
 70
     0
  0
APPID
  2
GRADIENTCOLOR1ACI
 70
     0
  0
APPID
  2
GRADIENTCOLOR2ACI
 70
     0
  0
APPID
  2
ACAD_NAV_VCDISPLAY
 70
     0
  0
ENDTAB
  0
TABLE
  2
DIMSTYLE
 70
     1
  0
DIMSTYLE
  2
STANDARD
 70
     0
  3

  4

  5

  6

  7

 40
1.0
 41
0.18
 42
0.0625
 43
0.38
 44
0.18
 45
0.0
 46
0.0
 47
0.0
 48
0.0
140
0.18
141
0.09
142
0.0
143
25.399999999999999
144
1.0
145
0.0
146
1.0
147
0.09
 71
     0
 72
     0
 73
     1
 74
     1
 75
     0
 76
     0
 77
     0
 78
     0
170
     0
171
     2
172
     0
173
     0
174
     0
175
     0
176
     0
177
     0
178
     0
  0
ENDTAB
  0
ENDSEC
  0
SECTION
  2
BLOCKS
  0
BLOCK
  8
0
  2
$MODEL_SPACE
 70
     0
 10
0.0
 20
0.0
 30
0.0
  3
$MODEL_SPACE
  1

  0
ENDBLK
  5
36
  8
0
  0
BLOCK
 67
     1
  8
0
  2
$PAPER_SPACE
 70
     0
 10
0.0
 20
0.0
 30
0.0
  3
$PAPER_SPACE
  1

  0
ENDBLK
  5
34
 67
     1
  8
0
  0
ENDSEC
  0
SECTION
  2
ENTITIES
  0
LINE
  5
3198F
  8
0
 10
451.42867793532508
 20
399.35649989891408
 30
0.0
 11
451.42867793532508
 21
395.35649989891408
 31
0.0
  0
LINE
  5
31990
  8
0
 10
553.42867793532514
 20
395.35649989891408
 30
0.0
 11
553.42867793532514
 21
399.35649989891408
 31
0.0
  0
LINE
  5
31991
  8
0
 10
451.90476078323621
 20
404.35649989891408
 30
0.0
 11
452.78639568677858
 21
399.35649989891408
 31
0.0
  0
LINE
  5
31992
  8
0
 10
552.07096018387165
 20
399.35649989891408
 30
0.0
 11
552.95259508741219
 21
404.35649989891408
 31
0.0
  0
LINE
  5
31993
  8
0
 10
572.42867793532514
 20
404.35649989891408
 30
0.0
 11
572.42867793532514
 21
410.35649989891402
 31
0.0
  0
LINE
  5
31998
  8
0
 10
432.42867793532508
 20
404.35649989891408
 30
0.0
 11
432.42867793532508
 21
410.35649989891402
 31
0.0
  0
LINE
  5
31999
  8
0
 10
432.42867793532508
 20
404.35649989891408
 30
0.0
 11
572.42867793532514
 21
404.35649989891408
 31
0.0
  0
LINE
  5
3199A
  8
0
 10
432.42867793532508
 20
410.35649989891402
 30
0.0
 11
572.42867793532514
 21
410.35649989891402
 31
0.0
  0
LINE
  5
3199D
  8
0
 10
464.41552231782862
 20
395.35649989891408
 30
0.0
 11
464.41552231782862
 21
277.07967554866718
 31
0.0
  0
LINE
  5
3199E
  8
0
 10
553.42867793532514
 20
395.35649989891408
 30
0.0
 11
464.41552231782862
 21
277.07967554866718
 31
0.0
  0
LINE
  5
319A0
  8
0
 10
451.42867793532508
 20
399.35649989891408
 30
0.0
 11
553.42867793532514
 21
399.35649989891408
 31
0.0
  0
ARC
  5
319A1
  8
0
 10
410.49126696684471
 20
280.35649989891499
 30
0.0
 40
10.000000000000711
 50
158.93499100165999
 51
270.0
  0
LINE
  5
319A2
  8
0
 10
410.49126696684471
 20
270.35649989891408
 30
0.0
 11
454.36608890380461
 21
270.35649989891408
 31
0.0
  0
LINE
  5
319A3
  8
0
 10
441.22867793532521
 20
395.35649989891408
 30
0.0
 11
441.22867793532521
 21
387.98149989891408
 31
0.0
  0
LINE
  5
319A4
  8
0
 10
464.41552231782862
 20
395.35649989891408
 30
0.0
 11
441.22867793532521
 21
395.35649989891408
 31
0.0
  0
ARC
  5
319A5
  8
0
 10
454.36608890380461
 20
280.35649989890749
 30
0.0
 40
9.999999999993463
 50
270.0
 51
323.03549417183899
  0
LINE
  5
319A6
  8
0
 10
441.22867793532521
 20
387.98149989891408
 30
0.0
 11
401.15953482853632
 21
283.95076968551598
 31
0.0
  0
LINE
  5
319A7
  8
0
 10
462.35617065645141
 20
274.34329829029087
 30
0.0
 11
464.41552231782862
 21
277.07967554866718
 31
0.0
  0
CIRCLE
  5
319A8
  8
0
 10
432.42867793532508
 20
285.35649989891408
 30
0.0
 40
8.9999999999999147
  0
LINE
  5
319A9
  8
0
 10
426.9438503780238
 20
275.85649989891408
 30
0.0
 11
437.91350549262643
 21
275.85649989891408
 31
0.0
  0
LINE
  5
319AA
  8
0
 10
421.4590228207216
 20
285.35649989891408
 30
0.0
 11
426.9438503780238
 21
275.85649989891408
 31
0.0
  0
LINE
  5
319AB
  8
0
 10
426.9438503780238
 20
294.85649989891408
 30
0.0
 11
421.4590228207216
 21
285.35649989891408
 31
0.0
  0
LINE
  5
319AC
  8
0
 10
437.91350549262643
 20
294.85649989891408
 30
0.0
 11
426.9438503780238
 21
294.85649989891408
 31
0.0
  0
LINE
  5
319AD
  8
0
 10
443.39833304992862
 20
285.35649989891408
 30
0.0
 11
437.91350549262643
 21
294.85649989891408
 31
0.0
  0
LINE
  5
319AE
  8
0
 10
437.91350549262643
 20
275.85649989891408
 30
0.0
 11
443.39833304992862
 21
285.35649989891408
 31
0.0
  0
LINE
  5
319DF
  8
0
 10
144.52230772896289
 20
399.35649989891408
 30
0.0
 11
144.52230772896289
 21
327.58990966832471
 31
0.0
  0
LINE
  5
319E0
  8
0
 10
246.5223077289638
 20
327.58990966832431
 30
0.0
 11
246.5223077289638
 21
399.35649989891408
 31
0.0
  0
LINE
  5
319E1
  8
0
 10
144.99839057687581
 20
404.35649989891408
 30
0.0
 11
145.88002548041641
 21
399.35649989891408
 31
0.0
  0
LINE
  5
319E2
  8
0
 10
245.16458997750939
 20
399.35649989891408
 30
0.0
 11
246.04622488104999
 21
404.35649989891408
 31
0.0
  0
LINE
  5
319E3
  8
0
 10
170.52230772896289
 20
297.85649989891408
 30
0.0
 11
165.52230772896289
 21
297.85649989891408
 31
0.0
  0
LINE
  5
319E4
  8
0
 10
165.52230772896289
 20
272.85649989891408
 30
0.0
 11
170.52230772896289
 21
272.85649989891408
 31
0.0
  0
LINE
  5
319E5
  8
0
 10
225.52230772896289
 20
297.85649989891408
 30
0.0
 11
220.52230772896289
 21
297.85649989891408
 31
0.0
  0
LINE
  5
319E6
  8
0
 10
220.52230772896289
 20
272.85649989891408
 30
0.0
 11
225.52230772896289
 21
272.85649989891408
 31
0.0
  0
LINE
  5
319E7
  8
0
 10
236.7336325943688
 20
275.85649989891408
 30
0.0
 11
237.02230772896289
 21
276.35649989891408
 31
0.0
  0
LINE
  5
319E8
  8
0
 10
237.02230772896289
 20
294.35649989891408
 30
0.0
 11
236.7336325943688
 21
294.85649989891408
 31
0.0
  0
LINE
  5
319E9
  8
0
 10
151.6562823251779
 20
294.85649989891408
 30
0.0
 11
151.5223077289638
 21
294.35649989891408
 31
0.0
  0
LINE
  5
319EA
  8
0
 10
151.5223077289638
 20
276.35649989891408
 30
0.0
 11
151.6562823251779
 21
275.85649989891408
 31
0.0
  0
LINE
  5
319EB
  8
0
 10
161.3883331327479
 20
275.85649989891408
 30
0.0
 11
161.5223077289638
 21
276.35649989891408
 31
0.0
  0
LINE
  5
319EC
  8
0
 10
161.5223077289638
 20
294.35649989891408
 30
0.0
 11
161.3883331327479
 21
294.85649989891408
 31
0.0
  0
ARC
  5
319EF
  8
0
 10
179.04832035349679
 20
357.85649989891363
 30
0.0
 40
2.5000000000004259
 50
90.0
 51
165.0000000000008
  0
ARC
  5
319F0
  8
0
 10
179.04832035349679
 20
212.85649989891431
 30
0.0
 40
2.5000000000003868
 50
195.00000000000071
 51
270.0
  0
LINE
  5
319F1
  8
0
 10
211.99629510442901
 20
360.35649989891431
 30
0.0
 11
179.04832035349679
 21
360.35649989891431
 31
0.0
  0
LINE
  5
319F2
  8
0
 10
179.04832035349679
 20
210.35649989891431
 30
0.0
 11
211.99629510442901
 21
210.35649989891431
 31
0.0
  0
ARC
  5
319F3
  8
0
 10
211.99629510442901
 20
357.85649989891363
 30
0.0
 40
2.5000000000004259
 50
14.999999999999069
 51
90.0
  0
ARC
  5
319F4
  8
0
 10
211.99629510442901
 20
212.85649989891431
 30
0.0
 40
2.5000000000003868
 50
270.0
 51
345.00000000000091
  0
LINE
  5
319F5
  8
0
 10
176.63350578777411
 20
358.50354751167009
 30
0.0
 11
175.52230772896289
 21
354.35649989891408
 31
0.0
  0
LINE
  5
319F6
  8
0
 10
175.52230772896289
 20
216.35649989891411
 30
0.0
 11
176.63350578777411
 21
212.20945228615801
 31
0.0
  0
LINE
  5
319F7
  8
0
 10
214.4111096701518
 20
212.20945228615801
 30
0.0
 11
215.52230772896289
 21
216.35649989891411
 31
0.0
  0
LINE
  5
319F8
  8
0
 10
215.52230772896289
 20
354.35649989891408
 30
0.0
 11
214.4111096701518
 21
358.50354751167009
 31
0.0
  0
LINE
  5
319F9
  8
0
 10
175.52230772896289
 20
313.35649989891448
 30
0.0
 11
170.52230772896289
 21
313.0944610024992
 31
0.0
  0
LINE
  5
319FA
  8
0
 10
170.52230772896289
 20
257.61853879532867
 30
0.0
 11
175.52230772896289
 21
257.35649989891363
 31
0.0
  0
LINE
  5
319FB
  8
0
 10
215.52230772896289
 20
257.35649989891363
 30
0.0
 11
220.52230772896289
 21
257.61853879532867
 31
0.0
  0
LINE
  5
319FC
  8
0
 10
220.52230772896289
 20
313.0944610024992
 30
0.0
 11
215.52230772896289
 21
313.35649989891448
 31
0.0
  0
LINE
  5
319FE
  8
0
 10
165.52230772896289
 20
283.95076968551598
 30
0.0
 11
161.5223077289638
 21
283.95076968551598
 31
0.0
  0
LINE
  5
31A00
  8
0
 10
165.52230772896289
 20
270.35649989891408
 30
0.0
 11
161.5223077289638
 21
270.35649989891408
 31
0.0
  0
LINE
  5
31A01
  8
0
 10
229.52230772896289
 20
283.95076968551598
 30
0.0
 11
225.52230772896289
 21
283.95076968551598
 31
0.0
  0
LINE
  5
31A03
  8
0
 10
229.52230772896289
 20
270.35649989891408
 30
0.0
 11
225.52230772896289
 21
270.35649989891408
 31
0.0
  0
LINE
  5
31A05
  8
0
 10
165.52230772896289
 20
387.98149989891408
 30
0.0
 11
161.5223077289638
 21
387.98149989891408
 31
0.0
  0
LINE
  5
31A06
  8
0
 10
165.52230772896289
 20
270.35649989891408
 30
0.0
 11
165.52230772896289
 21
391.35649989891408
 31
0.0
  0
LINE
  5
31A07
  8
0
 10
161.5223077289638
 20
395.35649989891408
 30
0.0
 11
161.5223077289638
 21
270.35649989891402
 31
0.0
  0
LINE
  5
31A08
  8
0
 10
229.52230772896289
 20
387.98149989891408
 30
0.0
 11
225.52230772896289
 21
387.98149989891408
 31
0.0
  0
LINE
  5
31A09
  8
0
 10
229.52230772896289
 20
395.35649989891408
 30
0.0
 11
229.52230772896289
 21
270.35649989891408
 31
0.0
  0
LINE
  5
31A0A
  8
0
 10
225.52230772896289
 20
270.35649989891408
 30
0.0
 11
225.52230772896289
 21
391.35649989891408
 31
0.0
  0
LINE
  5
31A0C
  8
0
 10
140.52230772896289
 20
404.35649989891408
 30
0.0
 11
250.52230772896289
 21
404.35649989891408
 31
0.0
  0
LINE
  5
31A0D
  8
0
 10
140.52230772896289
 20
404.35649989891408
 30
0.0
 11
140.52230772896289
 21
410.35649989891402
 31
0.0
  0
LINE
  5
31A0E
  8
0
 10
140.52230772896289
 20
410.35649989891402
 30
0.0
 11
250.52230772896289
 21
410.35649989891402
 31
0.0
  0
LINE
  5
31A12
  8
0
 10
250.52230772896289
 20
404.35649989891408
 30
0.0
 11
250.52230772896289
 21
410.35649989891402
 31
0.0
  0
LINE
  5
31A15
  8
0
 10
165.52230772896289
 20
391.35649989891408
 30
0.0
 11
225.52230772896289
 21
391.35649989891408
 31
0.0
  0
LINE
  5
31A16
  8
0
 10
229.52230772896289
 20
395.35649989891408
 30
0.0
 11
161.5223077289638
 21
395.35649989891408
 31
0.0
  0
POLYLINE
  5
31A1B
  8
0
 10
144.5223077289628
 20
327.58990966832482
 30
0.0
 66
     1
 70
     8
  0
VERTEX
  8
0
  5
31C96
 10
144.522
 20
327.590
 30
0.000000
  70
    32
  0
VERTEX
  8
0
  5
31C97
 10
144.523
 20
327.309
 30
0.000000
  70
    32
  0
VERTEX
  8
0
  5
31C98
 10
144.524
 20
327.029
 30
0.000000
  70
    32
  0
VERTEX
  8
0
  5
31C99
 10
144.526
 20
326.748
 30
0.000000
  70
    32
  0
VERTEX
  8
0
  5
31C9A
 10
144.529
 20
326.467
 30
0.000000
  70
    32
  0
VERTEX
  8
0
  5
31C9B
 10
144.533
 20
326.187
 30
0.000000
  70
    32
  0
VERTEX
  8
0
  5
31C9C
 10
144.538
 20
325.906
 30
0.000000
  70
    32
  0
VERTEX
  8
0
  5
31C9D
 10
144.544
 20
325.626
 30
0.000000
  70
    32
  0
VERTEX
  8
0
  5
31C9E
 10
144.550
 20
325.345
 30
0.000000
  70
    32
  0
VERTEX
  8
0
  5
31C9F
 10
144.558
 20
325.065
 30
0.000000
  70
    32
  0
VERTEX
  8
0
  5
31CA0
 10
144.566
 20
324.784
 30
0.000000
  70
    32
  0
VERTEX
  8
0
  5
31CA1
 10
144.575
 20
324.504
 30
0.000000
  70
    32
  0
VERTEX
  8
0
  5
31CA2
 10
144.585
 20
324.223
 30
0.000000
  70
    32
  0
VERTEX
  8
0
  5
31CA3
 10
144.596
 20
323.943
 30
0.000000
  70
    32
  0
VERTEX
  8
0
  5
31CA4
 10
144.608
 20
323.663
 30
0.000000
  70
    32
  0
VERTEX
  8
0
  5
31CA5
 10
144.621
 20
323.383
 30
0.000000
  70
    32
  0
VERTEX
  8
0
  5
31CA6
 10
144.634
 20
323.103
 30
0.000000
  70
    32
  0
VERTEX
  8
0
  5
31CA7
 10
144.649
 20
322.823
 30
0.000000
  70
    32
  0
VERTEX
  8
0
  5
31CA8
 10
144.664
 20
322.543
 30
0.000000
  70
    32
  0
VERTEX
  8
0
  5
31CA9
 10
144.680
 20
322.263
 30
0.000000
  70
    32
  0
VERTEX
  8
0
  5
31CAA
 10
144.697
 20
321.983
 30
0.000000
  70
    32
  0
VERTEX
  8
0
  5
31CAB
 10
144.715
 20
321.703
 30
0.000000
  70
    32
  0
VERTEX
  8
0
  5
31CAC
 10
144.734
 20
321.424
 30
0.000000
  70
    32
  0
VERTEX
  8
0
  5
31CAD
 10
144.754
 20
321.144
 30
0.000000
  70
    32
  0
VERTEX
  8
0
  5
31CAE
 10
144.774
 20
320.865
 30
0.000000
  70
    32
  0
VERTEX
  8
0
  5
31CAF
 10
144.795
 20
320.586
 30
0.000000
  70
    32
  0
VERTEX
  8
0
  5
31CB0
 10
144.818
 20
320.307
 30
0.000000
  70
    32
  0
VERTEX
  8
0
  5
31CB1
 10
144.841
 20
320.028
 30
0.000000
  70
    32
  0
VERTEX
  8
0
  5
31CB2
 10
144.865
 20
319.749
 30
0.000000
  70
    32
  0
VERTEX
  8
0
  5
31CB3
 10
144.890
 20
319.470
 30
0.000000
  70
    32
  0
VERTEX
  8
0
  5
31CB4
 10
144.915
 20
319.192
 30
0.000000
  70
    32
  0
VERTEX
  8
0
  5
31CB5
 10
144.942
 20
318.913
 30
0.000000
  70
    32
  0
VERTEX
  8
0
  5
31CB6
 10
144.970
 20
318.635
 30
0.000000
  70
    32
  0
VERTEX
  8
0
  5
31CB7
 10
144.998
 20
318.357
 30
0.000000
  70
    32
  0
VERTEX
  8
0
  5
31CB8
 10
145.027
 20
318.079
 30
0.000000
  70
    32
  0
VERTEX
  8
0
  5
31CB9
 10
145.057
 20
317.801
 30
0.000000
  70
    32
  0
VERTEX
  8
0
  5
31CBA
 10
145.088
 20
317.524
 30
0.000000
  70
    32
  0
VERTEX
  8
0
  5
31CBB
 10
145.120
 20
317.246
 30
0.000000
  70
    32
  0
VERTEX
  8
0
  5
31CBC
 10
145.153
 20
316.969
 30
0.000000
  70
    32
  0
VERTEX
  8
0
  5
31CBD
 10
145.186
 20
316.692
 30
0.000000
  70
    32
  0
VERTEX
  8
0
  5
31CBE
 10
145.221
 20
316.415
 30
0.000000
  70
    32
  0
VERTEX
  8
0
  5
31CBF
 10
145.256
 20
316.138
 30
0.000000
  70
    32
  0
VERTEX
  8
0
  5
31CC0
 10
145.292
 20
315.862
 30
0.000000
  70
    32
  0
VERTEX
  8
0
  5
31CC1
 10
145.329
 20
315.585
 30
0.000000
  70
    32
  0
VERTEX
  8
0
  5
31CC2
 10
145.367
 20
315.309
 30
0.000000
  70
    32
  0
VERTEX
  8
0
  5
31CC3
 10
145.405
 20
315.033
 30
0.000000
  70
    32
  0
VERTEX
  8
0
  5
31CC4
 10
145.445
 20
314.757
 30
0.000000
  70
    32
  0
VERTEX
  8
0
  5
31CC5
 10
145.485
 20
314.482
 30
0.000000
  70
    32
  0
VERTEX
  8
0
  5
31CC6
 10
145.527
 20
314.207
 30
0.000000
  70
    32
  0
VERTEX
  8
0
  5
31CC7
 10
145.569
 20
313.932
 30
0.000000
  70
    32
  0
VERTEX
  8
0
  5
31CC8
 10
145.612
 20
313.657
 30
0.000000
  70
    32
  0
VERTEX
  8
0
  5
31CC9
 10
145.656
 20
313.382
 30
0.000000
  70
    32
  0
VERTEX
  8
0
  5
31CCA
 10
145.700
 20
313.108
 30
0.000000
  70
    32
  0
VERTEX
  8
0
  5
31CCB
 10
145.746
 20
312.834
 30
0.000000
  70
    32
  0
VERTEX
  8
0
  5
31CCC
 10
145.792
 20
312.560
 30
0.000000
  70
    32
  0
VERTEX
  8
0
  5
31CCD
 10
145.840
 20
312.287
 30
0.000000
  70
    32
  0
VERTEX
  8
0
  5
31CCE
 10
145.888
 20
312.013
 30
0.000000
  70
    32
  0
VERTEX
  8
0
  5
31CCF
 10
145.937
 20
311.740
 30
0.000000
  70
    32
  0
VERTEX
  8
0
  5
31CD0
 10
145.987
 20
311.468
 30
0.000000
  70
    32
  0
VERTEX
  8
0
  5
31CD1
 10
146.037
 20
311.195
 30
0.000000
  70
    32
  0
VERTEX
  8
0
  5
31CD2
 10
146.089
 20
310.923
 30
0.000000
  70
    32
  0
VERTEX
  8
0
  5
31CD3
 10
146.141
 20
310.651
 30
0.000000
  70
    32
  0
VERTEX
  8
0
  5
31CD4
 10
146.194
 20
310.380
 30
0.000000
  70
    32
  0
VERTEX
  8
0
  5
31CD5
 10
146.248
 20
310.108
 30
0.000000
  70
    32
  0
VERTEX
  8
0
  5
31CD6
 10
146.303
 20
309.837
 30
0.000000
  70
    32
  0
VERTEX
  8
0
  5
31CD7
 10
146.359
 20
309.566
 30
0.000000
  70
    32
  0
VERTEX
  8
0
  5
31CD8
 10
146.416
 20
309.296
 30
0.000000
  70
    32
  0
VERTEX
  8
0
  5
31CD9
 10
146.473
 20
309.026
 30
0.000000
  70
    32
  0
VERTEX
  8
0
  5
31CDA
 10
146.531
 20
308.756
 30
0.000000
  70
    32
  0
VERTEX
  8
0
  5
31CDB
 10
146.591
 20
308.487
 30
0.000000
  70
    32
  0
VERTEX
  8
0
  5
31CDC
 10
146.651
 20
308.218
 30
0.000000
  70
    32
  0
VERTEX
  8
0
  5
31CDD
 10
146.711
 20
307.949
 30
0.000000
  70
    32
  0
VERTEX
  8
0
  5
31CDE
 10
146.773
 20
307.680
 30
0.000000
  70
    32
  0
VERTEX
  8
0
  5
31CDF
 10
146.835
 20
307.412
 30
0.000000
  70
    32
  0
VERTEX
  8
0
  5
31CE0
 10
146.899
 20
307.145
 30
0.000000
  70
    32
  0
VERTEX
  8
0
  5
31CE1
 10
146.963
 20
306.877
 30
0.000000
  70
    32
  0
VERTEX
  8
0
  5
31CE2
 10
147.028
 20
306.610
 30
0.000000
  70
    32
  0
VERTEX
  8
0
  5
31CE3
 10
147.094
 20
306.343
 30
0.000000
  70
    32
  0
VERTEX
  8
0
  5
31CE4
 10
147.160
 20
306.077
 30
0.000000
  70
    32
  0
VERTEX
  8
0
  5
31CE5
 10
147.228
 20
305.811
 30
0.000000
  70
    32
  0
VERTEX
  8
0
  5
31CE6
 10
147.296
 20
305.546
 30
0.000000
  70
    32
  0
VERTEX
  8
0
  5
31CE7
 10
147.365
 20
305.280
 30
0.000000
  70
    32
  0
VERTEX
  8
0
  5
31CE8
 10
147.435
 20
305.016
 30
0.000000
  70
    32
  0
VERTEX
  8
0
  5
31CE9
 10
147.506
 20
304.751
 30
0.000000
  70
    32
  0
VERTEX
  8
0
  5
31CEA
 10
147.578
 20
304.487
 30
0.000000
  70
    32
  0
VERTEX
  8
0
  5
31CEB
 10
147.650
 20
304.223
 30
0.000000
  70
    32
  0
VERTEX
  8
0
  5
31CEC
 10
147.723
 20
303.960
 30
0.000000
  70
    32
  0
VERTEX
  8
0
  5
31CED
 10
147.797
 20
303.697
 30
0.000000
  70
    32
  0
VERTEX
  8
0
  5
31CEE
 10
147.872
 20
303.435
 30
0.000000
  70
    32
  0
VERTEX
  8
0
  5
31CEF
 10
147.948
 20
303.173
 30
0.000000
  70
    32
  0
VERTEX
  8
0
  5
31CF0
 10
148.024
 20
302.911
 30
0.000000
  70
    32
  0
VERTEX
  8
0
  5
31CF1
 10
148.102
 20
302.650
 30
0.000000
  70
    32
  0
VERTEX
  8
0
  5
31CF2
 10
148.180
 20
302.389
 30
0.000000
  70
    32
  0
VERTEX
  8
0
  5
31CF3
 10
148.259
 20
302.129
 30
0.000000
  70
    32
  0
VERTEX
  8
0
  5
31CF4
 10
148.339
 20
301.869
 30
0.000000
  70
    32
  0
VERTEX
  8
0
  5
31CF5
 10
148.419
 20
301.610
 30
0.000000
  70
    32
  0
VERTEX
  8
0
  5
31CF6
 10
148.501
 20
301.351
 30
0.000000
  70
    32
  0
VERTEX
  8
0
  5
31CF7
 10
148.583
 20
301.092
 30
0.000000
  70
    32
  0
VERTEX
  8
0
  5
31CF8
 10
148.666
 20
300.834
 30
0.000000
  70
    32
  0
VERTEX
  8
0
  5
31CF9
 10
148.749
 20
300.576
 30
0.000000
  70
    32
  0
VERTEX
  8
0
  5
31CFA
 10
148.834
 20
300.319
 30
0.000000
  70
    32
  0
VERTEX
  8
0
  5
31CFB
 10
148.919
 20
300.063
 30
0.000000
  70
    32
  0
VERTEX
  8
0
  5
31CFC
 10
149.006
 20
299.806
 30
0.000000
  70
    32
  0
VERTEX
  8
0
  5
31CFD
 10
149.093
 20
299.551
 30
0.000000
  70
    32
  0
VERTEX
  8
0
  5
31CFE
 10
149.180
 20
299.295
 30
0.000000
  70
    32
  0
VERTEX
  8
0
  5
31CFF
 10
149.269
 20
299.041
 30
0.000000
  70
    32
  0
VERTEX
  8
0
  5
31D00
 10
149.358
 20
298.786
 30
0.000000
  70
    32
  0
VERTEX
  8
0
  5
31D01
 10
149.449
 20
298.532
 30
0.000000
  70
    32
  0
VERTEX
  8
0
  5
31D02
 10
149.540
 20
298.279
 30
0.000000
  70
    32
  0
VERTEX
  8
0
  5
31D03
 10
149.631
 20
298.026
 30
0.000000
  70
    32
  0
VERTEX
  8
0
  5
31D04
 10
149.724
 20
297.774
 30
0.000000
  70
    32
  0
VERTEX
  8
0
  5
31D05
 10
149.817
 20
297.522
 30
0.000000
  70
    32
  0
VERTEX
  8
0
  5
31D06
 10
149.911
 20
297.271
 30
0.000000
  70
    32
  0
VERTEX
  8
0
  5
31D07
 10
150.006
 20
297.020
 30
0.000000
  70
    32
  0
VERTEX
  8
0
  5
31D08
 10
150.102
 20
296.770
 30
0.000000
  70
    32
  0
VERTEX
  8
0
  5
31D09
 10
150.198
 20
296.520
 30
0.000000
  70
    32
  0
VERTEX
  8
0
  5
31D0A
 10
150.296
 20
296.271
 30
0.000000
  70
    32
  0
VERTEX
  8
0
  5
31D0B
 10
150.394
 20
296.023
 30
0.000000
  70
    32
  0
VERTEX
  8
0
  5
31D0C
 10
150.492
 20
295.775
 30
0.000000
  70
    32
  0
VERTEX
  8
0
  5
31D0D
 10
150.592
 20
295.527
 30
0.000000
  70
    32
  0
VERTEX
  8
0
  5
31D0E
 10
150.692
 20
295.280
 30
0.000000
  70
    32
  0
VERTEX
  8
0
  5
31D0F
 10
150.793
 20
295.034
 30
0.000000
  70
    32
  0
VERTEX
  8
0
  5
31D10
 10
150.895
 20
294.788
 30
0.000000
  70
    32
  0
VERTEX
  8
0
  5
31D11
 10
150.998
 20
294.542
 30
0.000000
  70
    32
  0
VERTEX
  8
0
  5
31D12
 10
151.101
 20
294.298
 30
0.000000
  70
    32
  0
VERTEX
  8
0
  5
31D13
 10
151.205
 20
294.054
 30
0.000000
  70
    32
  0
VERTEX
  8
0
  5
31D14
 10
151.310
 20
293.810
 30
0.000000
  70
    32
  0
VERTEX
  8
0
  5
31D15
 10
151.416
 20
293.567
 30
0.000000
  70
    32
  0
VERTEX
  8
0
  5
31D16
 10
151.522
 20
293.324
 30
0.000000
  70
    32
  0
SEQEND
  8
0
  5
31D17
  0
POLYLINE
  5
31A1C
  8
0
 10
237.02230772896345
 20
288.20062199495567
 30
0.0
 66
     1
 70
     8
  0
VERTEX
  8
0
  5
31D18
 10
237.022
 20
288.201
 30
0.000000
  70
    32
  0
VERTEX
  8
0
  5
31D19
 10
237.165
 20
288.468
 30
0.000000
  70
    32
  0
VERTEX
  8
0
  5
31D1A
 10
237.308
 20
288.737
 30
0.000000
  70
    32
  0
VERTEX
  8
0
  5
31D1B
 10
237.449
 20
289.006
 30
0.000000
  70
    32
  0
VERTEX
  8
0
  5
31D1C
 10
237.589
 20
289.277
 30
0.000000
  70
    32
  0
VERTEX
  8
0
  5
31D1D
 10
237.728
 20
289.548
 30
0.000000
  70
    32
  0
VERTEX
  8
0
  5
31D1E
 10
237.867
 20
289.820
 30
0.000000
  70
    32
  0
VERTEX
  8
0
  5
31D1F
 10
238.004
 20
290.093
 30
0.000000
  70
    32
  0
VERTEX
  8
0
  5
31D20
 10
238.140
 20
290.367
 30
0.000000
  70
    32
  0
VERTEX
  8
0
  5
31D21
 10
238.275
 20
290.642
 30
0.000000
  70
    32
  0
VERTEX
  8
0
  5
31D22
 10
238.410
 20
290.918
 30
0.000000
  70
    32
  0
VERTEX
  8
0
  5
31D23
 10
238.543
 20
291.195
 30
0.000000
  70
    32
  0
VERTEX
  8
0
  5
31D24
 10
238.675
 20
291.472
 30
0.000000
  70
    32
  0
VERTEX
  8
0
  5
31D25
 10
238.806
 20
291.750
 30
0.000000
  70
    32
  0
VERTEX
  8
0
  5
31D26
 10
238.936
 20
292.029
 30
0.000000
  70
    32
  0
VERTEX
  8
0
  5
31D27
 10
239.066
 20
292.309
 30
0.000000
  70
    32
  0
VERTEX
  8
0
  5
31D28
 10
239.194
 20
292.590
 30
0.000000
  70
    32
  0
VERTEX
  8
0
  5
31D29
 10
239.321
 20
292.872
 30
0.000000
  70
    32
  0
VERTEX
  8
0
  5
31D2A
 10
239.447
 20
293.154
 30
0.000000
  70
    32
  0
VERTEX
  8
0
  5
31D2B
 10
239.572
 20
293.437
 30
0.000000
  70
    32
  0
VERTEX
  8
0
  5
31D2C
 10
239.696
 20
293.721
 30
0.000000
  70
    32
  0
VERTEX
  8
0
  5
31D2D
 10
239.819
 20
294.006
 30
0.000000
  70
    32
  0
VERTEX
  8
0
  5
31D2E
 10
239.941
 20
294.292
 30
0.000000
  70
    32
  0
VERTEX
  8
0
  5
31D2F
 10
240.062
 20
294.578
 30
0.000000
  70
    32
  0
VERTEX
  8
0
  5
31D30
 10
240.182
 20
294.865
 30
0.000000
  70
    32
  0
VERTEX
  8
0
  5
31D31
 10
240.301
 20
295.153
 30
0.000000
  70
    32
  0
VERTEX
  8
0
  5
31D32
 10
240.418
 20
295.442
 30
0.000000
  70
    32
  0
VERTEX
  8
0
  5
31D33
 10
240.535
 20
295.731
 30
0.000000
  70
    32
  0
VERTEX
  8
0
  5
31D34
 10
240.651
 20
296.022
 30
0.000000
  70
    32
  0
VERTEX
  8
0
  5
31D35
 10
240.765
 20
296.313
 30
0.000000
  70
    32
  0
VERTEX
  8
0
  5
31D36
 10
240.879
 20
296.604
 30
0.000000
  70
    32
  0
VERTEX
  8
0
  5
31D37
 10
240.991
 20
296.897
 30
0.000000
  70
    32
  0
VERTEX
  8
0
  5
31D38
 10
241.103
 20
297.190
 30
0.000000
  70
    32
  0
VERTEX
  8
0
  5
31D39
 10
241.213
 20
297.484
 30
0.000000
  70
    32
  0
VERTEX
  8
0
  5
31D3A
 10
241.322
 20
297.778
 30
0.000000
  70
    32
  0
VERTEX
  8
0
  5
31D3B
 10
241.430
 20
298.074
 30
0.000000
  70
    32
  0
VERTEX
  8
0
  5
31D3C
 10
241.538
 20
298.369
 30
0.000000
  70
    32
  0
VERTEX
  8
0
  5
31D3D
 10
241.644
 20
298.666
 30
0.000000
  70
    32
  0
VERTEX
  8
0
  5
31D3E
 10
241.749
 20
298.963
 30
0.000000
  70
    32
  0
VERTEX
  8
0
  5
31D3F
 10
241.852
 20
299.261
 30
0.000000
  70
    32
  0
VERTEX
  8
0
  5
31D40
 10
241.955
 20
299.560
 30
0.000000
  70
    32
  0
VERTEX
  8
0
  5
31D41
 10
242.057
 20
299.859
 30
0.000000
  70
    32
  0
VERTEX
  8
0
  5
31D42
 10
242.157
 20
300.159
 30
0.000000
  70
    32
  0
VERTEX
  8
0
  5
31D43
 10
242.257
 20
300.460
 30
0.000000
  70
    32
  0
VERTEX
  8
0
  5
31D44
 10
242.355
 20
300.761
 30
0.000000
  70
    32
  0
VERTEX
  8
0
  5
31D45
 10
242.453
 20
301.063
 30
0.000000
  70
    32
  0
VERTEX
  8
0
  5
31D46
 10
242.549
 20
301.365
 30
0.000000
  70
    32
  0
VERTEX
  8
0
  5
31D47
 10
242.644
 20
301.669
 30
0.000000
  70
    32
  0
VERTEX
  8
0
  5
31D48
 10
242.738
 20
301.972
 30
0.000000
  70
    32
  0
VERTEX
  8
0
  5
31D49
 10
242.831
 20
302.277
 30
0.000000
  70
    32
  0
VERTEX
  8
0
  5
31D4A
 10
242.922
 20
302.582
 30
0.000000
  70
    32
  0
VERTEX
  8
0
  5
31D4B
 10
243.013
 20
302.887
 30
0.000000
  70
    32
  0
VERTEX
  8
0
  5
31D4C
 10
243.103
 20
303.193
 30
0.000000
  70
    32
  0
VERTEX
  8
0
  5
31D4D
 10
243.191
 20
303.500
 30
0.000000
  70
    32
  0
VERTEX
  8
0
  5
31D4E
 10
243.278
 20
303.807
 30
0.000000
  70
    32
  0
VERTEX
  8
0
  5
31D4F
 10
243.365
 20
304.115
 30
0.000000
  70
    32
  0
VERTEX
  8
0
  5
31D50
 10
243.450
 20
304.423
 30
0.000000
  70
    32
  0
VERTEX
  8
0
  5
31D51
 10
243.533
 20
304.732
 30
0.000000
  70
    32
  0
VERTEX
  8
0
  5
31D52
 10
243.616
 20
305.041
 30
0.000000
  70
    32
  0
VERTEX
  8
0
  5
31D53
 10
243.698
 20
305.351
 30
0.000000
  70
    32
  0
VERTEX
  8
0
  5
31D54
 10
243.778
 20
305.662
 30
0.000000
  70
    32
  0
VERTEX
  8
0
  5
31D55
 10
243.858
 20
305.973
 30
0.000000
  70
    32
  0
VERTEX
  8
0
  5
31D56
 10
243.936
 20
306.284
 30
0.000000
  70
    32
  0
VERTEX
  8
0
  5
31D57
 10
244.013
 20
306.596
 30
0.000000
  70
    32
  0
VERTEX
  8
0
  5
31D58
 10
244.089
 20
306.909
 30
0.000000
  70
    32
  0
VERTEX
  8
0
  5
31D59
 10
244.164
 20
307.222
 30
0.000000
  70
    32
  0
VERTEX
  8
0
  5
31D5A
 10
244.238
 20
307.535
 30
0.000000
  70
    32
  0
VERTEX
  8
0
  5
31D5B
 10
244.310
 20
307.849
 30
0.000000
  70
    32
  0
VERTEX
  8
0
  5
31D5C
 10
244.382
 20
308.163
 30
0.000000
  70
    32
  0
VERTEX
  8
0
  5
31D5D
 10
244.452
 20
308.478
 30
0.000000
  70
    32
  0
VERTEX
  8
0
  5
31D5E
 10
244.521
 20
308.793
 30
0.000000
  70
    32
  0
VERTEX
  8
0
  5
31D5F
 10
244.589
 20
309.109
 30
0.000000
  70
    32
  0
VERTEX
  8
0
  5
31D60
 10
244.656
 20
309.425
 30
0.000000
  70
    32
  0
VERTEX
  8
0
  5
31D61
 10
244.722
 20
309.742
 30
0.000000
  70
    32
  0
VERTEX
  8
0
  5
31D62
 10
244.786
 20
310.059
 30
0.000000
  70
    32
  0
VERTEX
  8
0
  5
31D63
 10
244.850
 20
310.376
 30
0.000000
  70
    32
  0
VERTEX
  8
0
  5
31D64
 10
244.912
 20
310.694
 30
0.000000
  70
    32
  0
VERTEX
  8
0
  5
31D65
 10
244.973
 20
311.012
 30
0.000000
  70
    32
  0
VERTEX
  8
0
  5
31D66
 10
245.033
 20
311.331
 30
0.000000
  70
    32
  0
VERTEX
  8
0
  5
31D67
 10
245.091
 20
311.650
 30
0.000000
  70
    32
  0
VERTEX
  8
0
  5
31D68
 10
245.149
 20
311.969
 30
0.000000
  70
    32
  0
VERTEX
  8
0
  5
31D69
 10
245.205
 20
312.289
 30
0.000000
  70
    32
  0
VERTEX
  8
0
  5
31D6A
 10
245.261
 20
312.609
 30
0.000000
  70
    32
  0
VERTEX
  8
0
  5
31D6B
 10
245.315
 20
312.929
 30
0.000000
  70
    32
  0
VERTEX
  8
0
  5
31D6C
 10
245.367
 20
313.250
 30
0.000000
  70
    32
  0
VERTEX
  8
0
  5
31D6D
 10
245.419
 20
313.571
 30
0.000000
  70
    32
  0
VERTEX
  8
0
  5
31D6E
 10
245.470
 20
313.893
 30
0.000000
  70
    32
  0
VERTEX
  8
0
  5
31D6F
 10
245.519
 20
314.215
 30
0.000000
  70
    32
  0
VERTEX
  8
0
  5
31D70
 10
245.567
 20
314.537
 30
0.000000
  70
    32
  0
VERTEX
  8
0
  5
31D71
 10
245.614
 20
314.859
 30
0.000000
  70
    32
  0
VERTEX
  8
0
  5
31D72
 10
245.660
 20
315.182
 30
0.000000
  70
    32
  0
VERTEX
  8
0
  5
31D73
 10
245.705
 20
315.505
 30
0.000000
  70
    32
  0
VERTEX
  8
0
  5
31D74
 10
245.748
 20
315.828
 30
0.000000
  70
    32
  0
VERTEX
  8
0
  5
31D75
 10
245.791
 20
316.152
 30
0.000000
  70
    32
  0
VERTEX
  8
0
  5
31D76
 10
245.832
 20
316.475
 30
0.000000
  70
    32
  0
VERTEX
  8
0
  5
31D77
 10
245.872
 20
316.799
 30
0.000000
  70
    32
  0
VERTEX
  8
0
  5
31D78
 10
245.910
 20
317.124
 30
0.000000
  70
    32
  0
VERTEX
  8
0
  5
31D79
 10
245.948
 20
317.448
 30
0.000000
  70
    32
  0
VERTEX
  8
0
  5
31D7A
 10
245.984
 20
317.773
 30
0.000000
  70
    32
  0
VERTEX
  8
0
  5
31D7B
 10
246.020
 20
318.098
 30
0.000000
  70
    32
  0
VERTEX
  8
0
  5
31D7C
 10
246.054
 20
318.423
 30
0.000000
  70
    32
  0
VERTEX
  8
0
  5
31D7D
 10
246.086
 20
318.749
 30
0.000000
  70
    32
  0
VERTEX
  8
0
  5
31D7E
 10
246.118
 20
319.075
 30
0.000000
  70
    32
  0
VERTEX
  8
0
  5
31D7F
 10
246.149
 20
319.400
 30
0.000000
  70
    32
  0
VERTEX
  8
0
  5
31D80
 10
246.178
 20
319.726
 30
0.000000
  70
    32
  0
VERTEX
  8
0
  5
31D81
 10
246.206
 20
320.053
 30
0.000000
  70
    32
  0
VERTEX
  8
0
  5
31D82
 10
246.233
 20
320.379
 30
0.000000
  70
    32
  0
VERTEX
  8
0
  5
31D83
 10
246.258
 20
320.706
 30
0.000000
  70
    32
  0
VERTEX
  8
0
  5
31D84
 10
246.283
 20
321.033
 30
0.000000
  70
    32
  0
VERTEX
  8
0
  5
31D85
 10
246.306
 20
321.359
 30
0.000000
  70
    32
  0
VERTEX
  8
0
  5
31D86
 10
246.328
 20
321.686
 30
0.000000
  70
    32
  0
VERTEX
  8
0
  5
31D87
 10
246.349
 20
322.014
 30
0.000000
  70
    32
  0
VERTEX
  8
0
  5
31D88
 10
246.369
 20
322.341
 30
0.000000
  70
    32
  0
VERTEX
  8
0
  5
31D89
 10
246.388
 20
322.668
 30
0.000000
  70
    32
  0
VERTEX
  8
0
  5
31D8A
 10
246.405
 20
322.996
 30
0.000000
  70
    32
  0
VERTEX
  8
0
  5
31D8B
 10
246.421
 20
323.324
 30
0.000000
  70
    32
  0
VERTEX
  8
0
  5
31D8C
 10
246.436
 20
323.652
 30
0.000000
  70
    32
  0
VERTEX
  8
0
  5
31D8D
 10
246.450
 20
323.979
 30
0.000000
  70
    32
  0
VERTEX
  8
0
  5
31D8E
 10
246.462
 20
324.307
 30
0.000000
  70
    32
  0
VERTEX
  8
0
  5
31D8F
 10
246.474
 20
324.635
 30
0.000000
  70
    32
  0
VERTEX
  8
0
  5
31D90
 10
246.484
 20
324.963
 30
0.000000
  70
    32
  0
VERTEX
  8
0
  5
31D91
 10
246.493
 20
325.292
 30
0.000000
  70
    32
  0
VERTEX
  8
0
  5
31D92
 10
246.501
 20
325.620
 30
0.000000
  70
    32
  0
VERTEX
  8
0
  5
31D93
 10
246.507
 20
325.948
 30
0.000000
  70
    32
  0
VERTEX
  8
0
  5
31D94
 10
246.513
 20
326.276
 30
0.000000
  70
    32
  0
VERTEX
  8
0
  5
31D95
 10
246.517
 20
326.605
 30
0.000000
  70
    32
  0
VERTEX
  8
0
  5
31D96
 10
246.520
 20
326.933
 30
0.000000
  70
    32
  0
VERTEX
  8
0
  5
31D97
 10
246.522
 20
327.262
 30
0.000000
  70
    32
  0
VERTEX
  8
0
  5
31D98
 10
246.522
 20
327.590
 30
0.000000
  70
    32
  0
SEQEND
  8
0
  5
31D99
  0
LINE
  5
31A1D
  8
0
 10
144.52230772896289
 20
399.35649989891408
 30
0.0
 11
246.5223077289638
 21
399.35649989891408
 31
0.0
  0
POLYLINE
  5
31A1E
  8
0
 10
225.5223077289626
 20
375.66446559155429
 30
0.0
 66
     1
 70
     8
  0
VERTEX
  8
0
  5
31D9A
 10
225.522
 20
375.664
 30
0.000000
  70
    32
  0
VERTEX
  8
0
  5
31D9B
 10
225.129
 20
376.093
 30
0.000000
  70
    32
  0
VERTEX
  8
0
  5
31D9C
 10
224.733
 20
376.516
 30
0.000000
  70
    32
  0
VERTEX
  8
0
  5
31D9D
 10
224.333
 20
376.933
 30
0.000000
  70
    32
  0
VERTEX
  8
0
  5
31D9E
 10
223.929
 20
377.344
 30
0.000000
  70
    32
  0
VERTEX
  8
0
  5
31D9F
 10
223.523
 20
377.749
 30
0.000000
  70
    32
  0
VERTEX
  8
0
  5
31DA0
 10
223.113
 20
378.149
 30
0.000000
  70
    32
  0
VERTEX
  8
0
  5
31DA1
 10
222.699
 20
378.542
 30
0.000000
  70
    32
  0
VERTEX
  8
0
  5
31DA2
 10
222.283
 20
378.930
 30
0.000000
  70
    32
  0
VERTEX
  8
0
  5
31DA3
 10
221.864
 20
379.311
 30
0.000000
  70
    32
  0
VERTEX
  8
0
  5
31DA4
 10
221.441
 20
379.687
 30
0.000000
  70
    32
  0
VERTEX
  8
0
  5
31DA5
 10
221.015
 20
380.056
 30
0.000000
  70
    32
  0
VERTEX
  8
0
  5
31DA6
 10
220.587
 20
380.420
 30
0.000000
  70
    32
  0
VERTEX
  8
0
  5
31DA7
 10
220.155
 20
380.777
 30
0.000000
  70
    32
  0
VERTEX
  8
0
  5
31DA8
 10
219.721
 20
381.128
 30
0.000000
  70
    32
  0
VERTEX
  8
0
  5
31DA9
 10
219.284
 20
381.473
 30
0.000000
  70
    32
  0
VERTEX
  8
0
  5
31DAA
 10
218.844
 20
381.811
 30
0.000000
  70
    32
  0
VERTEX
  8
0
  5
31DAB
 10
218.401
 20
382.143
 30
0.000000
  70
    32
  0
VERTEX
  8
0
  5
31DAC
 10
217.955
 20
382.469
 30
0.000000
  70
    32
  0
VERTEX
  8
0
  5
31DAD
 10
217.507
 20
382.788
 30
0.000000
  70
    32
  0
VERTEX
  8
0
  5
31DAE
 10
217.057
 20
383.101
 30
0.000000
  70
    32
  0
VERTEX
  8
0
  5
31DAF
 10
216.604
 20
383.407
 30
0.000000
  70
    32
  0
VERTEX
  8
0
  5
31DB0
 10
216.148
 20
383.707
 30
0.000000
  70
    32
  0
VERTEX
  8
0
  5
31DB1
 10
215.690
 20
384.000
 30
0.000000
  70
    32
  0
VERTEX
  8
0
  5
31DB2
 10
215.230
 20
384.286
 30
0.000000
  70
    32
  0
VERTEX
  8
0
  5
31DB3
 10
214.767
 20
384.566
 30
0.000000
  70
    32
  0
VERTEX
  8
0
  5
31DB4
 10
214.302
 20
384.840
 30
0.000000
  70
    32
  0
VERTEX
  8
0
  5
31DB5
 10
213.835
 20
385.106
 30
0.000000
  70
    32
  0
VERTEX
  8
0
  5
31DB6
 10
213.366
 20
385.366
 30
0.000000
  70
    32
  0
VERTEX
  8
0
  5
31DB7
 10
212.894
 20
385.619
 30
0.000000
  70
    32
  0
VERTEX
  8
0
  5
31DB8
 10
212.421
 20
385.865
 30
0.000000
  70
    32
  0
VERTEX
  8
0
  5
31DB9
 10
211.945
 20
386.105
 30
0.000000
  70
    32
  0
VERTEX
  8
0
  5
31DBA
 10
211.468
 20
386.337
 30
0.000000
  70
    32
  0
VERTEX
  8
0
  5
31DBB
 10
210.989
 20
386.563
 30
0.000000
  70
    32
  0
VERTEX
  8
0
  5
31DBC
 10
210.508
 20
386.782
 30
0.000000
  70
    32
  0
VERTEX
  8
0
  5
31DBD
 10
210.025
 20
386.994
 30
0.000000
  70
    32
  0
VERTEX
  8
0
  5
31DBE
 10
209.541
 20
387.199
 30
0.000000
  70
    32
  0
VERTEX
  8
0
  5
31DBF
 10
209.055
 20
387.397
 30
0.000000
  70
    32
  0
VERTEX
  8
0
  5
31DC0
 10
208.567
 20
387.588
 30
0.000000
  70
    32
  0
VERTEX
  8
0
  5
31DC1
 10
208.078
 20
387.772
 30
0.000000
  70
    32
  0
VERTEX
  8
0
  5
31DC2
 10
207.587
 20
387.949
 30
0.000000
  70
    32
  0
VERTEX
  8
0
  5
31DC3
 10
207.095
 20
388.119
 30
0.000000
  70
    32
  0
VERTEX
  8
0
  5
31DC4
 10
206.602
 20
388.281
 30
0.000000
  70
    32
  0
VERTEX
  8
0
  5
31DC5
 10
206.107
 20
388.437
 30
0.000000
  70
    32
  0
VERTEX
  8
0
  5
31DC6
 10
205.611
 20
388.586
 30
0.000000
  70
    32
  0
VERTEX
  8
0
  5
31DC7
 10
205.114
 20
388.727
 30
0.000000
  70
    32
  0
VERTEX
  8
0
  5
31DC8
 10
204.616
 20
388.861
 30
0.000000
  70
    32
  0
VERTEX
  8
0
  5
31DC9
 10
204.116
 20
388.989
 30
0.000000
  70
    32
  0
VERTEX
  8
0
  5
31DCA
 10
203.616
 20
389.108
 30
0.000000
  70
    32
  0
VERTEX
  8
0
  5
31DCB
 10
203.115
 20
389.221
 30
0.000000
  70
    32
  0
VERTEX
  8
0
  5
31DCC
 10
202.613
 20
389.327
 30
0.000000
  70
    32
  0
VERTEX
  8
0
  5
31DCD
 10
202.110
 20
389.425
 30
0.000000
  70
    32
  0
VERTEX
  8
0
  5
31DCE
 10
201.606
 20
389.516
 30
0.000000
  70
    32
  0
VERTEX
  8
0
  5
31DCF
 10
201.101
 20
389.600
 30
0.000000
  70
    32
  0
VERTEX
  8
0
  5
31DD0
 10
200.596
 20
389.676
 30
0.000000
  70
    32
  0
VERTEX
  8
0
  5
31DD1
 10
200.091
 20
389.746
 30
0.000000
  70
    32
  0
VERTEX
  8
0
  5
31DD2
 10
199.584
 20
389.808
 30
0.000000
  70
    32
  0
VERTEX
  8
0
  5
31DD3
 10
199.078
 20
389.863
 30
0.000000
  70
    32
  0
VERTEX
  8
0
  5
31DD4
 10
198.571
 20
389.910
 30
0.000000
  70
    32
  0
VERTEX
  8
0
  5
31DD5
 10
198.063
 20
389.950
 30
0.000000
  70
    32
  0
VERTEX
  8
0
  5
31DD6
 10
197.555
 20
389.983
 30
0.000000
  70
    32
  0
VERTEX
  8
0
  5
31DD7
 10
197.047
 20
390.009
 30
0.000000
  70
    32
  0
VERTEX
  8
0
  5
31DD8
 10
196.539
 20
390.027
 30
0.000000
  70
    32
  0
VERTEX
  8
0
  5
31DD9
 10
196.031
 20
390.038
 30
0.000000
  70
    32
  0
VERTEX
  8
0
  5
31DDA
 10
195.522
 20
390.041
 30
0.000000
  70
    32
  0
VERTEX
  8
0
  5
31DDB
 10
195.014
 20
390.038
 30
0.000000
  70
    32
  0
VERTEX
  8
0
  5
31DDC
 10
194.506
 20
390.027
 30
0.000000
  70
    32
  0
VERTEX
  8
0
  5
31DDD
 10
193.997
 20
390.009
 30
0.000000
  70
    32
  0
VERTEX
  8
0
  5
31DDE
 10
193.489
 20
389.983
 30
0.000000
  70
    32
  0
VERTEX
  8
0
  5
31DDF
 10
192.982
 20
389.950
 30
0.000000
  70
    32
  0
VERTEX
  8
0
  5
31DE0
 10
192.474
 20
389.910
 30
0.000000
  70
    32
  0
VERTEX
  8
0
  5
31DE1
 10
191.967
 20
389.863
 30
0.000000
  70
    32
  0
VERTEX
  8
0
  5
31DE2
 10
191.460
 20
389.808
 30
0.000000
  70
    32
  0
VERTEX
  8
0
  5
31DE3
 10
190.954
 20
389.746
 30
0.000000
  70
    32
  0
VERTEX
  8
0
  5
31DE4
 10
190.448
 20
389.676
 30
0.000000
  70
    32
  0
VERTEX
  8
0
  5
31DE5
 10
189.943
 20
389.600
 30
0.000000
  70
    32
  0
VERTEX
  8
0
  5
31DE6
 10
189.439
 20
389.516
 30
0.000000
  70
    32
  0
VERTEX
  8
0
  5
31DE7
 10
188.935
 20
389.425
 30
0.000000
  70
    32
  0
VERTEX
  8
0
  5
31DE8
 10
188.432
 20
389.327
 30
0.000000
  70
    32
  0
VERTEX
  8
0
  5
31DE9
 10
187.930
 20
389.221
 30
0.000000
  70
    32
  0
VERTEX
  8
0
  5
31DEA
 10
187.429
 20
389.108
 30
0.000000
  70
    32
  0
VERTEX
  8
0
  5
31DEB
 10
186.928
 20
388.989
 30
0.000000
  70
    32
  0
VERTEX
  8
0
  5
31DEC
 10
186.429
 20
388.861
 30
0.000000
  70
    32
  0
VERTEX
  8
0
  5
31DED
 10
185.931
 20
388.727
 30
0.000000
  70
    32
  0
VERTEX
  8
0
  5
31DEE
 10
185.433
 20
388.586
 30
0.000000
  70
    32
  0
VERTEX
  8
0
  5
31DEF
 10
184.938
 20
388.437
 30
0.000000
  70
    32
  0
VERTEX
  8
0
  5
31DF0
 10
184.443
 20
388.281
 30
0.000000
  70
    32
  0
VERTEX
  8
0
  5
31DF1
 10
183.949
 20
388.119
 30
0.000000
  70
    32
  0
VERTEX
  8
0
  5
31DF2
 10
183.457
 20
387.949
 30
0.000000
  70
    32
  0
VERTEX
  8
0
  5
31DF3
 10
182.967
 20
387.772
 30
0.000000
  70
    32
  0
VERTEX
  8
0
  5
31DF4
 10
182.478
 20
387.588
 30
0.000000
  70
    32
  0
VERTEX
  8
0
  5
31DF5
 10
181.990
 20
387.397
 30
0.000000
  70
    32
  0
VERTEX
  8
0
  5
31DF6
 10
181.504
 20
387.199
 30
0.000000
  70
    32
  0
VERTEX
  8
0
  5
31DF7
 10
181.019
 20
386.994
 30
0.000000
  70
    32
  0
VERTEX
  8
0
  5
31DF8
 10
180.537
 20
386.782
 30
0.000000
  70
    32
  0
VERTEX
  8
0
  5
31DF9
 10
180.056
 20
386.563
 30
0.000000
  70
    32
  0
VERTEX
  8
0
  5
31DFA
 10
179.577
 20
386.337
 30
0.000000
  70
    32
  0
VERTEX
  8
0
  5
31DFB
 10
179.099
 20
386.105
 30
0.000000
  70
    32
  0
VERTEX
  8
0
  5
31DFC
 10
178.624
 20
385.865
 30
0.000000
  70
    32
  0
VERTEX
  8
0
  5
31DFD
 10
178.150
 20
385.619
 30
0.000000
  70
    32
  0
VERTEX
  8
0
  5
31DFE
 10
177.679
 20
385.366
 30
0.000000
  70
    32
  0
VERTEX
  8
0
  5
31DFF
 10
177.210
 20
385.106
 30
0.000000
  70
    32
  0
VERTEX
  8
0
  5
31E00
 10
176.743
 20
384.840
 30
0.000000
  70
    32
  0
VERTEX
  8
0
  5
31E01
 10
176.278
 20
384.566
 30
0.000000
  70
    32
  0
VERTEX
  8
0
  5
31E02
 10
175.815
 20
384.286
 30
0.000000
  70
    32
  0
VERTEX
  8
0
  5
31E03
 10
175.355
 20
384.000
 30
0.000000
  70
    32
  0
VERTEX
  8
0
  5
31E04
 10
174.897
 20
383.707
 30
0.000000
  70
    32
  0
VERTEX
  8
0
  5
31E05
 10
174.441
 20
383.407
 30
0.000000
  70
    32
  0
VERTEX
  8
0
  5
31E06
 10
173.988
 20
383.101
 30
0.000000
  70
    32
  0
VERTEX
  8
0
  5
31E07
 10
173.537
 20
382.788
 30
0.000000
  70
    32
  0
VERTEX
  8
0
  5
31E08
 10
173.089
 20
382.469
 30
0.000000
  70
    32
  0
VERTEX
  8
0
  5
31E09
 10
172.644
 20
382.143
 30
0.000000
  70
    32
  0
VERTEX
  8
0
  5
31E0A
 10
172.201
 20
381.811
 30
0.000000
  70
    32
  0
VERTEX
  8
0
  5
31E0B
 10
171.761
 20
381.473
 30
0.000000
  70
    32
  0
VERTEX
  8
0
  5
31E0C
 10
171.324
 20
381.128
 30
0.000000
  70
    32
  0
VERTEX
  8
0
  5
31E0D
 10
170.889
 20
380.777
 30
0.000000
  70
    32
  0
VERTEX
  8
0
  5
31E0E
 10
170.458
 20
380.420
 30
0.000000
  70
    32
  0
VERTEX
  8
0
  5
31E0F
 10
170.029
 20
380.056
 30
0.000000
  70
    32
  0
VERTEX
  8
0
  5
31E10
 10
169.604
 20
379.687
 30
0.000000
  70
    32
  0
VERTEX
  8
0
  5
31E11
 10
169.181
 20
379.311
 30
0.000000
  70
    32
  0
VERTEX
  8
0
  5
31E12
 10
168.762
 20
378.930
 30
0.000000
  70
    32
  0
VERTEX
  8
0
  5
31E13
 10
168.345
 20
378.542
 30
0.000000
  70
    32
  0
VERTEX
  8
0
  5
31E14
 10
167.932
 20
378.149
 30
0.000000
  70
    32
  0
VERTEX
  8
0
  5
31E15
 10
167.522
 20
377.749
 30
0.000000
  70
    32
  0
VERTEX
  8
0
  5
31E16
 10
167.115
 20
377.344
 30
0.000000
  70
    32
  0
VERTEX
  8
0
  5
31E17
 10
166.712
 20
376.933
 30
0.000000
  70
    32
  0
VERTEX
  8
0
  5
31E18
 10
166.312
 20
376.516
 30
0.000000
  70
    32
  0
VERTEX
  8
0
  5
31E19
 10
165.915
 20
376.093
 30
0.000000
  70
    32
  0
VERTEX
  8
0
  5
31E1A
 10
165.522
 20
375.664
 30
0.000000
  70
    32
  0
SEQEND
  8
0
  5
31E1B
  0
ARC
  5
31A1F
  8
0
 10
222.72242323388579
 20
280.60649989891408
 30
0.0
 40
13.99354371315969
 50
340.15710326269232
 51
19.842896737307651
  0
LINE
  5
31A20
  8
0
 10
229.52230772896289
 20
275.85649989891408
 30
0.0
 11
236.7336325943688
 21
275.85649989891408
 31
0.0
  0
LINE
  5
31A21
  8
0
 10
229.52230772896289
 20
285.35649989891408
 30
0.0
 11
235.8851268183362
 21
285.35649989891408
 31
0.0
  0
LINE
  5
31A22
  8
0
 10
237.02230772896289
 20
294.35649989891408
 30
0.0
 11
237.02230772896289
 21
276.35649989891408
 31
0.0
  0
ARC
  5
31A24
  8
0
 10
222.7644333615799
 20
290.10649989891408
 30
0.0
 40
13.95403514350533
 50
340.09855111925549
 51
19.901448880746809
  0
LINE
  5
31A26
  8
0
 10
151.5223077289638
 20
294.35649989891408
 30
0.0
 11
151.5223077289638
 21
276.35649989891408
 31
0.0
  0
ARC
  5
31A27
  8
0
 10
180.7703819455009
 20
290.10649989891408
 30
0.0
 40
29.1104537588417
 50
170.60896320174589
 51
189.39103679825411
  0
ARC
  5
31A28
  8
0
 10
181.0844117419274
 20
280.60649989891408
 30
0.0
 40
29.420319456173971
 50
170.70875410647679
 51
189.29124589352321
  0
ARC
  5
31A2B
  8
0
 10
132.27726964645899
 20
290.10649989891408
 30
0.0
 40
29.10745832020292
 50
350.60798802368362
 51
9.3920119763164092
  0
LINE
  5
31A2C
  8
0
 10
152.0500752262887
 20
285.35649989891408
 30
0.0
 11
160.99454023163801
 21
285.35649989891408
 31
0.0
  0
LINE
  5
31A2D
  8
0
 10
151.6562823251779
 20
294.85649989891408
 30
0.0
 11
161.3883331327479
 21
294.85649989891408
 31
0.0
  0
ARC
  5
31A2E
  8
0
 10
131.96477420786411
 20
280.60649989891408
 30
0.0
 40
29.41580893660856
 50
350.70731679464092
 51
9.2926832053590314
  0
LINE
  5
31A2F
  8
0
 10
151.6562823251779
 20
275.85649989891408
 30
0.0
 11
161.3883331327479
 21
275.85649989891408
 31
0.0
  0
LINE
  5
31A32
  8
0
 10
229.52230772896289
 20
294.85649989891408
 30
0.0
 11
236.7336325943688
 21
294.85649989891408
 31
0.0
  0
LINE
  5
31A34
  8
0
 10
175.52230772896289
 20
354.35649989891408
 30
0.0
 11
175.52230772896289
 21
216.35649989891371
 31
0.0
  0
LINE
  5
31A35
  8
0
 10
215.52230772896289
 20
354.35649989891408
 30
0.0
 11
215.52230772896289
 21
216.35649989891371
 31
0.0
  0
LINE
  5
31A36
  8
0
 10
170.52230772896289
 20
313.0944610024992
 30
0.0
 11
170.52230772896289
 21
257.61853879532867
 31
0.0
  0
LINE
  5
31A38
  8
0
 10
220.52230772896289
 20
257.61853879532867
 30
0.0
 11
220.52230772896289
 21
313.0944610024992
 31
0.0
  0
LINE
  5
31A3A
  8
0
 10
179.04832035349679
 20
360.35649989891431
 30
0.0
 11
179.04832035349679
 21
210.35649989891431
 31
0.0
  0
LINE
  5
31A3B
  8
0
 10
211.99629510442901
 20
360.35649989891431
 30
0.0
 11
211.99629510442901
 21
210.35649989891431
 31
0.0
  0
LINE
  5
31A3D
  8
0
 10
656.17485495033259
 20
399.35649989891408
 30
0.0
 11
656.17485495033259
 21
327.58990966832471
 31
0.0
  0
LINE
  5
31A3E
  8
0
 10
758.17485495033361
 20
327.58990966832431
 30
0.0
 11
758.17485495033361
 21
399.35649989891408
 31
0.0
  0
LINE
  5
31A3F
  8
0
 10
656.65093779824565
 20
404.35649989891408
 30
0.0
 11
657.53257270178619
 21
399.35649989891408
 31
0.0
  0
LINE
  5
31A40
  8
0
 10
756.81713719887921
 20
399.35649989891408
 30
0.0
 11
757.69877210241975
 21
404.35649989891408
 31
0.0
  0
LINE
  5
31A41
  8
0
 10
732.17485495033259
 20
272.85649989891408
 30
0.0
 11
737.1748549503327
 21
272.85649989891408
 31
0.0
  0
LINE
  5
31A42
  8
0
 10
737.1748549503327
 20
297.85649989891408
 30
0.0
 11
732.17485495033259
 21
297.85649989891408
 31
0.0
  0
LINE
  5
31A43
  8
0
 10
677.17485495033259
 20
272.85649989891408
 30
0.0
 11
682.17485495033259
 21
272.85649989891408
 31
0.0
  0
LINE
  5
31A44
  8
0
 10
682.17485495033259
 20
297.85649989891408
 30
0.0
 11
677.17485495033259
 21
297.85649989891408
 31
0.0
  0
LINE
  5
31A45
  8
0
 10
665.67485495033361
 20
276.35649989891408
 30
0.0
 11
665.96353008492758
 21
275.85649989891408
 31
0.0
  0
LINE
  5
31A46
  8
0
 10
751.04088035411758
 20
275.85649989891408
 30
0.0
 11
751.1748549503327
 21
276.35649989891408
 31
0.0
  0
LINE
  5
31A47
  8
0
 10
741.1748549503327
 20
276.35649989891408
 30
0.0
 11
741.30882954654851
 21
275.85649989891408
 31
0.0
  0
ARC
  5
31A4A
  8
0
 10
723.6488423257988
 20
212.85649989891431
 30
0.0
 40
2.5000000000003868
 50
270.0
 51
345.00000000000068
  0
ARC
  5
31A4B
  8
0
 10
723.6488423257988
 20
357.85649989891363
 30
0.0
 40
2.5000000000004259
 50
14.99999999999917
 51
90.0
  0
LINE
  5
31A4C
  8
0
 10
690.70086757486661
 20
210.35649989891431
 30
0.0
 11
723.6488423257988
 21
210.35649989891431
 31
0.0
  0
LINE
  5
31A4D
  8
0
 10
723.6488423257988
 20
360.35649989891431
 30
0.0
 11
690.70086757486661
 21
360.35649989891431
 31
0.0
  0
ARC
  5
31A4E
  8
0
 10
690.70086757486661
 20
212.85649989891431
 30
0.0
 40
2.5000000000003868
 50
195.00000000000071
 51
270.0
  0
ARC
  5
31A4F
  8
0
 10
690.70086757486661
 20
357.85649989891363
 30
0.0
 40
2.5000000000004259
 50
90.0
 51
165.00000000000071
  0
LINE
  5
31A50
  8
0
 10
726.06365689152153
 20
212.20945228615801
 30
0.0
 11
727.17485495033259
 21
216.35649989891411
 31
0.0
  0
LINE
  5
31A51
  8
0
 10
727.17485495033259
 20
354.35649989891408
 30
0.0
 11
726.06365689152153
 21
358.50354751167009
 31
0.0
  0
LINE
  5
31A52
  8
0
 10
688.28605300914387
 20
358.50354751167009
 30
0.0
 11
687.1748549503327
 21
354.35649989891408
 31
0.0
  0
LINE
  5
31A53
  8
0
 10
687.1748549503327
 20
216.35649989891411
 30
0.0
 11
688.28605300914387
 21
212.20945228615801
 31
0.0
  0
LINE
  5
31A54
  8
0
 10
687.1748549503327
 20
313.35649989891448
 30
0.0
 11
682.17485495033259
 21
313.0944610024992
 31
0.0
  0
LINE
  5
31A55
  8
0
 10
682.17485495033259
 20
257.61853879532867
 30
0.0
 11
687.1748549503327
 21
257.35649989891363
 31
0.0
  0
LINE
  5
31A56
  8
0
 10
727.17485495033259
 20
257.35649989891363
 30
0.0
 11
732.17485495033259
 21
257.61853879532867
 31
0.0
  0
LINE
  5
31A57
  8
0
 10
732.17485495033259
 20
313.0944610024992
 30
0.0
 11
727.17485495033259
 21
313.35649989891448
 31
0.0
  0
LINE
  5
31A58
  8
0
 10
762.1748549503327
 20
404.35649989891408
 30
0.0
 11
762.1748549503327
 21
410.35649989891402
 31
0.0
  0
LINE
  5
31A5F
  8
0
 10
652.17485495033259
 20
404.35649989891408
 30
0.0
 11
652.17485495033259
 21
410.35649989891402
 31
0.0
  0
LINE
  5
31A60
  8
0
 10
652.17485495033259
 20
404.35649989891408
 30
0.0
 11
762.1748549503327
 21
404.35649989891408
 31
0.0
  0
LINE
  5
31A61
  8
0
 10
652.17485495033259
 20
410.35649989891402
 30
0.0
 11
762.1748549503327
 21
410.35649989891402
 31
0.0
  0
POLYLINE
  5
31A62
  8
0
 10
741.17485495033327
 20
277.07967554866792
 30
0.0
 66
     1
 70
     8
  0
VERTEX
  8
0
  5
31E1C
 10
741.175
 20
277.080
 30
0.000000
  70
    32
  0
VERTEX
  8
0
  5
31E1D
 10
742.583
 20
278.818
 30
0.000000
  70
    32
  0
VERTEX
  8
0
  5
31E1E
 10
743.941
 20
280.625
 30
0.000000
  70
    32
  0
VERTEX
  8
0
  5
31E1F
 10
745.246
 20
282.499
 30
0.000000
  70
    32
  0
VERTEX
  8
0
  5
31E20
 10
746.498
 20
284.437
 30
0.000000
  70
    32
  0
VERTEX
  8
0
  5
31E21
 10
747.693
 20
286.436
 30
0.000000
  70
    32
  0
VERTEX
  8
0
  5
31E22
 10
748.832
 20
288.494
 30
0.000000
  70
    32
  0
VERTEX
  8
0
  5
31E23
 10
749.911
 20
290.607
 30
0.000000
  70
    32
  0
VERTEX
  8
0
  5
31E24
 10
750.929
 20
292.773
 30
0.000000
  70
    32
  0
VERTEX
  8
0
  5
31E25
 10
751.885
 20
294.988
 30
0.000000
  70
    32
  0
VERTEX
  8
0
  5
31E26
 10
752.778
 20
297.249
 30
0.000000
  70
    32
  0
VERTEX
  8
0
  5
31E27
 10
753.606
 20
299.554
 30
0.000000
  70
    32
  0
VERTEX
  8
0
  5
31E28
 10
754.368
 20
301.898
 30
0.000000
  70
    32
  0
VERTEX
  8
0
  5
31E29
 10
755.063
 20
304.279
 30
0.000000
  70
    32
  0
VERTEX
  8
0
  5
31E2A
 10
755.690
 20
306.693
 30
0.000000
  70
    32
  0
VERTEX
  8
0
  5
31E2B
 10
756.248
 20
309.137
 30
0.000000
  70
    32
  0
VERTEX
  8
0
  5
31E2C
 10
756.736
 20
311.607
 30
0.000000
  70
    32
  0
VERTEX
  8
0
  5
31E2D
 10
757.154
 20
314.099
 30
0.000000
  70
    32
  0
VERTEX
  8
0
  5
31E2E
 10
757.501
 20
316.611
 30
0.000000
  70
    32
  0
VERTEX
  8
0
  5
31E2F
 10
757.777
 20
319.138
 30
0.000000
  70
    32
  0
VERTEX
  8
0
  5
31E30
 10
757.980
 20
321.677
 30
0.000000
  70
    32
  0
VERTEX
  8
0
  5
31E31
 10
758.112
 20
324.225
 30
0.000000
  70
    32
  0
VERTEX
  8
0
  5
31E32
 10
758.171
 20
326.777
 30
0.000000
  70
    32
  0
VERTEX
  8
0
  5
31E33
 10
758.158
 20
329.331
 30
0.000000
  70
    32
  0
VERTEX
  8
0
  5
31E34
 10
758.072
 20
331.882
 30
0.000000
  70
    32
  0
VERTEX
  8
0
  5
31E35
 10
757.915
 20
334.427
 30
0.000000
  70
    32
  0
VERTEX
  8
0
  5
31E36
 10
757.685
 20
336.962
 30
0.000000
  70
    32
  0
VERTEX
  8
0
  5
31E37
 10
757.383
 20
339.484
 30
0.000000
  70
    32
  0
VERTEX
  8
0
  5
31E38
 10
757.010
 20
341.990
 30
0.000000
  70
    32
  0
VERTEX
  8
0
  5
31E39
 10
756.566
 20
344.474
 30
0.000000
  70
    32
  0
VERTEX
  8
0
  5
31E3A
 10
756.053
 20
346.935
 30
0.000000
  70
    32
  0
VERTEX
  8
0
  5
31E3B
 10
755.469
 20
349.368
 30
0.000000
  70
    32
  0
VERTEX
  8
0
  5
31E3C
 10
754.818
 20
351.771
 30
0.000000
  70
    32
  0
VERTEX
  8
0
  5
31E3D
 10
754.098
 20
354.138
 30
0.000000
  70
    32
  0
VERTEX
  8
0
  5
31E3E
 10
753.312
 20
356.469
 30
0.000000
  70
    32
  0
VERTEX
  8
0
  5
31E3F
 10
752.460
 20
358.758
 30
0.000000
  70
    32
  0
VERTEX
  8
0
  5
31E40
 10
751.545
 20
361.003
 30
0.000000
  70
    32
  0
VERTEX
  8
0
  5
31E41
 10
750.566
 20
363.201
 30
0.000000
  70
    32
  0
VERTEX
  8
0
  5
31E42
 10
749.525
 20
365.348
 30
0.000000
  70
    32
  0
VERTEX
  8
0
  5
31E43
 10
748.424
 20
367.441
 30
0.000000
  70
    32
  0
VERTEX
  8
0
  5
31E44
 10
747.265
 20
369.478
 30
0.000000
  70
    32
  0
VERTEX
  8
0
  5
31E45
 10
746.049
 20
371.455
 30
0.000000
  70
    32
  0
VERTEX
  8
0
  5
31E46
 10
744.778
 20
373.370
 30
0.000000
  70
    32
  0
VERTEX
  8
0
  5
31E47
 10
743.453
 20
375.220
 30
0.000000
  70
    32
  0
VERTEX
  8
0
  5
31E48
 10
742.077
 20
377.002
 30
0.000000
  70
    32
  0
VERTEX
  8
0
  5
31E49
 10
740.651
 20
378.715
 30
0.000000
  70
    32
  0
VERTEX
  8
0
  5
31E4A
 10
739.177
 20
380.354
 30
0.000000
  70
    32
  0
VERTEX
  8
0
  5
31E4B
 10
737.658
 20
381.919
 30
0.000000
  70
    32
  0
VERTEX
  8
0
  5
31E4C
 10
736.096
 20
383.406
 30
0.000000
  70
    32
  0
VERTEX
  8
0
  5
31E4D
 10
734.493
 20
384.815
 30
0.000000
  70
    32
  0
VERTEX
  8
0
  5
31E4E
 10
732.851
 20
386.142
 30
0.000000
  70
    32
  0
VERTEX
  8
0
  5
31E4F
 10
731.173
 20
387.385
 30
0.000000
  70
    32
  0
VERTEX
  8
0
  5
31E50
 10
729.460
 20
388.544
 30
0.000000
  70
    32
  0
VERTEX
  8
0
  5
31E51
 10
727.716
 20
389.617
 30
0.000000
  70
    32
  0
VERTEX
  8
0
  5
31E52
 10
725.943
 20
390.601
 30
0.000000
  70
    32
  0
VERTEX
  8
0
  5
31E53
 10
724.143
 20
391.496
 30
0.000000
  70
    32
  0
VERTEX
  8
0
  5
31E54
 10
722.319
 20
392.300
 30
0.000000
  70
    32
  0
VERTEX
  8
0
  5
31E55
 10
720.473
 20
393.012
 30
0.000000
  70
    32
  0
VERTEX
  8
0
  5
31E56
 10
718.609
 20
393.632
 30
0.000000
  70
    32
  0
VERTEX
  8
0
  5
31E57
 10
716.728
 20
394.157
 30
0.000000
  70
    32
  0
VERTEX
  8
0
  5
31E58
 10
714.834
 20
394.588
 30
0.000000
  70
    32
  0
VERTEX
  8
0
  5
31E59
 10
712.928
 20
394.924
 30
0.000000
  70
    32
  0
VERTEX
  8
0
  5
31E5A
 10
711.015
 20
395.164
 30
0.000000
  70
    32
  0
VERTEX
  8
0
  5
31E5B
 10
709.096
 20
395.308
 30
0.000000
  70
    32
  0
VERTEX
  8
0
  5
31E5C
 10
707.175
 20
395.356
 30
0.000000
  70
    32
  0
VERTEX
  8
0
  5
31E5D
 10
705.253
 20
395.308
 30
0.000000
  70
    32
  0
VERTEX
  8
0
  5
31E5E
 10
703.335
 20
395.164
 30
0.000000
  70
    32
  0
VERTEX
  8
0
  5
31E5F
 10
701.421
 20
394.924
 30
0.000000
  70
    32
  0
VERTEX
  8
0
  5
31E60
 10
699.516
 20
394.588
 30
0.000000
  70
    32
  0
VERTEX
  8
0
  5
31E61
 10
697.622
 20
394.157
 30
0.000000
  70
    32
  0
VERTEX
  8
0
  5
31E62
 10
695.741
 20
393.632
 30
0.000000
  70
    32
  0
VERTEX
  8
0
  5
31E63
 10
693.877
 20
393.012
 30
0.000000
  70
    32
  0
VERTEX
  8
0
  5
31E64
 10
692.031
 20
392.300
 30
0.000000
  70
    32
  0
VERTEX
  8
0
  5
31E65
 10
690.207
 20
391.496
 30
0.000000
  70
    32
  0
VERTEX
  8
0
  5
31E66
 10
688.407
 20
390.601
 30
0.000000
  70
    32
  0
VERTEX
  8
0
  5
31E67
 10
686.634
 20
389.617
 30
0.000000
  70
    32
  0
VERTEX
  8
0
  5
31E68
 10
684.890
 20
388.544
 30
0.000000
  70
    32
  0
VERTEX
  8
0
  5
31E69
 10
683.177
 20
387.385
 30
0.000000
  70
    32
  0
VERTEX
  8
0
  5
31E6A
 10
681.499
 20
386.142
 30
0.000000
  70
    32
  0
VERTEX
  8
0
  5
31E6B
 10
679.857
 20
384.815
 30
0.000000
  70
    32
  0
VERTEX
  8
0
  5
31E6C
 10
678.253
 20
383.406
 30
0.000000
  70
    32
  0
VERTEX
  8
0
  5
31E6D
 10
676.691
 20
381.919
 30
0.000000
  70
    32
  0
VERTEX
  8
0
  5
31E6E
 10
675.172
 20
380.354
 30
0.000000
  70
    32
  0
VERTEX
  8
0
  5
31E6F
 10
673.699
 20
378.715
 30
0.000000
  70
    32
  0
VERTEX
  8
0
  5
31E70
 10
672.273
 20
377.002
 30
0.000000
  70
    32
  0
VERTEX
  8
0
  5
31E71
 10
670.897
 20
375.220
 30
0.000000
  70
    32
  0
VERTEX
  8
0
  5
31E72
 10
669.572
 20
373.370
 30
0.000000
  70
    32
  0
VERTEX
  8
0
  5
31E73
 10
668.301
 20
371.455
 30
0.000000
  70
    32
  0
VERTEX
  8
0
  5
31E74
 10
667.085
 20
369.478
 30
0.000000
  70
    32
  0
VERTEX
  8
0
  5
31E75
 10
665.925
 20
367.441
 30
0.000000
  70
    32
  0
VERTEX
  8
0
  5
31E76
 10
664.825
 20
365.348
 30
0.000000
  70
    32
  0
VERTEX
  8
0
  5
31E77
 10
663.784
 20
363.201
 30
0.000000
  70
    32
  0
VERTEX
  8
0
  5
31E78
 10
662.805
 20
361.003
 30
0.000000
  70
    32
  0
VERTEX
  8
0
  5
31E79
 10
661.889
 20
358.758
 30
0.000000
  70
    32
  0
VERTEX
  8
0
  5
31E7A
 10
661.038
 20
356.469
 30
0.000000
  70
    32
  0
VERTEX
  8
0
  5
31E7B
 10
660.252
 20
354.138
 30
0.000000
  70
    32
  0
VERTEX
  8
0
  5
31E7C
 10
659.532
 20
351.771
 30
0.000000
  70
    32
  0
VERTEX
  8
0
  5
31E7D
 10
658.880
 20
349.368
 30
0.000000
  70
    32
  0
VERTEX
  8
0
  5
31E7E
 10
658.297
 20
346.935
 30
0.000000
  70
    32
  0
VERTEX
  8
0
  5
31E7F
 10
657.783
 20
344.474
 30
0.000000
  70
    32
  0
VERTEX
  8
0
  5
31E80
 10
657.340
 20
341.990
 30
0.000000
  70
    32
  0
VERTEX
  8
0
  5
31E81
 10
656.967
 20
339.484
 30
0.000000
  70
    32
  0
VERTEX
  8
0
  5
31E82
 10
656.665
 20
336.962
 30
0.000000
  70
    32
  0
VERTEX
  8
0
  5
31E83
 10
656.435
 20
334.427
 30
0.000000
  70
    32
  0
VERTEX
  8
0
  5
31E84
 10
656.277
 20
331.882
 30
0.000000
  70
    32
  0
VERTEX
  8
0
  5
31E85
 10
656.192
 20
329.331
 30
0.000000
  70
    32
  0
VERTEX
  8
0
  5
31E86
 10
656.179
 20
326.777
 30
0.000000
  70
    32
  0
VERTEX
  8
0
  5
31E87
 10
656.238
 20
324.225
 30
0.000000
  70
    32
  0
VERTEX
  8
0
  5
31E88
 10
656.369
 20
321.677
 30
0.000000
  70
    32
  0
VERTEX
  8
0
  5
31E89
 10
656.573
 20
319.138
 30
0.000000
  70
    32
  0
VERTEX
  8
0
  5
31E8A
 10
656.849
 20
316.611
 30
0.000000
  70
    32
  0
VERTEX
  8
0
  5
31E8B
 10
657.196
 20
314.099
 30
0.000000
  70
    32
  0
VERTEX
  8
0
  5
31E8C
 10
657.614
 20
311.607
 30
0.000000
  70
    32
  0
VERTEX
  8
0
  5
31E8D
 10
658.102
 20
309.137
 30
0.000000
  70
    32
  0
VERTEX
  8
0
  5
31E8E
 10
658.660
 20
306.693
 30
0.000000
  70
    32
  0
VERTEX
  8
0
  5
31E8F
 10
659.287
 20
304.279
 30
0.000000
  70
    32
  0
VERTEX
  8
0
  5
31E90
 10
659.982
 20
301.898
 30
0.000000
  70
    32
  0
VERTEX
  8
0
  5
31E91
 10
660.744
 20
299.554
 30
0.000000
  70
    32
  0
VERTEX
  8
0
  5
31E92
 10
661.572
 20
297.249
 30
0.000000
  70
    32
  0
VERTEX
  8
0
  5
31E93
 10
662.465
 20
294.988
 30
0.000000
  70
    32
  0
VERTEX
  8
0
  5
31E94
 10
663.421
 20
292.773
 30
0.000000
  70
    32
  0
VERTEX
  8
0
  5
31E95
 10
664.439
 20
290.607
 30
0.000000
  70
    32
  0
VERTEX
  8
0
  5
31E96
 10
665.518
 20
288.494
 30
0.000000
  70
    32
  0
VERTEX
  8
0
  5
31E97
 10
666.656
 20
286.436
 30
0.000000
  70
    32
  0
VERTEX
  8
0
  5
31E98
 10
667.852
 20
284.437
 30
0.000000
  70
    32
  0
VERTEX
  8
0
  5
31E99
 10
669.103
 20
282.499
 30
0.000000
  70
    32
  0
VERTEX
  8
0
  5
31E9A
 10
670.409
 20
280.625
 30
0.000000
  70
    32
  0
VERTEX
  8
0
  5
31E9B
 10
671.767
 20
278.818
 30
0.000000
  70
    32
  0
VERTEX
  8
0
  5
31E9C
 10
673.175
 20
277.080
 30
0.000000
  70
    32
  0
SEQEND
  8
0
  5
31E9D
  0
LINE
  5
31A63
  8
0
 10
656.17485495033259
 20
399.35649989891408
 30
0.0
 11
758.17485495033361
 21
399.35649989891408
 31
0.0
  0
LINE
  5
31A64
  8
0
 10
673.17485495033361
 20
274.34329829029087
 30
0.0
 11
677.17485495033259
 21
274.34329829029087
 31
0.0
  0
LINE
  5
31A65
  8
0
 10
673.17485495033361
 20
270.35649989891408
 30
0.0
 11
673.17485495033361
 21
277.07967554866718
 31
0.0
  0
LINE
  5
31A66
  8
0
 10
741.1748549503327
 20
270.35649989891408
 30
0.0
 11
741.1748549503327
 21
277.07967554866718
 31
0.0
  0
LINE
  5
31A67
  8
0
 10
737.1748549503327
 20
274.34329829029087
 30
0.0
 11
741.1748549503327
 21
274.34329829029087
 31
0.0
  0
POLYLINE
  5
31A69
  8
0
 10
737.17485495033327
 20
279.51535374509535
 30
0.0
 66
     1
 70
     8
  0
VERTEX
  8
0
  5
31E9E
 10
737.175
 20
279.515
 30
0.000000
  70
    32
  0
VERTEX
  8
0
  5
31E9F
 10
738.537
 20
281.076
 30
0.000000
  70
    32
  0
VERTEX
  8
0
  5
31EA0
 10
739.854
 20
282.704
 30
0.000000
  70
    32
  0
VERTEX
  8
0
  5
31EA1
 10
741.122
 20
284.398
 30
0.000000
  70
    32
  0
VERTEX
  8
0
  5
31EA2
 10
742.341
 20
286.156
 30
0.000000
  70
    32
  0
VERTEX
  8
0
  5
31EA3
 10
743.508
 20
287.974
 30
0.000000
  70
    32
  0
VERTEX
  8
0
  5
31EA4
 10
744.622
 20
289.850
 30
0.000000
  70
    32
  0
VERTEX
  8
0
  5
31EA5
 10
745.682
 20
291.782
 30
0.000000
  70
    32
  0
VERTEX
  8
0
  5
31EA6
 10
746.685
 20
293.766
 30
0.000000
  70
    32
  0
VERTEX
  8
0
  5
31EA7
 10
747.630
 20
295.799
 30
0.000000
  70
    32
  0
VERTEX
  8
0
  5
31EA8
 10
748.515
 20
297.879
 30
0.000000
  70
    32
  0
VERTEX
  8
0
  5
31EA9
 10
749.341
 20
300.003
 30
0.000000
  70
    32
  0
VERTEX
  8
0
  5
31EAA
 10
750.104
 20
302.166
 30
0.000000
  70
    32
  0
VERTEX
  8
0
  5
31EAB
 10
750.805
 20
304.368
 30
0.000000
  70
    32
  0
VERTEX
  8
0
  5
31EAC
 10
751.441
 20
306.603
 30
0.000000
  70
    32
  0
VERTEX
  8
0
  5
31EAD
 10
752.013
 20
308.869
 30
0.000000
  70
    32
  0
VERTEX
  8
0
  5
31EAE
 10
752.520
 20
311.162
 30
0.000000
  70
    32
  0
VERTEX
  8
0
  5
31EAF
 10
752.959
 20
313.479
 30
0.000000
  70
    32
  0
VERTEX
  8
0
  5
31EB0
 10
753.332
 20
315.817
 30
0.000000
  70
    32
  0
VERTEX
  8
0
  5
31EB1
 10
753.637
 20
318.172
 30
0.000000
  70
    32
  0
VERTEX
  8
0
  5
31EB2
 10
753.875
 20
320.542
 30
0.000000
  70
    32
  0
VERTEX
  8
0
  5
31EB3
 10
754.043
 20
322.921
 30
0.000000
  70
    32
  0
VERTEX
  8
0
  5
31EB4
 10
754.143
 20
325.307
 30
0.000000
  70
    32
  0
VERTEX
  8
0
  5
31EB5
 10
754.175
 20
327.697
 30
0.000000
  70
    32
  0
VERTEX
  8
0
  5
31EB6
 10
754.137
 20
330.086
 30
0.000000
  70
    32
  0
VERTEX
  8
0
  5
31EB7
 10
754.031
 20
332.472
 30
0.000000
  70
    32
  0
VERTEX
  8
0
  5
31EB8
 10
753.856
 20
334.850
 30
0.000000
  70
    32
  0
VERTEX
  8
0
  5
31EB9
 10
753.613
 20
337.218
 30
0.000000
  70
    32
  0
VERTEX
  8
0
  5
31EBA
 10
753.302
 20
339.572
 30
0.000000
  70
    32
  0
VERTEX
  8
0
  5
31EBB
 10
752.923
 20
341.908
 30
0.000000
  70
    32
  0
VERTEX
  8
0
  5
31EBC
 10
752.477
 20
344.224
 30
0.000000
  70
    32
  0
VERTEX
  8
0
  5
31EBD
 10
751.965
 20
346.515
 30
0.000000
  70
    32
  0
VERTEX
  8
0
  5
31EBE
 10
751.387
 20
348.778
 30
0.000000
  70
    32
  0
VERTEX
  8
0
  5
31EBF
 10
750.745
 20
351.010
 30
0.000000
  70
    32
  0
VERTEX
  8
0
  5
31EC0
 10
750.038
 20
353.208
 30
0.000000
  70
    32
  0
VERTEX
  8
0
  5
31EC1
 10
749.269
 20
355.369
 30
0.000000
  70
    32
  0
VERTEX
  8
0
  5
31EC2
 10
748.439
 20
357.488
 30
0.000000
  70
    32
  0
VERTEX
  8
0
  5
31EC3
 10
747.548
 20
359.564
 30
0.000000
  70
    32
  0
VERTEX
  8
0
  5
31EC4
 10
746.597
 20
361.593
 30
0.000000
  70
    32
  0
VERTEX
  8
0
  5
31EC5
 10
745.589
 20
363.573
 30
0.000000
  70
    32
  0
VERTEX
  8
0
  5
31EC6
 10
744.525
 20
365.499
 30
0.000000
  70
    32
  0
VERTEX
  8
0
  5
31EC7
 10
743.406
 20
367.370
 30
0.000000
  70
    32
  0
VERTEX
  8
0
  5
31EC8
 10
742.234
 20
369.183
 30
0.000000
  70
    32
  0
VERTEX
  8
0
  5
31EC9
 10
741.011
 20
370.935
 30
0.000000
  70
    32
  0
VERTEX
  8
0
  5
31ECA
 10
739.738
 20
372.624
 30
0.000000
  70
    32
  0
VERTEX
  8
0
  5
31ECB
 10
738.417
 20
374.246
 30
0.000000
  70
    32
  0
VERTEX
  8
0
  5
31ECC
 10
737.051
 20
375.800
 30
0.000000
  70
    32
  0
VERTEX
  8
0
  5
31ECD
 10
735.641
 20
377.284
 30
0.000000
  70
    32
  0
VERTEX
  8
0
  5
31ECE
 10
734.189
 20
378.695
 30
0.000000
  70
    32
  0
VERTEX
  8
0
  5
31ECF
 10
732.698
 20
380.031
 30
0.000000
  70
    32
  0
VERTEX
  8
0
  5
31ED0
 10
731.169
 20
381.290
 30
0.000000
  70
    32
  0
VERTEX
  8
0
  5
31ED1
 10
729.605
 20
382.471
 30
0.000000
  70
    32
  0
VERTEX
  8
0
  5
31ED2
 10
728.009
 20
383.571
 30
0.000000
  70
    32
  0
VERTEX
  8
0
  5
31ED3
 10
726.381
 20
384.589
 30
0.000000
  70
    32
  0
VERTEX
  8
0
  5
31ED4
 10
724.726
 20
385.524
 30
0.000000
  70
    32
  0
VERTEX
  8
0
  5
31ED5
 10
723.045
 20
386.373
 30
0.000000
  70
    32
  0
VERTEX
  8
0
  5
31ED6
 10
721.341
 20
387.137
 30
0.000000
  70
    32
  0
VERTEX
  8
0
  5
31ED7
 10
719.616
 20
387.814
 30
0.000000
  70
    32
  0
VERTEX
  8
0
  5
31ED8
 10
717.873
 20
388.402
 30
0.000000
  70
    32
  0
VERTEX
  8
0
  5
31ED9
 10
716.114
 20
388.902
 30
0.000000
  70
    32
  0
VERTEX
  8
0
  5
31EDA
 10
714.342
 20
389.311
 30
0.000000
  70
    32
  0
VERTEX
  8
0
  5
31EDB
 10
712.559
 20
389.630
 30
0.000000
  70
    32
  0
VERTEX
  8
0
  5
31EDC
 10
710.769
 20
389.859
 30
0.000000
  70
    32
  0
VERTEX
  8
0
  5
31EDD
 10
708.973
 20
389.996
 30
0.000000
  70
    32
  0
VERTEX
  8
0
  5
31EDE
 10
707.175
 20
390.041
 30
0.000000
  70
    32
  0
VERTEX
  8
0
  5
31EDF
 10
705.377
 20
389.996
 30
0.000000
  70
    32
  0
VERTEX
  8
0
  5
31EE0
 10
703.581
 20
389.859
 30
0.000000
  70
    32
  0
VERTEX
  8
0
  5
31EE1
 10
701.791
 20
389.630
 30
0.000000
  70
    32
  0
VERTEX
  8
0
  5
31EE2
 10
700.008
 20
389.311
 30
0.000000
  70
    32
  0
VERTEX
  8
0
  5
31EE3
 10
698.236
 20
388.902
 30
0.000000
  70
    32
  0
VERTEX
  8
0
  5
31EE4
 10
696.477
 20
388.402
 30
0.000000
  70
    32
  0
VERTEX
  8
0
  5
31EE5
 10
694.734
 20
387.814
 30
0.000000
  70
    32
  0
VERTEX
  8
0
  5
31EE6
 10
693.009
 20
387.137
 30
0.000000
  70
    32
  0
VERTEX
  8
0
  5
31EE7
 10
691.305
 20
386.373
 30
0.000000
  70
    32
  0
VERTEX
  8
0
  5
31EE8
 10
689.624
 20
385.524
 30
0.000000
  70
    32
  0
VERTEX
  8
0
  5
31EE9
 10
687.968
 20
384.589
 30
0.000000
  70
    32
  0
VERTEX
  8
0
  5
31EEA
 10
686.341
 20
383.571
 30
0.000000
  70
    32
  0
VERTEX
  8
0
  5
31EEB
 10
684.744
 20
382.471
 30
0.000000
  70
    32
  0
VERTEX
  8
0
  5
31EEC
 10
683.181
 20
381.290
 30
0.000000
  70
    32
  0
VERTEX
  8
0
  5
31EED
 10
681.652
 20
380.031
 30
0.000000
  70
    32
  0
VERTEX
  8
0
  5
31EEE
 10
680.161
 20
378.695
 30
0.000000
  70
    32
  0
VERTEX
  8
0
  5
31EEF
 10
678.709
 20
377.284
 30
0.000000
  70
    32
  0
VERTEX
  8
0
  5
31EF0
 10
677.299
 20
375.800
 30
0.000000
  70
    32
  0
VERTEX
  8
0
  5
31EF1
 10
675.932
 20
374.246
 30
0.000000
  70
    32
  0
VERTEX
  8
0
  5
31EF2
 10
674.612
 20
372.624
 30
0.000000
  70
    32
  0
VERTEX
  8
0
  5
31EF3
 10
673.339
 20
370.935
 30
0.000000
  70
    32
  0
VERTEX
  8
0
  5
31EF4
 10
672.116
 20
369.183
 30
0.000000
  70
    32
  0
VERTEX
  8
0
  5
31EF5
 10
670.944
 20
367.370
 30
0.000000
  70
    32
  0
VERTEX
  8
0
  5
31EF6
 10
669.825
 20
365.499
 30
0.000000
  70
    32
  0
VERTEX
  8
0
  5
31EF7
 10
668.760
 20
363.573
 30
0.000000
  70
    32
  0
VERTEX
  8
0
  5
31EF8
 10
667.752
 20
361.593
 30
0.000000
  70
    32
  0
VERTEX
  8
0
  5
31EF9
 10
666.802
 20
359.564
 30
0.000000
  70
    32
  0
VERTEX
  8
0
  5
31EFA
 10
665.911
 20
357.488
 30
0.000000
  70
    32
  0
VERTEX
  8
0
  5
31EFB
 10
665.080
 20
355.369
 30
0.000000
  70
    32
  0
VERTEX
  8
0
  5
31EFC
 10
664.311
 20
353.208
 30
0.000000
  70
    32
  0
VERTEX
  8
0
  5
31EFD
 10
663.605
 20
351.010
 30
0.000000
  70
    32
  0
VERTEX
  8
0
  5
31EFE
 10
662.962
 20
348.778
 30
0.000000
  70
    32
  0
VERTEX
  8
0
  5
31EFF
 10
662.385
 20
346.515
 30
0.000000
  70
    32
  0
VERTEX
  8
0
  5
31F00
 10
661.873
 20
344.224
 30
0.000000
  70
    32
  0
VERTEX
  8
0
  5
31F01
 10
661.427
 20
341.908
 30
0.000000
  70
    32
  0
VERTEX
  8
0
  5
31F02
 10
661.048
 20
339.572
 30
0.000000
  70
    32
  0
VERTEX
  8
0
  5
31F03
 10
660.737
 20
337.218
 30
0.000000
  70
    32
  0
VERTEX
  8
0
  5
31F04
 10
660.494
 20
334.850
 30
0.000000
  70
    32
  0
VERTEX
  8
0
  5
31F05
 10
660.319
 20
332.472
 30
0.000000
  70
    32
  0
VERTEX
  8
0
  5
31F06
 10
660.212
 20
330.086
 30
0.000000
  70
    32
  0
VERTEX
  8
0
  5
31F07
 10
660.175
 20
327.697
 30
0.000000
  70
    32
  0
VERTEX
  8
0
  5
31F08
 10
660.206
 20
325.307
 30
0.000000
  70
    32
  0
VERTEX
  8
0
  5
31F09
 10
660.306
 20
322.921
 30
0.000000
  70
    32
  0
VERTEX
  8
0
  5
31F0A
 10
660.475
 20
320.542
 30
0.000000
  70
    32
  0
VERTEX
  8
0
  5
31F0B
 10
660.712
 20
318.172
 30
0.000000
  70
    32
  0
VERTEX
  8
0
  5
31F0C
 10
661.017
 20
315.817
 30
0.000000
  70
    32
  0
VERTEX
  8
0
  5
31F0D
 10
661.390
 20
313.479
 30
0.000000
  70
    32
  0
VERTEX
  8
0
  5
31F0E
 10
661.830
 20
311.162
 30
0.000000
  70
    32
  0
VERTEX
  8
0
  5
31F0F
 10
662.336
 20
308.869
 30
0.000000
  70
    32
  0
VERTEX
  8
0
  5
31F10
 10
662.908
 20
306.603
 30
0.000000
  70
    32
  0
VERTEX
  8
0
  5
31F11
 10
663.545
 20
304.368
 30
0.000000
  70
    32
  0
VERTEX
  8
0
  5
31F12
 10
664.246
 20
302.166
 30
0.000000
  70
    32
  0
VERTEX
  8
0
  5
31F13
 10
665.009
 20
300.003
 30
0.000000
  70
    32
  0
VERTEX
  8
0
  5
31F14
 10
665.834
 20
297.879
 30
0.000000
  70
    32
  0
VERTEX
  8
0
  5
31F15
 10
666.720
 20
295.799
 30
0.000000
  70
    32
  0
VERTEX
  8
0
  5
31F16
 10
667.665
 20
293.766
 30
0.000000
  70
    32
  0
VERTEX
  8
0
  5
31F17
 10
668.668
 20
291.782
 30
0.000000
  70
    32
  0
VERTEX
  8
0
  5
31F18
 10
669.727
 20
289.850
 30
0.000000
  70
    32
  0
VERTEX
  8
0
  5
31F19
 10
670.841
 20
287.974
 30
0.000000
  70
    32
  0
VERTEX
  8
0
  5
31F1A
 10
672.009
 20
286.156
 30
0.000000
  70
    32
  0
VERTEX
  8
0
  5
31F1B
 10
673.228
 20
284.398
 30
0.000000
  70
    32
  0
VERTEX
  8
0
  5
31F1C
 10
674.496
 20
282.704
 30
0.000000
  70
    32
  0
VERTEX
  8
0
  5
31F1D
 10
675.813
 20
281.076
 30
0.000000
  70
    32
  0
VERTEX
  8
0
  5
31F1E
 10
677.175
 20
279.515
 30
0.000000
  70
    32
  0
SEQEND
  8
0
  5
31F1F
  0
LINE
  5
31A6B
  8
0
 10
737.1748549503327
 20
375.66446559155412
 30
0.0
 11
737.1748549503327
 21
270.35649989891408
 31
0.0
  0
LINE
  5
31A6C
  8
0
 10
677.17485495033259
 20
375.66446559155452
 30
0.0
 11
677.17485495033259
 21
270.35649989891408
 31
0.0
  0
LINE
  5
31A6D
  8
0
 10
737.1748549503327
 20
270.35649989891408
 30
0.0
 11
741.1748549503327
 21
270.35649989891408
 31
0.0
  0
LINE
  5
31A70
  8
0
 10
673.17485495033361
 20
270.35649989891408
 30
0.0
 11
677.17485495033259
 21
270.35649989891408
 31
0.0
  0
LINE
  5
31A73
  8
0
 10
666.81203586095944
 20
285.35649989891408
 30
0.0
 11
666.47567829295065
 21
286.78939092330847
 31
0.0
  0
LINE
  5
31A74
  8
0
 10
667.29042934314839
 20
285.35649989891408
 30
0.0
 11
666.81203586095944
 21
285.35649989891408
 31
0.0
  0
LINE
  5
31A75
  8
0
 10
665.67485495033361
 20
276.35649989891408
 30
0.0
 11
665.67485495033361
 21
288.20062199495487
 31
0.0
  0
ARC
  5
31A77
  8
0
 10
679.93432179246599
 20
280.60649989891408
 30
0.0
 40
13.95553252542488
 50
160.10077669598249
 51
199.89922330401751
  0
LINE
  5
31A78
  8
0
 10
751.1748549503327
 20
276.35649989891408
 30
0.0
 11
751.1748549503327
 21
293.32447221794678
 31
0.0
  0
ARC
  5
31A7A
  8
0
 10
721.92985310066979
 20
280.60649989891408
 30
0.0
 40
29.107422573067531
 50
350.607976384822
 51
9.3920236151780205
  0
POLYLINE
  5
31A7B
  8
0
 66
     1
 10
0.0
 20
0.0
 30
0.0
 70
   128
  0
VERTEX
  5
31C86
  8
0
 10
750.88001840368997
 20
292.67545954213068
 30
0.0
  0
VERTEX
  5
31C87
  8
0
 10
751.03114226755315
 20
289.38616744500951
 30
0.0
  0
VERTEX
  5
31C88
  8
0
 10
750.64708745300766
 20
285.35649989891408
 30
0.0
  0
SEQEND
  5
31C89
  8
0
  0
LINE
  5
31A7C
  8
0
 10
750.64708745300766
 20
285.35649989891408
 30
0.0
 11
747.05928055751792
 21
285.35649989891408
 31
0.0
  0
LINE
  5
31A7D
  8
0
 10
741.70262244765763
 20
275.85649989891408
 30
0.0
 11
741.50401745649651
 21
277.51232579264843
 31
0.0
  0
LINE
  5
31A7E
  8
0
 10
751.04088035411758
 20
275.85649989891408
 30
0.0
 11
741.30882954654851
 21
275.85649989891408
 31
0.0
  0
LINE
  5
31A80
  8
0
 10
673.17485495033361
 20
275.85649989891408
 30
0.0
 11
665.96353008492758
 21
275.85649989891408
 31
0.0
  0
LINE
  5
31A82
  8
0
 10
727.17485495033259
 20
216.35649989891331
 30
0.0
 11
727.17485495033259
 21
354.35649989891408
 31
0.0
  0
LINE
  5
31A84
  8
0
 10
687.1748549503327
 20
216.356499898914
 30
0.0
 11
687.1748549503327
 21
354.35649989891408
 31
0.0
  0
LINE
  5
31A86
  8
0
 10
682.17485495033259
 20
313.0944610024992
 30
0.0
 11
682.17485495033259
 21
257.61853879532867
 31
0.0
  0
LINE
  5
31A87
  8
0
 10
732.17485495033259
 20
257.61853879532867
 30
0.0
 11
732.17485495033259
 21
313.0944610024992
 31
0.0
  0
LINE
  5
31A8B
  8
0
 10
723.6488423257988
 20
210.35649989891391
 30
0.0
 11
723.6488423257988
 21
360.35649989891431
 31
0.0
  0
LINE
  5
31A8D
  8
0
 10
690.70086757486683
 20
210.35649989891431
 30
0.0
 11
690.70086757486661
 21
360.35649989891431
 31
0.0
  0
LINE
  5
31A91
  8
0
 10
400.4912669668438
 20
632.58058693649912
 30
0.0
 11
400.4912669668438
 21
628.58058693649878
 31
0.0
  0
LINE
  5
31A92
  8
0
 10
400.4912669668438
 20
568.58058693649889
 30
0.0
 11
400.4912669668438
 21
564.58058693649889
 31
0.0
  0
LINE
  5
31A93
  8
0
 10
419.92867793532508
 20
628.58058693649878
 30
0.0
 11
419.92867793532508
 21
623.58058693649878
 31
0.0
  0
LINE
  5
31A94
  8
0
 10
419.92867793532508
 20
573.58058693649878
 30
0.0
 11
419.92867793532508
 21
568.58058693649889
 31
0.0
  0
LINE
  5
31A95
  8
0
 10
423.42867793532508
 20
642.58058693649889
 30
0.0
 11
421.4590228207216
 21
642.0528194391735
 31
0.0
  0
LINE
  5
31A96
  8
0
 10
421.4590228207216
 20
633.10835443382416
 30
0.0
 11
423.42867793532508
 21
632.58058693649878
 31
0.0
  0
LINE
  5
31A97
  8
0
 10
421.4590228207216
 20
558.21776784712563
 30
0.0
 11
423.42867793532508
 21
557.08058693649878
 31
0.0
  0
ARC
  5
31A99
  8
0
 10
359.92867793532508
 20
615.05457431196498
 30
0.0
 40
2.500000000000369
 50
104.9999999999944
 51
180.0
  0
LINE
  5
31A9A
  8
0
 10
357.4286779353252
 20
615.05457431196498
 30
0.0
 11
357.4286779353252
 21
582.10659956103279
 31
0.0
  0
ARC
  5
31A9B
  8
0
 10
359.92867793532508
 20
582.10659956103279
 30
0.0
 40
2.500000000000369
 50
180.0
 51
255.00000000000551
  0
LINE
  5
31A9C
  8
0
 10
363.4286779353252
 20
618.58058693649889
 30
0.0
 11
359.28163032256907
 21
617.46938887768772
 31
0.0
  0
LINE
  5
31A9D
  8
0
 10
359.28163032256907
 20
579.69178499530983
 30
0.0
 11
363.4286779353252
 21
578.58058693649878
 31
0.0
  0
LINE
  5
31A9E
  8
0
 10
404.69071683174019
 20
623.58058693649878
 30
0.0
 11
404.42867793532412
 21
618.58058693649855
 31
0.0
  0
LINE
  5
31A9F
  8
0
 10
404.42867793532412
 20
578.58058693649855
 30
0.0
 11
404.69071683174019
 21
573.58058693649878
 31
0.0
  0
LINE
  5
31AA1
  8
0
 10
561.42867793532514
 20
653.58058693649843
 30
0.0
 11
443.42867793532508
 21
653.58058693649843
 31
0.0
  0
ARC
  5
31AA2
  8
0
 10
561.42867793532139
 20
642.5805869364948
 30
0.0
 40
11.00000000000364
 50
0.0000000000195413
 51
89.999999999986969
  0
LINE
  5
31AA3
  8
0
 10
572.42867793532514
 20
554.58058693649855
 30
0.0
 11
572.42867793532514
 21
642.58058693649843
 31
0.0
  0
ARC
  5
31AA4
  8
0
 10
561.42867793532139
 20
554.58058693650196
 30
0.0
 40
11.00000000000364
 50
270.00000000001302
 51
359.9999999999805
  0
LINE
  5
31AA5
  8
0
 10
443.42867793532508
 20
543.58058693649843
 30
0.0
 11
561.42867793532514
 21
543.58058693649843
 31
0.0
  0
ARC
  5
31AA6
  8
0
 10
443.42867793532508
 20
554.58058693649855
 30
0.0
 40
11.000000000000149
 50
180.0
 51
270.0
  0
LINE
  5
31AA7
  8
0
 10
432.42867793532508
 20
642.58058693649843
 30
0.0
 11
432.42867793532508
 21
554.58058693649855
 31
0.0
  0
ARC
  5
31AA8
  8
0
 10
443.42867793532508
 20
642.58058693649843
 30
0.0
 40
11.00000000000008
 50
90.0
 51
180.0
  0
LINE
  5
31AA9
  8
0
 10
549.42867793532605
 20
562.08058693649855
 30
0.0
 11
549.42867793532605
 21
555.08058693649843
 31
0.0
  0
ARC
  5
31AAA
  8
0
 10
554.92867793532514
 20
555.08058693649843
 30
0.0
 40
5.4999999999999707
 50
180.0
 51
0.0
  0
LINE
  5
31AAB
  8
0
 10
560.42867793532423
 20
555.08058693649843
 30
0.0
 11
560.42867793532423
 21
562.08058693649855
 31
0.0
  0
ARC
  5
31AAC
  8
0
 10
554.92867793532514
 20
562.08058693649855
 30
0.0
 40
5.4999999999999707
 50
0.0
 51
180.0
  0
LINE
  5
31AAD
  8
0
 10
560.42867793532423
 20
635.08058693649843
 30
0.0
 11
560.42867793532423
 21
642.08058693649855
 31
0.0
  0
ARC
  5
31AAE
  8
0
 10
554.92867793532514
 20
642.08058693649855
 30
0.0
 40
5.4999999999999707
 50
0.0
 51
180.0
  0
LINE
  5
31AAF
  8
0
 10
549.42867793532605
 20
642.08058693649855
 30
0.0
 11
549.42867793532605
 21
635.08058693649843
 31
0.0
  0
ARC
  5
31AB0
  8
0
 10
554.92867793532514
 20
635.08058693649843
 30
0.0
 40
5.4999999999999707
 50
180.0
 51
0.0
  0
LINE
  5
31AB1
  8
0
 10
455.42867793532417
 20
555.08058693649843
 30
0.0
 11
455.42867793532417
 21
562.08058693649855
 31
0.0
  0
ARC
  5
31AB2
  8
0
 10
449.92867793532508
 20
562.08058693649855
 30
0.0
 40
5.4999999999999707
 50
0.0
 51
180.0
  0
LINE
  5
31AB3
  8
0
 10
444.42867793532599
 20
562.08058693649855
 30
0.0
 11
444.42867793532599
 21
555.08058693649843
 31
0.0
  0
ARC
  5
31AB4
  8
0
 10
449.92867793532508
 20
555.08058693649843
 30
0.0
 40
5.4999999999999707
 50
180.0
 51
0.0
  0
LINE
  5
31AB5
  8
0
 10
444.42867793532599
 20
642.08058693649855
 30
0.0
 11
444.42867793532599
 21
635.08058693649843
 31
0.0
  0
ARC
  5
31AB6
  8
0
 10
449.92867793532508
 20
635.08058693649843
 30
0.0
 40
5.4999999999999707
 50
180.0
 51
0.0
  0
LINE
  5
31AB7
  8
0
 10
455.42867793532417
 20
635.08058693649843
 30
0.0
 11
455.42867793532417
 21
642.08058693649855
 31
0.0
  0
ARC
  5
31AB8
  8
0
 10
449.92867793532508
 20
642.08058693649855
 30
0.0
 40
5.4999999999999707
 50
0.0
 51
180.0
  0
LINE
  5
31AC4
  8
0
 10
454.82765742089111
 20
564.58058693649855
 30
0.0
 11
445.029698449759
 21
564.58058693649855
 31
0.0
  0
LINE
  5
31AC5
  8
0
 10
454.82765742089111
 20
632.58058693649843
 30
0.0
 11
445.029698449759
 21
632.58058693649843
 31
0.0
  0
LINE
  5
31AC7
  8
0
 10
400.4912669668438
 20
628.58058693649878
 30
0.0
 11
432.42867793532508
 21
628.58058693649855
 31
0.0
  0
LINE
  5
31AC8
  8
0
 10
432.42867793532508
 20
632.58058693649878
 30
0.0
 11
400.4912669668438
 21
632.58058693649878
 31
0.0
  0
LINE
  5
31ACA
  8
0
 10
400.4912669668438
 20
568.58058693649889
 30
0.0
 11
432.42867793532508
 21
568.58058693649855
 31
0.0
  0
LINE
  5
31ACB
  8
0
 10
432.42867793532508
 20
564.58058693649855
 30
0.0
 11
400.4912669668438
 21
564.58058693649889
 31
0.0
  0
LINE
  5
31AD0
  8
0
 10
432.42867793532508
 20
642.58058693649889
 30
0.0
 11
423.42867793532508
 21
642.58058693649889
 31
0.0
  0
ARC
  5
31AD1
  8
0
 10
424.2014365993727
 20
632.5949496841738
 30
0.0
 40
9.8474429998794673
 50
73.829899922824737
 51
106.17010007717521
  0
POLYLINE
  5
31AD2
  8
0
 66
     1
 10
0.0
 20
0.0
 30
0.0
 70
   128
  0
VERTEX
  5
31C8A
  8
0
 10
426.9438503780238
 20
642.0528194391735
 30
0.0
  0
VERTEX
  5
31C8B
  8
0
 10
428.3249979346183
 20
642.21927379784722
 30
0.0
  0
VERTEX
  5
31C8C
  8
0
 10
432.50053852838113
 20
642.41326748119275
 30
0.0
  0
SEQEND
  5
31C8D
  8
0
  0
POLYLINE
  5
31AD3
  8
0
 66
     1
 10
0.0
 20
0.0
 30
0.0
 70
   128
  0
VERTEX
  5
31C8E
  8
0
 10
432.42867793532508
 20
632.7553316654288
 30
0.0
  0
VERTEX
  5
31C8F
  8
0
 10
428.3249979346183
 20
632.94190007515033
 30
0.0
  0
VERTEX
  5
31C90
  8
0
 10
426.9438503780238
 20
633.10835443382416
 30
0.0
  0
SEQEND
  5
31C91
  8
0
  0
LINE
  5
31AD4
  8
0
 10
426.9438503780238
 20
642.0528194391735
 30
0.0
 11
426.9438503780238
 21
633.10835443382416
 31
0.0
  0
ARC
  5
31AD5
  8
0
 10
424.2014365993727
 20
642.56503530836233
 30
0.0
 40
9.8463011581095294
 50
253.82797329773541
 51
286.17202670226447
  0
LINE
  5
31AD6
  8
0
 10
421.4590228207216
 20
642.0528194391735
 30
0.0
 11
421.4590228207216
 21
633.10835443382416
 31
0.0
  0
ARC
  5
31AD7
  8
0
 10
432.00098848862029
 20
573.87361589034538
 30
0.0
 40
16.452362256589069
 50
252.0985518878974
 51
271.4896074278542
  0
LINE
  5
31AD8
  8
0
 10
426.9438503780238
 20
564.58058693649889
 30
0.0
 11
426.9438503780238
 21
558.21776784712563
 31
0.0
  0
ARC
  5
31AD9
  8
0
 10
424.2014365993727
 20
562.35967970845684
 30
0.0
 40
4.9675212330065213
 50
236.4909385731851
 51
303.50906142681492
  0
LINE
  5
31ADA
  8
0
 10
421.4590228207216
 20
564.58058693649889
 30
0.0
 11
421.4590228207216
 21
558.21776784712563
 31
0.0
  0
LINE
  5
31ADB
  8
0
 10
432.42867793532508
 20
557.08058693649878
 30
0.0
 11
423.42867793532508
 21
557.08058693649878
 31
0.0
  0
LINE
  5
31ADD
  8
0
 10
432.42867793532508
 20
618.58058693649855
 30
0.0
 11
363.4286779353252
 21
618.58058693649889
 31
0.0
  0
LINE
  5
31ADE
  8
0
 10
432.42867793532508
 20
578.58058693649855
 30
0.0
 11
363.4286779353252
 21
578.58058693649878
 31
0.0
  0
LINE
  5
31ADF
  8
0
 10
432.42867793532508
 20
623.58058693649878
 30
0.0
 11
404.69071683174019
 21
623.58058693649878
 31
0.0
  0
LINE
  5
31AE0
  8
0
 10
404.69071683174019
 20
573.58058693649878
 30
0.0
 11
432.42867793532508
 21
573.58058693649866
 31
0.0
  0
LINE
  5
31AE2
  8
0
 10
432.42867793532508
 20
615.05457431196453
 30
0.0
 11
357.4286779353252
 21
615.05457431196498
 31
0.0
  0
LINE
  5
31AE3
  8
0
 10
432.42867793532508
 20
582.10659956103245
 30
0.0
 11
357.4286779353252
 21
582.10659956103279
 31
0.0
  0
LINE
  5
31AE5
  8
1
 10
502.42867793532457
 20
427.59603543154202
 30
0.0
 11
502.42867793532457
 21
365.65866817561982
 31
0.0
  0
LINE
  5
31AE6
  8
1
 10
340.18914240269811
 20
285.35649989891408
 30
0.0
 11
524.66821346795223
 21
285.35649989891408
 31
0.0
  0
LINE
  5
31AE7
  8
1
 10
432.42867793532417
 20
193.11696436628699
 30
0.0
 11
432.42867793532457
 21
347.45815832095832
 31
0.0
  0
LINE
  5
31AE8
  8
1
 10
707.17485495033259
 20
427.59603543154202
 30
0.0
 11
707.17485495033259
 21
193.11696436628611
 31
0.0
  0
LINE
  5
31AE9
  8
1
 10
653.87889190178328
 20
285.35649989891499
 30
0.0
 11
760.4708179988819
 21
285.35649989891499
 31
0.0
  0
LINE
  5
31AEA
  8
1
 10
336.18728927135999
 20
598.58058693649855
 30
0.0
 11
590.96024687951513
 21
598.58058693649855
 31
0.0
  0
LINE
  5
31AEB
  8
1
 10
502.42867793532457
 20
526.34105140386964
 30
0.0
 11
502.42867793532457
 21
670.82012246912655
 31
0.0
  0
LINE
  5
31AEC
  8
1
 10
432.42867793532457
 20
532.15813316044751
 30
0.0
 11
432.42867793532457
 21
665.00304071254959
 31
0.0
  0
LINE
  5
31AED
  8
1
 10
195.52230772896289
 20
427.59603543154202
 30
0.0
 11
195.52230772896289
 21
193.11696436628611
 31
0.0
  0
LINE
  5
31AEE
  8
1
 10
248.8182707775122
 20
285.35649989891499
 30
0.0
 11
142.2263446804136
 21
285.35649989891499
 31
0.0
  0
LINE
  5
31AEF
  8
1
 10
546.25220190047094
 20
635.08058693649855
 30
0.0
 11
563.60515397017843
 21
635.08058693649855
 31
0.0
  0
LINE
  5
31AF0
  8
1
 10
554.92867793532469
 20
627.40411090164525
 30
0.0
 11
554.92867793532469
 21
650.75706297135184
 31
0.0
  0
LINE
  5
31AF1
  8
1
 10
546.25220190047094
 20
642.08058693649855
 30
0.0
 11
563.60515397017843
 21
642.08058693649855
 31
0.0
  0
LINE
  5
31AF2
  8
1
 10
441.25220190047088
 20
635.08058693649855
 30
0.0
 11
458.60515397017838
 21
635.08058693649855
 31
0.0
  0
LINE
  5
31AF3
  8
1
 10
449.92867793532469
 20
627.40411090164525
 30
0.0
 11
449.92867793532469
 21
650.75706297135184
 31
0.0
  0
LINE
  5
31AF4
  8
1
 10
441.25220190047088
 20
642.08058693649855
 30
0.0
 11
458.60515397017838
 21
642.08058693649855
 31
0.0
  0
LINE
  5
31AF5
  8
1
 10
546.25220190047094
 20
562.08058693649855
 30
0.0
 11
563.60515397017843
 21
562.08058693649855
 31
0.0
  0
LINE
  5
31AF6
  8
1
 10
554.92867793532469
 20
569.75706297135184
 30
0.0
 11
554.92867793532469
 21
546.40411090164525
 31
0.0
  0
LINE
  5
31AF7
  8
1
 10
546.25220190047094
 20
555.08058693649855
 30
0.0
 11
563.60515397017843
 21
555.08058693649855
 31
0.0
  0
LINE
  5
31AF8
  8
1
 10
441.25220190047088
 20
562.08058693649855
 30
0.0
 11
458.60515397017838
 21
562.08058693649855
 31
0.0
  0
LINE
  5
31AF9
  8
1
 10
449.92867793532469
 20
569.75706297135184
 30
0.0
 11
449.92867793532469
 21
546.40411090164525
 31
0.0
  0
LINE
  5
31AFA
  8
1
 10
441.25220190047088
 20
555.08058693649855
 30
0.0
 11
458.60515397017838
 21
555.08058693649855
 31
0.0
  0
ARC
  5
31AFB
  8
0
 10
432.42867793532417
 20
285.35649989890948
 30
0.0
 40
23.5
 50
219.66501290757671
 51
320.33498709242321
  0
ARC
  5
31AFC
  8
0
 10
432.42867793532417
 20
285.35649989890948
 30
0.0
 40
74.999999999999957
 50
91.412676761914568
 51
29.010803238101911
  0
LINE
  5
31AFD
  8
0
 10
487.25511475957308
 20
258.61585994477542
 30
0.0
 11
459.83945181506829
 21
271.98737219994911
 31
0.0
  0
ARC
  5
31AFE
  8
0
 10
432.42867793532417
 20
285.35649989890948
 30
0.0
 40
27.999999999999989
 50
211.99310639774461
 51
328.00689360225471
  0
LINE
  5
31AFF
  8
0
 10
381.85738600946661
 20
251.24573278719339
 30
0.0
 11
409.10700585848372
 21
269.62583345607442
 31
0.0
  0
ARC
  5
31B00
  8
0
 10
432.42867793532417
 20
285.35649989890948
 30
0.0
 40
60.999999999999979
 50
96.973830848356371
 51
22.99777446406096
  0
LINE
  5
31B02
  8
0
 10
379.6011283044736
 20
315.85649989891039
 30
0.0
 11
407.29099136389277
 21
299.86975000772668
 31
0.0
  0
ARC
  5
31B04
  8
0
 10
432.42867793532417
 20
285.35649989890948
 30
0.0
 40
56.912056908819331
 50
150.00000000000051
 51
214.00000000000529
  0
ARC
  5
31B05
  8
0
 10
432.42867793532417
 20
285.35649989890948
 30
0.0
 40
56.912056908819338
 50
270.0
 51
334.00000000000142
  0
ARC
  5
31B06
  8
0
 10
432.42867793532417
 20
285.35649989890948
 30
0.0
 40
66.015000000000327
 50
94.679561899922476
 51
25.484173933923451
  0
LINE
  5
31B07
  8
0
 10
432.42867793532508
 20
257.22548045070653
 30
0.0
 11
432.42867793532508
 21
224.67209725052359
 31
0.0
  0
LINE
  5
31B2A
  8
0
 10
146.52230772896289
 20
279.35649989891499
 30
0.0
 11
146.52230772896289
 21
291.35649989891499
 31
0.0
  0
LINE
  5
31B2B
  8
0
 10
144.52230772896289
 20
289.35649989891499
 30
0.0
 11
146.52230772896289
 21
291.35649989891499
 31
0.0
  0
LINE
  5
31B2C
  8
0
 10
144.52230772896289
 20
281.35649989891499
 30
0.0
 11
146.52230772896289
 21
279.35649989891499
 31
0.0
  0
LINE
  5
31B2D
  8
0
 10
151.5223077289638
 20
279.35649989891499
 30
0.0
 11
146.52230772896289
 21
279.35649989891499
 31
0.0
  0
LINE
  5
31B2E
  8
3
 10
151.5223077289638
 20
280.30349989891499
 30
0.0
 11
145.5753077289628
 21
280.30349989891499
 31
0.0
  0
LINE
  5
31B2F
  8
3
 10
151.5223077289638
 20
290.40949989891499
 30
0.0
 11
145.575307728963
 21
290.40949989891499
 31
0.0
  0
LINE
  5
31B30
  8
0
 10
151.5223077289638
 20
291.35649989891499
 30
0.0
 11
146.52230772896289
 21
291.35649989891499
 31
0.0
  0
LINE
  5
31B31
  8
0
 10
144.52230772896289
 20
281.35649989891499
 30
0.0
 11
144.52230772896289
 21
289.35649989891499
 31
0.0
  0
LINE
  5
31B39
  8
0
 10
756.1748549503335
 20
279.35649989891408
 30
0.0
 11
756.1748549503335
 21
291.35649989891408
 31
0.0
  0
LINE
  5
31B3A
  8
0
 10
758.17485495033361
 20
289.35649989891408
 30
0.0
 11
756.1748549503335
 21
291.35649989891408
 31
0.0
  0
LINE
  5
31B3B
  8
0
 10
758.17485495033361
 20
281.35649989891408
 30
0.0
 11
756.1748549503335
 21
279.35649989891408
 31
0.0
  0
LINE
  5
31B3C
  8
0
 10
751.1748549503327
 20
279.35649989891408
 30
0.0
 11
756.1748549503335
 21
279.35649989891408
 31
0.0
  0
LINE
  5
31B3D
  8
3
 10
751.1748549503327
 20
280.30349989891408
 30
0.0
 11
757.12185495033373
 21
280.30349989891408
 31
0.0
  0
LINE
  5
31B3E
  8
3
 10
751.1748549503327
 20
290.40949989891408
 30
0.0
 11
757.1218549503335
 21
290.40949989891408
 31
0.0
  0
LINE
  5
31B3F
  8
0
 10
751.1748549503327
 20
291.35649989891408
 30
0.0
 11
756.1748549503335
 21
291.35649989891408
 31
0.0
  0
LINE
  5
31B40
  8
0
 10
758.17485495033361
 20
281.35649989891408
 30
0.0
 11
758.17485495033361
 21
289.35649989891408
 31
0.0
  0
CIRCLE
  5
31BBF
  8
0
 10
502.42867793532457
 20
598.58058693649855
 30
0.0
 40
31.175000000000001
  0
LINE
  5
31BC0
  8
0
 10
426.42867793532508
 20
647.5805869364998
 30
0.0
 11
433.63071896419291
 21
647.5805869364998
 31
0.0
  0
LINE
  5
31BC2
  8
0
 10
428.42867793532508
 20
649.5805869364998
 30
0.0
 11
426.42867793532508
 21
647.5805869364998
 31
0.0
  0
LINE
  5
31BC3
  8
0
 10
426.42867793532508
 20
642.58058693649889
 30
0.0
 11
426.42867793532508
 21
647.5805869364998
 31
0.0
  0
LINE
  5
31BC4
  8
3
 10
427.3756779353252
 20
642.58058693649889
 30
0.0
 11
427.3756779353252
 21
648.52758693649992
 31
0.0
  0
LINE
  5
31BC7
  8
0
 10
428.42867793532508
 20
649.5805869364998
 30
0.0
 11
434.94339656108758
 21
649.5805869364998
 31
0.0
  0
TEXT
  5
31C25
  8
0
 62
     3
 10
0.0
 20
0.0
 30
0.0
 40
10.0
  1
CAF5-150SSL-H
  7
STANDARD1
  0
ENDSEC
  0
EOF
