  0
SECTION
  2
HEADER
  9
$ACADVER
  1
AC1009
  9
$INSBASE
 10
0.0
 20
0.0
 30
0.0
  9
$EXTMIN
 10
0.0
 20
-2.960436562073669
 30
0.0
  9
$EXTMAX
 10
913.54326156009063
 20
720.01901536802586
 30
0.0
  9
$LIMMIN
 10
0.0
 20
0.0
  9
$LIMMAX
 10
375.0
 20
270.0
  9
$ORTHOMODE
 70
     1
  9
$REGENMODE
 70
     1
  9
$FILLMODE
 70
     1
  9
$QTEXTMODE
 70
     0
  9
$MIRRTEXT
 70
     1
  9
$DRAGMODE
 70
     2
  9
$LTSCALE
 40
10.0
  9
$OSMODE
 70
  3071
  9
$ATTMODE
 70
     1
  9
$TEXTSIZE
 40
5.0
  9
$TRACEWID
 40
0.05
  9
$TEXTSTYLE
  7
STANDARD
  9
$CLAYER
  8
0
  9
$CELTYPE
  6
BYLAYER
  9
$CECOLOR
 62
     6
  9
$DIMSCALE
 40
2.0
  9
$DIMASZ
 40
3.0
  9
$DIMEXO
 40
2.0
  9
$DIMDLI
 40
0.38
  9
$DIMRND
 40
0.0
  9
$DIMDLE
 40
0.0
  9
$DIMEXE
 40
2.0
  9
$DIMTP
 40
0.0
  9
$DIMTM
 40
0.0
  9
$DIMTXT
 40
3.2000000000000002
  9
$DIMCEN
 40
0.0
  9
$DIMTSZ
 40
0.0
  9
$DIMTOL
 70
     0
  9
$DIMLIM
 70
     0
  9
$DIMTIH
 70
     0
  9
$DIMTOH
 70
     0
  9
$DIMSE1
 70
     0
  9
$DIMSE2
 70
     0
  9
$DIMTAD
 70
     1
  9
$DIMZIN
 70
     8
  9
$DIMBLK
  1

  9
$DIMASO
 70
     0
  9
$DIMSHO
 70
     0
  9
$DIMPOST
  1

  9
$DIMAPOST
  1

  9
$DIMALT
 70
     0
  9
$DIMALTD
 70
     2
  9
$DIMALTF
 40
25.399999999999999
  9
$DIMLFAC
 40
1.0
  9
$DIMTOFL
 70
     0
  9
$DIMTVP
 40
1.6000000000000001
  9
$DIMTIX
 70
     1
  9
$DIMSOXD
 70
     0
  9
$DIMSAH
 70
     0
  9
$DIMBLK1
  1

  9
$DIMBLK2
  1

  9
$DIMSTYLE
  2
STANDARD
  9
$DIMCLRD
 70
     0
  9
$DIMCLRE
 70
     0
  9
$DIMCLRT
 70
     0
  9
$DIMTFAC
 40
1.0
  9
$DIMGAP
 40
1.1999999999999991
  9
$LUNITS
 70
     2
  9
$LUPREC
 70
     4
  9
$SKETCHINC
 40
0.1
  9
$FILLETRAD
 40
0.0
  9
$AUNITS
 70
     0
  9
$AUPREC
 70
     4
  9
$MENU
  1
ACAD
  9
$ELEVATION
 40
0.0
  9
$PELEVATION
 40
0.0
  9
$THICKNESS
 40
0.0
  9
$LIMCHECK
 70
     0
  9
$BLIPMODE
 70
     0
  9
$CHAMFERA
 40
0.0
  9
$CHAMFERB
 40
0.0
  9
$SKPOLY
 70
     0
  9
$TDCREATE
 40
2448055.7149187499
  9
$TDUPDATE
 40
2456598.5602169558
  9
$TDINDWG
 40
3.0431510764
  9
$TDUSRTIMER
 40
3.0431510764
  9
$USRTIMER
 70
     1
  9
$ANGBASE
 50
0.0
  9
$ANGDIR
 70
     0
  9
$PDMODE
 70
     0
  9
$PDSIZE
 40
0.0
  9
$PLINEWID
 40
0.0
  9
$COORDS
 70
     1
  9
$SPLFRAME
 70
     0
  9
$SPLINETYPE
 70
     6
  9
$SPLINESEGS
 70
     8
  9
$ATTDIA
 70
     0
  9
$ATTREQ
 70
     1
  9
$HANDLING
 70
     1
  9
$HANDSEED
  5
2F85D
  9
$SURFTAB1
 70
     6
  9
$SURFTAB2
 70
     6
  9
$SURFTYPE
 70
     6
  9
$SURFU
 70
     6
  9
$SURFV
 70
     6
  9
$UCSNAME
  2

  9
$UCSORG
 10
0.0
 20
0.0
 30
0.0
  9
$UCSXDIR
 10
1.0
 20
0.0
 30
0.0
  9
$UCSYDIR
 10
0.0
 20
1.0
 30
0.0
  9
$PUCSNAME
  2

  9
$PUCSORG
 10
0.0
 20
0.0
 30
0.0
  9
$PUCSXDIR
 10
1.0
 20
0.0
 30
0.0
  9
$PUCSYDIR
 10
0.0
 20
1.0
 30
0.0
  9
$USERI1
 70
     0
  9
$USERI2
 70
     0
  9
$USERI3
 70
     0
  9
$USERI4
 70
     0
  9
$USERI5
 70
     0
  9
$USERR1
 40
0.0
  9
$USERR2
 40
0.0
  9
$USERR3
 40
0.0
  9
$USERR4
 40
0.0
  9
$USERR5
 40
0.0
  9
$WORLDVIEW
 70
     1
  9
$SHADEDGE
 70
     3
  9
$SHADEDIF
 70
    70
  9
$TILEMODE
 70
     1
  9
$MAXACTVP
 70
    16
  9
$PLIMCHECK
 70
     0
  9
$PEXTMIN
 10
1.0000000000000000E+020
 20
1.0000000000000000E+020
 30
1.0000000000000000E+020
  9
$PEXTMAX
 10
-1.0000000000000000E+020
 20
-1.0000000000000000E+020
 30
-1.0000000000000000E+020
  9
$PLIMMIN
 10
0.0
 20
0.0
  9
$PLIMMAX
 10
12.0
 20
9.0
  9
$UNITMODE
 70
     0
  9
$VISRETAIN
 70
     0
  9
$PLINEGEN
 70
     1
  9
$PSLTSCALE
 70
     0
  0
ENDSEC
  0
SECTION
  2
TABLES
  0
TABLE
  2
VPORT
 70
     1
  0
VPORT
  2
*ACTIVE
 70
     0
 10
0.0
 20
0.0
 11
1.0
 21
1.0
 12
476.80599538743309
 22
358.52631589138502
 13
0.0
 23
0.0
 14
5.0
 24
5.0
 15
10.0
 25
10.0
 16
0.0
 26
0.0
 36
1.0
 17
0.0
 27
0.0
 37
0.0
 40
729.51391692977541
 41
1.831871345029239
 42
50.0
 43
0.0
 44
0.0
 50
0.0
 51
0.0
 71
     0
 72
   500
 73
     1
 74
     1
 75
     0
 76
     0
 77
     0
 78
     2
  0
ENDTAB
  0
TABLE
  2
LTYPE
 70
     3
  0
LTYPE
  2
CONTINUOUS
 70
     0
  3
実線
 72
    65
 73
     0
 40
0.0
  0
LTYPE
  2
CENTER
 70
     0
  3
____ _ ____ _ ____ _ ____ _ ____ _ ____ _ ____
 72
    65
 73
     4
 40
2.0
 49
1.25
 49
-0.25
 49
0.25
 49
-0.25
  0
LTYPE
  2
PHANTOM2
 70
     0
  3
___ _ _ ___ _ _ ___ _ _ ___ _ _
 72
    65
 73
     6
 40
1.25
 49
0.625
 49
-0.125
 49
0.125
 49
-0.125
 49
0.125
 49
-0.125
  0
ENDTAB
  0
TABLE
  2
LAYER
 70
     4
  0
LAYER
  2
0
 70
     0
 62
     7
  6
CONTINUOUS
  0
LAYER
  2
1
 70
     0
 62
     1
  6
CENTER
  0
LAYER
  2
DEFPOINTS
 70
     0
 62
     7
  6
CONTINUOUS
  0
LAYER
  2
3
 70
     0
 62
     3
  6
CONTINUOUS
  0
ENDTAB
  0
TABLE
  2
STYLE
 70
     3
  0
STYLE
  2
STANDARD
 70
     0
 40
0.0
 41
1.0
 50
0.0
 71
     0
 42
5.0
  3
simplex.shx
  4
bigfont.shx
  0
STYLE
  2
07500
 70
     0
 40
0.0
 41
0.75
 50
0.0
 71
     0
 42
0.2
  3
simplex.shx
  4
bigfont.shx
  0
STYLE
  2
STANDARD1
 70
     0
 40
0.0
 41
1.0
 50
0.0
 71
     0
 42
3.0
  3
txt
  4

  0
ENDTAB
  0
TABLE
  2
VIEW
 70
     2
  0
VIEW
  2
ALL
 70
     0
 40
270.0
 10
220.99159663865549
 20
135.0
 41
0.0
 11
0.0
 21
0.0
 31
1.0
 12
0.0
 22
0.0
 32
0.0
 42
0.0
 43
0.0
 44
0.0
 50
0.0
 71
     0
  0
VIEW
  2
OLE1
 70
     0
 40
168.2487151179721
 10
2892.3009567448912
 20
702.51600084347126
 41
162.5749581879237
 11
0.0
 21
0.0
 31
1.0
 12
0.0
 22
0.0
 32
0.0
 42
50.0
 43
0.0
 44
0.0
 50
0.0
 71
     0
  0
ENDTAB
  0
TABLE
  2
UCS
 70
     0
  0
ENDTAB
  0
TABLE
  2
APPID
 70
    48
  0
APPID
  2
ACAD
 70
     0
  0
APPID
  2
DCO15
 70
     0
  0
APPID
  2
GENIUS_GENOREF_13
 70
     0
  0
APPID
  2
GENIUS_GENOENT_13
 70
     0
  0
APPID
  2
GENIUS_GENBH_13
 70
     0
  0
APPID
  2
GENIUS_GENOBJ_13
 70
     0
  0
APPID
  2
GENIUS_GENODEF_13
 70
     0
  0
APPID
  2
GENIUS_GENOLIS_13
 70
     0
  0
APPID
  2
GENIUS_GENOBJ-NBEHI-BHF_13
 70
     0
  0
APPID
  2
GENIUS_GENOBJ-NBEHI-BHB_13
 70
     0
  0
APPID
  2
GENIUS_GENOBJ-F-PART_13
 70
     0
  0
APPID
  2
GENIUS_GEFSTDP_13
 70
     0
  0
APPID
  2
GENIUS_GENOBJ-N-RSSYM_13
 70
     0
  0
APPID
  2
GENIUS_GENSYMENT_13
 70
     0
  0
APPID
  2
GENIUS_GENOBJ-N-TIT_13
 70
     0
  0
APPID
  2
GENIUS_GENTITLE_13
 70
     0
  0
APPID
  2
GENIUS_GENZVEED_13
 70
     0
  0
APPID
  2
GENIUS_GENOBJ-N-LEADER_13
 70
     0
  0
APPID
  2
GENIUS_GENOBJ-N-FIL_13
 70
     0
  0
APPID
  2
GENIUS_GENOBJ-N-SEC_13
 70
     0
  0
APPID
  2
GENIUS_GENOBJ-N-CRS_13
 70
     0
  0
APPID
  2
GENIUS_GENOBJ-N-ZOO_13
 70
     0
  0
APPID
  2
GENIUS_GENZOO_13
 70
     0
  0
APPID
  2
GENIUS_GENOBJ-F-TOL_13
 70
     0
  0
APPID
  2
GENIUS_GENFIL_13
 70
     0
  0
APPID
  2
GENIUS_GENOBJ-N-CHA_13
 70
     0
  0
APPID
  2
_CALL_MAC$
 70
     0
  0
APPID
  2
ASM_BASE
 70
     0
  0
APPID
  2
ASM_EXPLO_VER_2_00
 70
     0
  0
APPID
  2
ASM_CADM_VER_12_00
 70
     0
  0
APPID
  2
ASM_BASEFORO
 70
     0
  0
APPID
  2
ASM_BASETRAVI
 70
     0
  0
APPID
  2
ASM_BASETRAVI1
 70
     0
  0
APPID
  2
ASM_GRUPPI
 70
     0
  0
APPID
  2
ASM_CADM_ALBERO
 70
     0
  0
APPID
  2
ASM_GOLE
 70
     0
  0
APPID
  2
ACAD_MLEADERVER
 70
     0
  0
APPID
  2
ACAD_DSTYLE_DIMJAG
 70
     0
  0
APPID
  2
ACAD_DSTYLE_DIMTALN
 70
     0
  0
APPID
  2
ACAD_EXEMPT_FROM_CAD_STANDARDS
 70
     0
  0
APPID
  2
ACAD_DSTYLE_DIMRADIAL_EXTENSION
 70
     0
  0
APPID
  2
ACAD_PSEXT
 70
     0
  0
APPID
  2
ACAD_DSTYLE_DIMBREAK
 70
     0
  0
APPID
  2
ACAECLAYERSTANDARD
 70
     0
  0
APPID
  2
ACCMTRANSPARENCY
 70
     0
  0
APPID
  2
GRADIENTCOLOR1ACI
 70
     0
  0
APPID
  2
GRADIENTCOLOR2ACI
 70
     0
  0
APPID
  2
ACAD_NAV_VCDISPLAY
 70
     0
  0
ENDTAB
  0
TABLE
  2
DIMSTYLE
 70
     1
  0
DIMSTYLE
  2
STANDARD
 70
     0
  3

  4

  5

  6

  7

 40
1.0
 41
0.18
 42
0.0625
 43
0.38
 44
0.18
 45
0.0
 46
0.0
 47
0.0
 48
0.0
140
0.18
141
0.09
142
0.0
143
25.399999999999999
144
1.0
145
0.0
146
1.0
147
0.09
 71
     0
 72
     0
 73
     1
 74
     1
 75
     0
 76
     0
 77
     0
 78
     0
170
     0
171
     2
172
     0
173
     0
174
     0
175
     0
176
     0
177
     0
178
     0
  0
ENDTAB
  0
ENDSEC
  0
SECTION
  2
BLOCKS
  0
BLOCK
  8
0
  2
$MODEL_SPACE
 70
     0
 10
0.0
 20
0.0
 30
0.0
  3
$MODEL_SPACE
  1

  0
ENDBLK
  5
36
  8
0
  0
BLOCK
 67
     1
  8
0
  2
$PAPER_SPACE
 70
     0
 10
0.0
 20
0.0
 30
0.0
  3
$PAPER_SPACE
  1

  0
ENDBLK
  5
34
 67
     1
  8
0
  0
ENDSEC
  0
SECTION
  2
ENTITIES
  0
LINE
  5
2EF5A
  8
0
 10
579.33959974753986
 20
475.60981390851703
 30
0.0
 11
579.33959974753986
 21
482.71584985631671
 31
0.0
  0
LINE
  5
2EF5B
  8
0
 10
579.3152922283424
 20
475.56771812814441
 30
0.0
 11
579.33959974753986
 21
475.60981390851703
 31
0.0
  0
LINE
  5
2EF5C
  8
0
 10
579.3152922283424
 20
475.56771812814441
 30
0.0
 11
579.3152922283424
 21
482.71584985631671
 31
0.0
  0
LINE
  5
2EF5D
  8
0
 10
587.92039244282375
 20
482.71584985631671
 30
0.0
 11
587.92039244282375
 21
485.9158593215343
 31
0.0
  0
LINE
  5
2EF5E
  8
0
 10
579.3152922283424
 20
482.71584985631671
 30
0.0
 11
587.92039244282375
 21
482.71584985631671
 31
0.0
  0
LINE
  5
2EF5F
  8
0
 10
579.3152922283424
 20
482.71584985631671
 30
0.0
 11
579.3152922283424
 21
485.9158593215343
 31
0.0
  0
LINE
  5
2EF60
  8
0
 10
447.92039184677759
 20
485.91585932153419
 30
0.0
 11
587.92039244282375
 21
485.9158593215343
 31
0.0
  0
LINE
  5
2EF61
  8
0
 10
569.92039321768425
 20
369.64644593971929
 30
0.0
 11
569.92039321768425
 21
453.93628356832232
 31
0.0
  0
ARC
  5
2EF62
  8
0
 10
559.92039214480235
 20
369.64644625291982
 30
0.0
 40
9.9999999999991473
 50
314.99999999999221
 51
0.0
  0
LINE
  5
2EF63
  8
0
 10
563.69510530340801
 20
359.2790245063897
 30
0.0
 11
566.99145822632454
 21
362.57537929195132
 31
0.0
  0
ARC
  5
2EF65
  8
0
 10
589.92039214481701
 20
453.93628596559569
 30
0.0
 40
20.000000000016819
 50
150.0000000000137
 51
179.99999999998369
  0
LINE
  5
2EF66
  8
0
 10
572.59988277065895
 20
463.9362889327403
 30
0.0
 11
579.3152922283424
 21
475.56771812814441
 31
0.0
  0
LINE
  5
2EF68
  8
0
 10
465.92039107191698
 20
453.93628356832232
 30
0.0
 11
465.92039107191698
 21
369.64644593971929
 31
0.0
  0
ARC
  5
2EF69
  8
0
 10
445.92039214478422
 20
453.93628596559569
 30
0.0
 40
20.000000000016321
 50
0.0000000000162844
 51
29.999999999986279
  0
LINE
  5
2EF6A
  8
0
 10
456.494765866877
 20
475.62093017476758
 30
0.0
 11
463.24090151894228
 21
463.9362889327403
 31
0.0
  0
LINE
  5
2EF6B
  8
0
 10
456.494765866877
 20
475.62093017476758
 30
0.0
 11
456.494765866877
 21
482.71584985631671
 31
0.0
  0
LINE
  5
2EF6C
  8
0
 10
456.494765866877
 20
482.71584985631671
 30
0.0
 11
456.494765866877
 21
485.9158593215343
 31
0.0
  0
LINE
  5
2EF6E
  8
0
 10
468.84932606327669
 20
362.57537929195132
 30
0.0
 11
471.9570228348984
 21
359.46767879503932
 31
0.0
  0
ARC
  5
2EF6F
  8
0
 10
475.92039214479883
 20
369.64644625291982
 30
0.0
 40
9.9999999999985771
 50
180.0
 51
225.0000000000079
  0
POLYLINE
  5
2EF72
  8
0
 66
     1
 10
0.0
 20
0.0
 30
0.0
 70
   128
  0
VERTEX
  5
2F303
  8
0
 10
471.9570228348984
 20
359.46767879503932
 30
0.0
  0
VERTEX
  5
2F304
  8
0
 10
473.26228632438318
 20
358.16241716819968
 30
0.0
  0
VERTEX
  5
2F305
  8
0
 10
474.54521297323839
 20
356.87948865669932
 30
0.0
  0
VERTEX
  5
2F306
  8
0
 10
475.78385709631578
 20
355.64084453362187
 30
0.0
  0
VERTEX
  5
2F307
  8
0
 10
476.95702551710741
 20
354.4676779754754
 30
0.0
  0
VERTEX
  5
2F308
  8
0
 10
478.0446389209045
 20
353.3800645716783
 30
0.0
  0
VERTEX
  5
2F309
  8
0
 10
479.02809320795672
 20
352.39661028462609
 30
0.0
  0
VERTEX
  5
2F30A
  8
0
 10
479.89055751669542
 20
351.53414504456492
 30
0.0
  0
VERTEX
  5
2F30B
  8
0
 10
480.61727969753878
 20
350.80742472636672
 30
0.0
  0
SEQEND
  5
2F30C
  8
0
  0
LINE
  5
2EF74
  8
0
 10
447.92039184677731
 20
482.71584985631671
 30
0.0
 11
447.92039184677731
 21
485.9158593215343
 31
0.0
  0
LINE
  5
2EF75
  8
0
 10
447.92039184677731
 20
482.71584985631671
 30
0.0
 11
456.494765866877
 21
482.71584985631671
 31
0.0
  0
POLYLINE
  5
2EF78
  8
0
 66
     1
 10
0.0
 20
0.0
 30
0.0
 70
   128
  0
VERTEX
  5
2F30D
  8
0
 10
555.07308482039105
 20
350.65700309205022
 30
0.0
  0
VERTEX
  5
2F30E
  8
0
 10
555.79152195561073
 20
351.37544115859242
 30
0.0
  0
VERTEX
  5
2F30F
  8
0
 10
556.64649098026894
 20
352.23041018325063
 30
0.0
  0
VERTEX
  5
2F310
  8
0
 10
557.62336640465389
 20
353.20728374499049
 30
0.0
  0
VERTEX
  5
2F311
  8
0
 10
558.70542912590645
 20
354.28934646624288
 30
0.0
  0
VERTEX
  5
2F312
  8
0
 10
559.87416445124279
 20
355.45808365422448
 30
0.0
  0
VERTEX
  5
2F313
  8
0
 10
561.10957874763142
 20
356.69349795061322
 30
0.0
  0
VERTEX
  5
2F314
  8
0
 10
562.39053099262856
 20
357.97445019561019
 30
0.0
  0
VERTEX
  5
2F315
  8
0
 10
563.69510530340801
 20
359.2790245063897
 30
0.0
  0
SEQEND
  5
2F316
  8
0
  0
LINE
  5
2EF7A
  8
0
 10
486.99699765849249
 20
344.42770397144523
 30
0.0
 11
486.99699765849249
 21
485.9158593215343
 31
0.0
  0
LINE
  5
2EF7B
  8
0
 10
480.61727969753878
 20
350.80742472636672
 30
0.0
 11
486.99699765849249
 21
344.42770397144523
 31
0.0
  0
LINE
  5
2EF7D
  8
0
 10
548.90227182614944
 20
344.4861900978085
 30
0.0
 11
548.90227182614944
 21
485.9158593215343
 31
0.0
  0
LINE
  5
2EF7E
  8
0
 10
548.90227182614944
 20
344.4861900978085
 30
0.0
 11
555.07308482039105
 21
350.65700309205022
 31
0.0
  0
POLYLINE
  5
2EF80
  8
0
 66
     1
 10
0.0
 20
0.0
 30
0.0
 70
   128
  0
VERTEX
  5
2F317
  8
0
 10
535.42039221930645
 20
326.97803163754912
 30
0.0
  0
VERTEX
  5
2F318
  8
0
 10
537.05870969998966
 20
329.81567932146748
 30
0.0
  0
VERTEX
  5
2F319
  8
0
 10
538.67867081272743
 20
332.62153630930152
 30
0.0
  0
VERTEX
  5
2F31A
  8
0
 10
540.2621296684755
 20
335.36416656424439
 30
0.0
  0
SEQEND
  5
2F31B
  8
0
  0
LINE
  5
2EF81
  8
0
 10
535.42039221930645
 20
326.97803163754912
 30
0.0
 11
535.42039221930645
 21
485.9158593215343
 31
0.0
  0
LINE
  5
2EF82
  8
0
 10
540.2621296684755
 20
335.36416656424439
 30
0.0
 11
541.85131615805756
 21
337.43523431330141
 31
0.0
  0
POLYLINE
  5
2EF83
  8
0
 66
     1
 10
0.0
 20
0.0
 30
0.0
 70
   128
  0
VERTEX
  5
2F31C
  8
0
 10
541.85131615805756
 20
337.43523431330141
 30
0.0
  0
VERTEX
  5
2F31D
  8
0
 10
543.2872293035997
 20
338.87114804092022
 30
0.0
  0
VERTEX
  5
2F31E
  8
0
 10
544.63732293653618
 20
340.22124213951793
 30
0.0
  0
VERTEX
  5
2F31F
  8
0
 10
545.88686912167213
 20
341.47078832465382
 30
0.0
  0
VERTEX
  5
2F320
  8
0
 10
547.02223702180515
 20
342.60615529346433
 30
0.0
  0
VERTEX
  5
2F321
  8
0
 10
548.03104004669319
 20
343.61495785269108
 30
0.0
  0
VERTEX
  5
2F322
  8
0
 10
548.90227182614944
 20
344.4861900978085
 30
0.0
  0
SEQEND
  5
2F323
  8
0
  0
LINE
  5
2EF85
  8
0
 10
500.42039207029478
 20
326.97803163754912
 30
0.0
 11
500.42039207029478
 21
485.9158593215343
 31
0.0
  0
POLYLINE
  5
2EF86
  8
0
 66
     1
 10
0.0
 20
0.0
 30
0.0
 70
   128
  0
VERTEX
  5
2F324
  8
0
 10
495.57865462112562
 20
335.36416656424439
 30
0.0
  0
VERTEX
  5
2F325
  8
0
 10
497.1621134768738
 20
332.62153630930152
 30
0.0
  0
VERTEX
  5
2F326
  8
0
 10
498.7820745896114
 20
329.81567932146748
 30
0.0
  0
VERTEX
  5
2F327
  8
0
 10
500.42039207029478
 20
326.97803163754912
 30
0.0
  0
SEQEND
  5
2F328
  8
0
  0
LINE
  5
2EF87
  8
0
 10
493.9894681315435
 20
337.43523431330141
 30
0.0
 11
495.57865462112562
 21
335.36416656424439
 31
0.0
  0
POLYLINE
  5
2EF88
  8
0
 66
     1
 10
0.0
 20
0.0
 30
0.0
 70
   128
  0
VERTEX
  5
2F329
  8
0
 10
486.99699765849249
 20
344.42770397144523
 30
0.0
  0
VERTEX
  5
2F32A
  8
0
 10
487.86705038356911
 20
343.5576531090137
 30
0.0
  0
VERTEX
  5
2F32B
  8
0
 10
488.87074976074831
 20
342.55395280051198
 30
0.0
  0
VERTEX
  5
2F32C
  8
0
 10
489.99741352009909
 20
341.4272890411612
 30
0.0
  0
VERTEX
  5
2F32D
  8
0
 10
491.23504622686039
 20
340.18965680006107
 30
0.0
  0
VERTEX
  5
2F32E
  8
0
 10
492.57046966660158
 20
338.85423266182812
 30
0.0
  0
VERTEX
  5
2F32F
  8
0
 10
493.9894681315435
 20
337.43523431330141
 30
0.0
  0
SEQEND
  5
2F330
  8
0
  0
ARC
  5
2EF8A
  8
0
 10
509.69389483669693
 20
330.91585336107067
 30
0.0
 40
10.000000000000989
 50
210.00000000000031
 51
270.0
  0
LINE
  5
2EF8B
  8
0
 10
509.69389504599701
 20
320.91585369634589
 30
0.0
 11
526.14688924360405
 21
320.91585369634589
 31
0.0
  0
ARC
  5
2EF8C
  8
0
 10
526.14688945290345
 20
330.91585336107067
 30
0.0
 40
10.000000000001069
 50
270.0
 51
329.99999999999972
  0
LINE
  5
2EF8D
  8
0
 10
500.42039207029478
 20
326.97803163754912
 30
0.0
 11
501.03364004600178
 21
325.91585358458718
 31
0.0
  0
LINE
  5
2EF8E
  8
0
 10
534.80714424359928
 20
325.91585358458718
 30
0.0
 11
535.42039221930645
 21
326.97803163754912
 31
0.0
  0
CIRCLE
  5
2EF90
  8
0
 10
517.92039214480064
 20
335.91585336106982
 30
0.0
 40
9.0000000000000568
  0
LINE
  5
2EF91
  8
0
 10
523.40521947327386
 20
326.41585366654363
 30
0.0
 11
512.4355648163272
 21
326.41585366654363
 31
0.0
  0
LINE
  5
2EF94
  8
0
 10
512.4355648163272
 20
345.41585305559602
 30
0.0
 11
523.40521947327386
 21
345.41585305559602
 31
0.0
  0
LINE
  5
2EFDC
  8
0
 10
872.9389031358138
 20
320.91585518646212
 30
0.0
 11
881.13890224472436
 21
320.91585518646212
 31
0.0
  0
LINE
  5
2EFDD
  8
0
 10
877.93890209273252
 20
350.91585451590981
 30
0.0
 11
872.9389031358138
 21
350.91585451590981
 31
0.0
  0
LINE
  5
2EFDE
  8
0
 10
814.73890328184518
 20
320.91585518646212
 30
0.0
 11
822.93890239075574
 21
320.91585518646212
 31
0.0
  0
LINE
  5
2EFDF
  8
0
 10
822.93890239075574
 20
350.91585451590981
 30
0.0
 11
817.93890343383703
 21
350.91585451590981
 31
0.0
  0
LINE
  5
2EFE0
  8
0
 10
807.23890298382196
 20
326.91585523861607
 30
0.0
 11
807.52757945434007
 21
326.41585515665969
 31
0.0
  0
ARC
  5
2EFE3
  8
0
 10
869.86165025709829
 20
238.91585485118509
 30
0.0
 40
2.9999999999990692
 50
269.99999999998698
 51
356.0000000000262
  0
ARC
  5
2EFE4
  8
0
 10
869.86165025709829
 20
432.91585485118679
 30
0.0
 40
2.999999999999118
 50
3.9999999999788138
 51
90.0
  0
LINE
  5
2EFE5
  8
0
 10
826.01615609005842
 20
235.91585336106991
 30
0.0
 11
869.86164943651113
 21
235.91585336106991
 31
0.0
  0
LINE
  5
2EFE6
  8
0
 10
869.86164943651113
 20
435.915856341302
 30
0.0
 11
826.01615609005842
 21
435.915856341302
 31
0.0
  0
ARC
  5
2EFE7
  8
0
 10
826.01615526947137
 20
238.91585485118509
 30
0.0
 40
2.9999999999989981
 50
183.9999999999738
 51
270.00000000000648
  0
ARC
  5
2EFE8
  8
0
 10
826.01615526947137
 20
432.91585485118679
 30
0.0
 40
2.999999999999118
 50
89.999999999986969
 51
176.0000000000212
  0
LINE
  5
2EFE9
  8
0
 10
872.85434277132902
 20
238.70658753293719
 30
0.0
 11
872.9389031358138
 21
239.91585401672091
 31
0.0
  0
LINE
  5
2EFEA
  8
0
 10
872.9389031358138
 20
431.91585568565102
 30
0.0
 11
872.85434277132902
 21
433.12512216943469
 31
0.0
  0
LINE
  5
2EFEB
  8
0
 10
823.02346275524053
 20
433.12512216943469
 30
0.0
 11
822.93890239075574
 21
431.91585568565102
 31
0.0
  0
LINE
  5
2EFEC
  8
0
 10
822.93890239075574
 20
239.91585401672091
 30
0.0
 11
823.02346275524053
 21
238.70658753293719
 31
0.0
  0
LINE
  5
2EFF0
  8
0
 10
790.82422712222501
 20
485.91586081165042
 30
0.0
 11
905.05357840434465
 21
485.91586081165042
 31
0.0
  0
LINE
  5
2EFF5
  8
0
 10
790.82422712222501
 20
482.71585134643283
 30
0.0
 11
905.05357840434465
 21
482.71585134643283
 31
0.0
  0
LINE
  5
2F000
  8
0
 10
901.73500785008821
 20
359.30333537834849
 30
0.0
 11
901.73500785008821
 21
482.71585134643283
 31
0.0
  0
LINE
  5
2F008
  8
0
 10
794.14279767648145
 20
359.30333537834849
 30
0.0
 11
794.14279767648145
 21
482.71585134643283
 31
0.0
  0
LINE
  5
2F009
  8
0
 10
794.11794253961011
 20
362.57538078206738
 30
0.0
 11
794.14279767648145
 21
359.30333537834849
 31
0.0
  0
POLYLINE
  5
2F013
  8
0
 10
904.9599559918006
 20
362.57537993117899
 30
0.0
 66
     1
 70
     8
  0
VERTEX
  8
0
  5
2F349
 10
904.960
 20
362.575
 30
0.000000
  70
    32
  0
VERTEX
  8
0
  5
2F34A
 10
904.960
 20
362.619
 30
0.000000
  70
    32
  0
VERTEX
  8
0
  5
2F34B
 10
904.961
 20
362.663
 30
0.000000
  70
    32
  0
VERTEX
  8
0
  5
2F34C
 10
904.961
 20
362.707
 30
0.000000
  70
    32
  0
VERTEX
  8
0
  5
2F34D
 10
904.961
 20
362.751
 30
0.000000
  70
    32
  0
VERTEX
  8
0
  5
2F34E
 10
904.962
 20
362.796
 30
0.000000
  70
    32
  0
VERTEX
  8
0
  5
2F34F
 10
904.962
 20
362.840
 30
0.000000
  70
    32
  0
VERTEX
  8
0
  5
2F350
 10
904.962
 20
362.886
 30
0.000000
  70
    32
  0
VERTEX
  8
0
  5
2F351
 10
904.963
 20
362.931
 30
0.000000
  70
    32
  0
VERTEX
  8
0
  5
2F352
 10
904.963
 20
362.976
 30
0.000000
  70
    32
  0
VERTEX
  8
0
  5
2F353
 10
904.963
 20
363.022
 30
0.000000
  70
    32
  0
VERTEX
  8
0
  5
2F354
 10
904.963
 20
363.068
 30
0.000000
  70
    32
  0
VERTEX
  8
0
  5
2F355
 10
904.964
 20
363.115
 30
0.000000
  70
    32
  0
VERTEX
  8
0
  5
2F356
 10
904.964
 20
363.161
 30
0.000000
  70
    32
  0
VERTEX
  8
0
  5
2F357
 10
904.964
 20
363.208
 30
0.000000
  70
    32
  0
VERTEX
  8
0
  5
2F358
 10
904.965
 20
363.255
 30
0.000000
  70
    32
  0
VERTEX
  8
0
  5
2F359
 10
904.965
 20
363.303
 30
0.000000
  70
    32
  0
VERTEX
  8
0
  5
2F35A
 10
904.965
 20
363.350
 30
0.000000
  70
    32
  0
VERTEX
  8
0
  5
2F35B
 10
904.966
 20
363.398
 30
0.000000
  70
    32
  0
VERTEX
  8
0
  5
2F35C
 10
904.966
 20
363.446
 30
0.000000
  70
    32
  0
VERTEX
  8
0
  5
2F35D
 10
904.966
 20
363.494
 30
0.000000
  70
    32
  0
VERTEX
  8
0
  5
2F35E
 10
904.966
 20
363.543
 30
0.000000
  70
    32
  0
VERTEX
  8
0
  5
2F35F
 10
904.967
 20
363.591
 30
0.000000
  70
    32
  0
VERTEX
  8
0
  5
2F360
 10
904.967
 20
363.640
 30
0.000000
  70
    32
  0
VERTEX
  8
0
  5
2F361
 10
904.967
 20
363.689
 30
0.000000
  70
    32
  0
VERTEX
  8
0
  5
2F362
 10
904.968
 20
363.739
 30
0.000000
  70
    32
  0
VERTEX
  8
0
  5
2F363
 10
904.968
 20
363.788
 30
0.000000
  70
    32
  0
VERTEX
  8
0
  5
2F364
 10
904.968
 20
363.838
 30
0.000000
  70
    32
  0
VERTEX
  8
0
  5
2F365
 10
904.968
 20
363.888
 30
0.000000
  70
    32
  0
VERTEX
  8
0
  5
2F366
 10
904.969
 20
363.939
 30
0.000000
  70
    32
  0
VERTEX
  8
0
  5
2F367
 10
904.969
 20
363.989
 30
0.000000
  70
    32
  0
VERTEX
  8
0
  5
2F368
 10
904.969
 20
364.040
 30
0.000000
  70
    32
  0
VERTEX
  8
0
  5
2F369
 10
904.969
 20
364.091
 30
0.000000
  70
    32
  0
VERTEX
  8
0
  5
2F36A
 10
904.970
 20
364.142
 30
0.000000
  70
    32
  0
VERTEX
  8
0
  5
2F36B
 10
904.970
 20
364.193
 30
0.000000
  70
    32
  0
VERTEX
  8
0
  5
2F36C
 10
904.970
 20
364.245
 30
0.000000
  70
    32
  0
VERTEX
  8
0
  5
2F36D
 10
904.970
 20
364.296
 30
0.000000
  70
    32
  0
VERTEX
  8
0
  5
2F36E
 10
904.971
 20
364.348
 30
0.000000
  70
    32
  0
VERTEX
  8
0
  5
2F36F
 10
904.971
 20
364.401
 30
0.000000
  70
    32
  0
VERTEX
  8
0
  5
2F370
 10
904.971
 20
364.453
 30
0.000000
  70
    32
  0
VERTEX
  8
0
  5
2F371
 10
904.971
 20
364.505
 30
0.000000
  70
    32
  0
VERTEX
  8
0
  5
2F372
 10
904.972
 20
364.558
 30
0.000000
  70
    32
  0
VERTEX
  8
0
  5
2F373
 10
904.972
 20
364.611
 30
0.000000
  70
    32
  0
VERTEX
  8
0
  5
2F374
 10
904.972
 20
364.664
 30
0.000000
  70
    32
  0
VERTEX
  8
0
  5
2F375
 10
904.972
 20
364.717
 30
0.000000
  70
    32
  0
VERTEX
  8
0
  5
2F376
 10
904.973
 20
364.771
 30
0.000000
  70
    32
  0
VERTEX
  8
0
  5
2F377
 10
904.973
 20
364.825
 30
0.000000
  70
    32
  0
VERTEX
  8
0
  5
2F378
 10
904.973
 20
364.878
 30
0.000000
  70
    32
  0
VERTEX
  8
0
  5
2F379
 10
904.973
 20
364.932
 30
0.000000
  70
    32
  0
VERTEX
  8
0
  5
2F37A
 10
904.973
 20
364.987
 30
0.000000
  70
    32
  0
VERTEX
  8
0
  5
2F37B
 10
904.974
 20
365.041
 30
0.000000
  70
    32
  0
VERTEX
  8
0
  5
2F37C
 10
904.974
 20
365.096
 30
0.000000
  70
    32
  0
VERTEX
  8
0
  5
2F37D
 10
904.974
 20
365.150
 30
0.000000
  70
    32
  0
VERTEX
  8
0
  5
2F37E
 10
904.974
 20
365.205
 30
0.000000
  70
    32
  0
VERTEX
  8
0
  5
2F37F
 10
904.975
 20
365.260
 30
0.000000
  70
    32
  0
VERTEX
  8
0
  5
2F380
 10
904.975
 20
365.316
 30
0.000000
  70
    32
  0
VERTEX
  8
0
  5
2F381
 10
904.975
 20
365.371
 30
0.000000
  70
    32
  0
VERTEX
  8
0
  5
2F382
 10
904.975
 20
365.426
 30
0.000000
  70
    32
  0
VERTEX
  8
0
  5
2F383
 10
904.975
 20
365.482
 30
0.000000
  70
    32
  0
VERTEX
  8
0
  5
2F384
 10
904.975
 20
365.538
 30
0.000000
  70
    32
  0
VERTEX
  8
0
  5
2F385
 10
904.976
 20
365.594
 30
0.000000
  70
    32
  0
VERTEX
  8
0
  5
2F386
 10
904.976
 20
365.650
 30
0.000000
  70
    32
  0
VERTEX
  8
0
  5
2F387
 10
904.976
 20
365.707
 30
0.000000
  70
    32
  0
VERTEX
  8
0
  5
2F388
 10
904.976
 20
365.763
 30
0.000000
  70
    32
  0
VERTEX
  8
0
  5
2F389
 10
904.976
 20
365.820
 30
0.000000
  70
    32
  0
VERTEX
  8
0
  5
2F38A
 10
904.977
 20
365.876
 30
0.000000
  70
    32
  0
VERTEX
  8
0
  5
2F38B
 10
904.977
 20
365.933
 30
0.000000
  70
    32
  0
VERTEX
  8
0
  5
2F38C
 10
904.977
 20
365.990
 30
0.000000
  70
    32
  0
VERTEX
  8
0
  5
2F38D
 10
904.977
 20
366.047
 30
0.000000
  70
    32
  0
VERTEX
  8
0
  5
2F38E
 10
904.977
 20
366.105
 30
0.000000
  70
    32
  0
VERTEX
  8
0
  5
2F38F
 10
904.977
 20
366.162
 30
0.000000
  70
    32
  0
VERTEX
  8
0
  5
2F390
 10
904.978
 20
366.220
 30
0.000000
  70
    32
  0
VERTEX
  8
0
  5
2F391
 10
904.978
 20
366.278
 30
0.000000
  70
    32
  0
VERTEX
  8
0
  5
2F392
 10
904.978
 20
366.335
 30
0.000000
  70
    32
  0
VERTEX
  8
0
  5
2F393
 10
904.978
 20
366.393
 30
0.000000
  70
    32
  0
VERTEX
  8
0
  5
2F394
 10
904.978
 20
366.451
 30
0.000000
  70
    32
  0
VERTEX
  8
0
  5
2F395
 10
904.978
 20
366.510
 30
0.000000
  70
    32
  0
VERTEX
  8
0
  5
2F396
 10
904.979
 20
366.568
 30
0.000000
  70
    32
  0
VERTEX
  8
0
  5
2F397
 10
904.979
 20
366.626
 30
0.000000
  70
    32
  0
VERTEX
  8
0
  5
2F398
 10
904.979
 20
366.685
 30
0.000000
  70
    32
  0
VERTEX
  8
0
  5
2F399
 10
904.979
 20
366.744
 30
0.000000
  70
    32
  0
VERTEX
  8
0
  5
2F39A
 10
904.979
 20
366.802
 30
0.000000
  70
    32
  0
VERTEX
  8
0
  5
2F39B
 10
904.979
 20
366.861
 30
0.000000
  70
    32
  0
VERTEX
  8
0
  5
2F39C
 10
904.979
 20
366.920
 30
0.000000
  70
    32
  0
VERTEX
  8
0
  5
2F39D
 10
904.979
 20
366.979
 30
0.000000
  70
    32
  0
VERTEX
  8
0
  5
2F39E
 10
904.980
 20
367.039
 30
0.000000
  70
    32
  0
VERTEX
  8
0
  5
2F39F
 10
904.980
 20
367.098
 30
0.000000
  70
    32
  0
VERTEX
  8
0
  5
2F3A0
 10
904.980
 20
367.157
 30
0.000000
  70
    32
  0
VERTEX
  8
0
  5
2F3A1
 10
904.980
 20
367.217
 30
0.000000
  70
    32
  0
VERTEX
  8
0
  5
2F3A2
 10
904.980
 20
367.276
 30
0.000000
  70
    32
  0
VERTEX
  8
0
  5
2F3A3
 10
904.980
 20
367.336
 30
0.000000
  70
    32
  0
VERTEX
  8
0
  5
2F3A4
 10
904.980
 20
367.396
 30
0.000000
  70
    32
  0
VERTEX
  8
0
  5
2F3A5
 10
904.980
 20
367.455
 30
0.000000
  70
    32
  0
VERTEX
  8
0
  5
2F3A6
 10
904.980
 20
367.515
 30
0.000000
  70
    32
  0
VERTEX
  8
0
  5
2F3A7
 10
904.981
 20
367.575
 30
0.000000
  70
    32
  0
VERTEX
  8
0
  5
2F3A8
 10
904.981
 20
367.635
 30
0.000000
  70
    32
  0
VERTEX
  8
0
  5
2F3A9
 10
904.981
 20
367.696
 30
0.000000
  70
    32
  0
VERTEX
  8
0
  5
2F3AA
 10
904.981
 20
367.756
 30
0.000000
  70
    32
  0
VERTEX
  8
0
  5
2F3AB
 10
904.981
 20
367.816
 30
0.000000
  70
    32
  0
VERTEX
  8
0
  5
2F3AC
 10
904.981
 20
367.876
 30
0.000000
  70
    32
  0
VERTEX
  8
0
  5
2F3AD
 10
904.981
 20
367.937
 30
0.000000
  70
    32
  0
VERTEX
  8
0
  5
2F3AE
 10
904.981
 20
367.997
 30
0.000000
  70
    32
  0
VERTEX
  8
0
  5
2F3AF
 10
904.981
 20
368.058
 30
0.000000
  70
    32
  0
VERTEX
  8
0
  5
2F3B0
 10
904.981
 20
368.118
 30
0.000000
  70
    32
  0
VERTEX
  8
0
  5
2F3B1
 10
904.981
 20
368.179
 30
0.000000
  70
    32
  0
VERTEX
  8
0
  5
2F3B2
 10
904.981
 20
368.240
 30
0.000000
  70
    32
  0
VERTEX
  8
0
  5
2F3B3
 10
904.982
 20
368.301
 30
0.000000
  70
    32
  0
VERTEX
  8
0
  5
2F3B4
 10
904.982
 20
368.361
 30
0.000000
  70
    32
  0
VERTEX
  8
0
  5
2F3B5
 10
904.982
 20
368.422
 30
0.000000
  70
    32
  0
VERTEX
  8
0
  5
2F3B6
 10
904.982
 20
368.483
 30
0.000000
  70
    32
  0
VERTEX
  8
0
  5
2F3B7
 10
904.982
 20
368.544
 30
0.000000
  70
    32
  0
VERTEX
  8
0
  5
2F3B8
 10
904.982
 20
368.605
 30
0.000000
  70
    32
  0
VERTEX
  8
0
  5
2F3B9
 10
904.982
 20
368.666
 30
0.000000
  70
    32
  0
VERTEX
  8
0
  5
2F3BA
 10
904.982
 20
368.727
 30
0.000000
  70
    32
  0
VERTEX
  8
0
  5
2F3BB
 10
904.982
 20
368.788
 30
0.000000
  70
    32
  0
VERTEX
  8
0
  5
2F3BC
 10
904.982
 20
368.850
 30
0.000000
  70
    32
  0
VERTEX
  8
0
  5
2F3BD
 10
904.982
 20
368.911
 30
0.000000
  70
    32
  0
VERTEX
  8
0
  5
2F3BE
 10
904.982
 20
368.972
 30
0.000000
  70
    32
  0
VERTEX
  8
0
  5
2F3BF
 10
904.982
 20
369.033
 30
0.000000
  70
    32
  0
VERTEX
  8
0
  5
2F3C0
 10
904.982
 20
369.094
 30
0.000000
  70
    32
  0
VERTEX
  8
0
  5
2F3C1
 10
904.982
 20
369.156
 30
0.000000
  70
    32
  0
VERTEX
  8
0
  5
2F3C2
 10
904.982
 20
369.217
 30
0.000000
  70
    32
  0
VERTEX
  8
0
  5
2F3C3
 10
904.982
 20
369.278
 30
0.000000
  70
    32
  0
VERTEX
  8
0
  5
2F3C4
 10
904.982
 20
369.340
 30
0.000000
  70
    32
  0
VERTEX
  8
0
  5
2F3C5
 10
904.982
 20
369.401
 30
0.000000
  70
    32
  0
VERTEX
  8
0
  5
2F3C6
 10
904.982
 20
369.462
 30
0.000000
  70
    32
  0
VERTEX
  8
0
  5
2F3C7
 10
904.982
 20
369.524
 30
0.000000
  70
    32
  0
VERTEX
  8
0
  5
2F3C8
 10
904.982
 20
369.585
 30
0.000000
  70
    32
  0
VERTEX
  8
0
  5
2F3C9
 10
904.982
 20
369.646
 30
0.000000
  70
    32
  0
SEQEND
  8
0
  5
2F3CA
  0
LINE
  5
2F014
  8
0
 10
904.98220556751642
 20
485.91586081165042
 30
0.0
 11
904.98220556751642
 21
369.64644742983552
 31
0.0
  0
LINE
  5
2F016
  8
0
 10
790.89559995905324
 20
369.64644742983552
 30
0.0
 11
790.82422712222501
 21
485.91586081165042
 31
0.0
  0
POLYLINE
  5
2F018
  8
0
 10
790.89559927440951
 20
369.64644774303588
 30
0.0
 66
     1
 70
     8
  0
VERTEX
  8
0
  5
2F3CB
 10
790.896
 20
369.646
 30
0.000000
  70
    32
  0
VERTEX
  8
0
  5
2F3CC
 10
790.896
 20
369.585
 30
0.000000
  70
    32
  0
VERTEX
  8
0
  5
2F3CD
 10
790.896
 20
369.524
 30
0.000000
  70
    32
  0
VERTEX
  8
0
  5
2F3CE
 10
790.896
 20
369.462
 30
0.000000
  70
    32
  0
VERTEX
  8
0
  5
2F3CF
 10
790.896
 20
369.401
 30
0.000000
  70
    32
  0
VERTEX
  8
0
  5
2F3D0
 10
790.896
 20
369.340
 30
0.000000
  70
    32
  0
VERTEX
  8
0
  5
2F3D1
 10
790.896
 20
369.278
 30
0.000000
  70
    32
  0
VERTEX
  8
0
  5
2F3D2
 10
790.896
 20
369.217
 30
0.000000
  70
    32
  0
VERTEX
  8
0
  5
2F3D3
 10
790.896
 20
369.156
 30
0.000000
  70
    32
  0
VERTEX
  8
0
  5
2F3D4
 10
790.896
 20
369.094
 30
0.000000
  70
    32
  0
VERTEX
  8
0
  5
2F3D5
 10
790.896
 20
369.033
 30
0.000000
  70
    32
  0
VERTEX
  8
0
  5
2F3D6
 10
790.896
 20
368.972
 30
0.000000
  70
    32
  0
VERTEX
  8
0
  5
2F3D7
 10
790.896
 20
368.911
 30
0.000000
  70
    32
  0
VERTEX
  8
0
  5
2F3D8
 10
790.896
 20
368.850
 30
0.000000
  70
    32
  0
VERTEX
  8
0
  5
2F3D9
 10
790.896
 20
368.788
 30
0.000000
  70
    32
  0
VERTEX
  8
0
  5
2F3DA
 10
790.896
 20
368.727
 30
0.000000
  70
    32
  0
VERTEX
  8
0
  5
2F3DB
 10
790.896
 20
368.666
 30
0.000000
  70
    32
  0
VERTEX
  8
0
  5
2F3DC
 10
790.896
 20
368.605
 30
0.000000
  70
    32
  0
VERTEX
  8
0
  5
2F3DD
 10
790.896
 20
368.544
 30
0.000000
  70
    32
  0
VERTEX
  8
0
  5
2F3DE
 10
790.896
 20
368.483
 30
0.000000
  70
    32
  0
VERTEX
  8
0
  5
2F3DF
 10
790.896
 20
368.422
 30
0.000000
  70
    32
  0
VERTEX
  8
0
  5
2F3E0
 10
790.896
 20
368.361
 30
0.000000
  70
    32
  0
VERTEX
  8
0
  5
2F3E1
 10
790.896
 20
368.301
 30
0.000000
  70
    32
  0
VERTEX
  8
0
  5
2F3E2
 10
790.896
 20
368.240
 30
0.000000
  70
    32
  0
VERTEX
  8
0
  5
2F3E3
 10
790.896
 20
368.179
 30
0.000000
  70
    32
  0
VERTEX
  8
0
  5
2F3E4
 10
790.896
 20
368.118
 30
0.000000
  70
    32
  0
VERTEX
  8
0
  5
2F3E5
 10
790.897
 20
368.058
 30
0.000000
  70
    32
  0
VERTEX
  8
0
  5
2F3E6
 10
790.897
 20
367.997
 30
0.000000
  70
    32
  0
VERTEX
  8
0
  5
2F3E7
 10
790.897
 20
367.937
 30
0.000000
  70
    32
  0
VERTEX
  8
0
  5
2F3E8
 10
790.897
 20
367.876
 30
0.000000
  70
    32
  0
VERTEX
  8
0
  5
2F3E9
 10
790.897
 20
367.816
 30
0.000000
  70
    32
  0
VERTEX
  8
0
  5
2F3EA
 10
790.897
 20
367.756
 30
0.000000
  70
    32
  0
VERTEX
  8
0
  5
2F3EB
 10
790.897
 20
367.696
 30
0.000000
  70
    32
  0
VERTEX
  8
0
  5
2F3EC
 10
790.897
 20
367.635
 30
0.000000
  70
    32
  0
VERTEX
  8
0
  5
2F3ED
 10
790.897
 20
367.575
 30
0.000000
  70
    32
  0
VERTEX
  8
0
  5
2F3EE
 10
790.897
 20
367.515
 30
0.000000
  70
    32
  0
VERTEX
  8
0
  5
2F3EF
 10
790.897
 20
367.455
 30
0.000000
  70
    32
  0
VERTEX
  8
0
  5
2F3F0
 10
790.898
 20
367.396
 30
0.000000
  70
    32
  0
VERTEX
  8
0
  5
2F3F1
 10
790.898
 20
367.336
 30
0.000000
  70
    32
  0
VERTEX
  8
0
  5
2F3F2
 10
790.898
 20
367.276
 30
0.000000
  70
    32
  0
VERTEX
  8
0
  5
2F3F3
 10
790.898
 20
367.217
 30
0.000000
  70
    32
  0
VERTEX
  8
0
  5
2F3F4
 10
790.898
 20
367.157
 30
0.000000
  70
    32
  0
VERTEX
  8
0
  5
2F3F5
 10
790.898
 20
367.098
 30
0.000000
  70
    32
  0
VERTEX
  8
0
  5
2F3F6
 10
790.898
 20
367.039
 30
0.000000
  70
    32
  0
VERTEX
  8
0
  5
2F3F7
 10
790.898
 20
366.979
 30
0.000000
  70
    32
  0
VERTEX
  8
0
  5
2F3F8
 10
790.898
 20
366.920
 30
0.000000
  70
    32
  0
VERTEX
  8
0
  5
2F3F9
 10
790.899
 20
366.861
 30
0.000000
  70
    32
  0
VERTEX
  8
0
  5
2F3FA
 10
790.899
 20
366.802
 30
0.000000
  70
    32
  0
VERTEX
  8
0
  5
2F3FB
 10
790.899
 20
366.744
 30
0.000000
  70
    32
  0
VERTEX
  8
0
  5
2F3FC
 10
790.899
 20
366.685
 30
0.000000
  70
    32
  0
VERTEX
  8
0
  5
2F3FD
 10
790.899
 20
366.626
 30
0.000000
  70
    32
  0
VERTEX
  8
0
  5
2F3FE
 10
790.899
 20
366.568
 30
0.000000
  70
    32
  0
VERTEX
  8
0
  5
2F3FF
 10
790.899
 20
366.510
 30
0.000000
  70
    32
  0
VERTEX
  8
0
  5
2F400
 10
790.900
 20
366.451
 30
0.000000
  70
    32
  0
VERTEX
  8
0
  5
2F401
 10
790.900
 20
366.393
 30
0.000000
  70
    32
  0
VERTEX
  8
0
  5
2F402
 10
790.900
 20
366.335
 30
0.000000
  70
    32
  0
VERTEX
  8
0
  5
2F403
 10
790.900
 20
366.278
 30
0.000000
  70
    32
  0
VERTEX
  8
0
  5
2F404
 10
790.900
 20
366.220
 30
0.000000
  70
    32
  0
VERTEX
  8
0
  5
2F405
 10
790.900
 20
366.162
 30
0.000000
  70
    32
  0
VERTEX
  8
0
  5
2F406
 10
790.901
 20
366.105
 30
0.000000
  70
    32
  0
VERTEX
  8
0
  5
2F407
 10
790.901
 20
366.047
 30
0.000000
  70
    32
  0
VERTEX
  8
0
  5
2F408
 10
790.901
 20
365.990
 30
0.000000
  70
    32
  0
VERTEX
  8
0
  5
2F409
 10
790.901
 20
365.933
 30
0.000000
  70
    32
  0
VERTEX
  8
0
  5
2F40A
 10
790.901
 20
365.876
 30
0.000000
  70
    32
  0
VERTEX
  8
0
  5
2F40B
 10
790.901
 20
365.820
 30
0.000000
  70
    32
  0
VERTEX
  8
0
  5
2F40C
 10
790.902
 20
365.763
 30
0.000000
  70
    32
  0
VERTEX
  8
0
  5
2F40D
 10
790.902
 20
365.707
 30
0.000000
  70
    32
  0
VERTEX
  8
0
  5
2F40E
 10
790.902
 20
365.650
 30
0.000000
  70
    32
  0
VERTEX
  8
0
  5
2F40F
 10
790.902
 20
365.594
 30
0.000000
  70
    32
  0
VERTEX
  8
0
  5
2F410
 10
790.902
 20
365.538
 30
0.000000
  70
    32
  0
VERTEX
  8
0
  5
2F411
 10
790.902
 20
365.482
 30
0.000000
  70
    32
  0
VERTEX
  8
0
  5
2F412
 10
790.903
 20
365.426
 30
0.000000
  70
    32
  0
VERTEX
  8
0
  5
2F413
 10
790.903
 20
365.371
 30
0.000000
  70
    32
  0
VERTEX
  8
0
  5
2F414
 10
790.903
 20
365.316
 30
0.000000
  70
    32
  0
VERTEX
  8
0
  5
2F415
 10
790.903
 20
365.260
 30
0.000000
  70
    32
  0
VERTEX
  8
0
  5
2F416
 10
790.904
 20
365.205
 30
0.000000
  70
    32
  0
VERTEX
  8
0
  5
2F417
 10
790.904
 20
365.150
 30
0.000000
  70
    32
  0
VERTEX
  8
0
  5
2F418
 10
790.904
 20
365.096
 30
0.000000
  70
    32
  0
VERTEX
  8
0
  5
2F419
 10
790.904
 20
365.041
 30
0.000000
  70
    32
  0
VERTEX
  8
0
  5
2F41A
 10
790.904
 20
364.987
 30
0.000000
  70
    32
  0
VERTEX
  8
0
  5
2F41B
 10
790.905
 20
364.932
 30
0.000000
  70
    32
  0
VERTEX
  8
0
  5
2F41C
 10
790.905
 20
364.878
 30
0.000000
  70
    32
  0
VERTEX
  8
0
  5
2F41D
 10
790.905
 20
364.825
 30
0.000000
  70
    32
  0
VERTEX
  8
0
  5
2F41E
 10
790.905
 20
364.771
 30
0.000000
  70
    32
  0
VERTEX
  8
0
  5
2F41F
 10
790.905
 20
364.717
 30
0.000000
  70
    32
  0
VERTEX
  8
0
  5
2F420
 10
790.906
 20
364.664
 30
0.000000
  70
    32
  0
VERTEX
  8
0
  5
2F421
 10
790.906
 20
364.611
 30
0.000000
  70
    32
  0
VERTEX
  8
0
  5
2F422
 10
790.906
 20
364.558
 30
0.000000
  70
    32
  0
VERTEX
  8
0
  5
2F423
 10
790.906
 20
364.505
 30
0.000000
  70
    32
  0
VERTEX
  8
0
  5
2F424
 10
790.907
 20
364.453
 30
0.000000
  70
    32
  0
VERTEX
  8
0
  5
2F425
 10
790.907
 20
364.401
 30
0.000000
  70
    32
  0
VERTEX
  8
0
  5
2F426
 10
790.907
 20
364.348
 30
0.000000
  70
    32
  0
VERTEX
  8
0
  5
2F427
 10
790.907
 20
364.296
 30
0.000000
  70
    32
  0
VERTEX
  8
0
  5
2F428
 10
790.908
 20
364.245
 30
0.000000
  70
    32
  0
VERTEX
  8
0
  5
2F429
 10
790.908
 20
364.193
 30
0.000000
  70
    32
  0
VERTEX
  8
0
  5
2F42A
 10
790.908
 20
364.142
 30
0.000000
  70
    32
  0
VERTEX
  8
0
  5
2F42B
 10
790.908
 20
364.091
 30
0.000000
  70
    32
  0
VERTEX
  8
0
  5
2F42C
 10
790.909
 20
364.040
 30
0.000000
  70
    32
  0
VERTEX
  8
0
  5
2F42D
 10
790.909
 20
363.989
 30
0.000000
  70
    32
  0
VERTEX
  8
0
  5
2F42E
 10
790.909
 20
363.939
 30
0.000000
  70
    32
  0
VERTEX
  8
0
  5
2F42F
 10
790.909
 20
363.888
 30
0.000000
  70
    32
  0
VERTEX
  8
0
  5
2F430
 10
790.910
 20
363.838
 30
0.000000
  70
    32
  0
VERTEX
  8
0
  5
2F431
 10
790.910
 20
363.788
 30
0.000000
  70
    32
  0
VERTEX
  8
0
  5
2F432
 10
790.910
 20
363.739
 30
0.000000
  70
    32
  0
VERTEX
  8
0
  5
2F433
 10
790.911
 20
363.689
 30
0.000000
  70
    32
  0
VERTEX
  8
0
  5
2F434
 10
790.911
 20
363.640
 30
0.000000
  70
    32
  0
VERTEX
  8
0
  5
2F435
 10
790.911
 20
363.591
 30
0.000000
  70
    32
  0
VERTEX
  8
0
  5
2F436
 10
790.911
 20
363.543
 30
0.000000
  70
    32
  0
VERTEX
  8
0
  5
2F437
 10
790.912
 20
363.494
 30
0.000000
  70
    32
  0
VERTEX
  8
0
  5
2F438
 10
790.912
 20
363.446
 30
0.000000
  70
    32
  0
VERTEX
  8
0
  5
2F439
 10
790.912
 20
363.398
 30
0.000000
  70
    32
  0
VERTEX
  8
0
  5
2F43A
 10
790.913
 20
363.350
 30
0.000000
  70
    32
  0
VERTEX
  8
0
  5
2F43B
 10
790.913
 20
363.303
 30
0.000000
  70
    32
  0
VERTEX
  8
0
  5
2F43C
 10
790.913
 20
363.255
 30
0.000000
  70
    32
  0
VERTEX
  8
0
  5
2F43D
 10
790.913
 20
363.208
 30
0.000000
  70
    32
  0
VERTEX
  8
0
  5
2F43E
 10
790.914
 20
363.161
 30
0.000000
  70
    32
  0
VERTEX
  8
0
  5
2F43F
 10
790.914
 20
363.115
 30
0.000000
  70
    32
  0
VERTEX
  8
0
  5
2F440
 10
790.914
 20
363.068
 30
0.000000
  70
    32
  0
VERTEX
  8
0
  5
2F441
 10
790.915
 20
363.022
 30
0.000000
  70
    32
  0
VERTEX
  8
0
  5
2F442
 10
790.915
 20
362.976
 30
0.000000
  70
    32
  0
VERTEX
  8
0
  5
2F443
 10
790.915
 20
362.931
 30
0.000000
  70
    32
  0
VERTEX
  8
0
  5
2F444
 10
790.916
 20
362.886
 30
0.000000
  70
    32
  0
VERTEX
  8
0
  5
2F445
 10
790.916
 20
362.840
 30
0.000000
  70
    32
  0
VERTEX
  8
0
  5
2F446
 10
790.916
 20
362.796
 30
0.000000
  70
    32
  0
VERTEX
  8
0
  5
2F447
 10
790.917
 20
362.751
 30
0.000000
  70
    32
  0
VERTEX
  8
0
  5
2F448
 10
790.917
 20
362.707
 30
0.000000
  70
    32
  0
VERTEX
  8
0
  5
2F449
 10
790.917
 20
362.663
 30
0.000000
  70
    32
  0
VERTEX
  8
0
  5
2F44A
 10
790.918
 20
362.619
 30
0.000000
  70
    32
  0
VERTEX
  8
0
  5
2F44B
 10
790.918
 20
362.575
 30
0.000000
  70
    32
  0
SEQEND
  8
0
  5
2F44C
  0
ARC
  5
2F019
  8
0
 10
896.63890276328368
 20
331.00431211930618
 30
0.0
 40
15.499999999999529
 50
119.5647487183837
 51
155.48708752815929
  0
ARC
  5
2F01B
  8
0
 10
896.63890276328368
 20
331.00431211930618
 30
0.0
 40
18.699999999999591
 50
119.5647487183837
 51
159.8853582930771
  0
LINE
  5
2F01C
  8
0
 10
887.41219424978647
 20
347.26954689103331
 30
0.0
 11
898.29036974684152
 21
353.44035988527497
 31
0.0
  0
ARC
  5
2F01D
  8
0
 10
894.93520307500125
 20
359.35499142926301
 30
0.0
 40
6.8000000000009297
 50
299.56474871838373
 51
359.56474871838839
  0
ARC
  5
2F01E
  8
0
 10
894.93520307500125
 20
359.35499142926301
 30
0.0
 40
10.000000000000879
 50
299.56474871838373
 51
359.5647487183835
  0
LINE
  5
2F01F
  8
0
 10
899.86927070990953
 20
350.65700458216628
 30
0.0
 11
888.99109893814477
 21
344.48619158792462
 31
0.0
  0
LINE
  5
2F020
  8
0
 10
904.9599544085637
 20
362.57538078206738
 30
0.0
 11
904.93491300717744
 21
359.27902599650588
 31
0.0
  0
ARC
  5
2F021
  8
0
 10
800.94260245156761
 20
359.35499142926301
 30
0.0
 40
6.8000000000010008
 50
180.43525128161139
 51
240.4352512816163
  0
LINE
  5
2F022
  8
0
 10
797.58743577972814
 20
353.44035988527497
 30
0.0
 11
808.46561127678308
 21
347.26954689103331
 31
0.0
  0
ARC
  5
2F023
  8
0
 10
799.23890276328495
 20
331.00431211930618
 30
0.0
 40
18.699999999999481
 50
20.1146417069228
 51
60.435251281616303
  0
ARC
  5
2F025
  8
0
 10
799.23890276328495
 20
331.00431211930618
 30
0.0
 40
15.4999999999994
 50
24.512912471840661
 51
60.435251281616303
  0
LINE
  5
2F026
  8
0
 10
806.88670658842477
 20
344.48619158792462
 30
0.0
 11
796.00853481666013
 21
350.65700458216628
 31
0.0
  0
ARC
  5
2F027
  8
0
 10
800.94260245156761
 20
359.35499142926301
 30
0.0
 40
10.00000000000095
 50
180.43525128161639
 51
240.4352512816163
  0
LINE
  5
2F028
  8
0
 10
790.94289251939222
 20
359.27902599650588
 30
0.0
 11
790.91785111800596
 21
362.57538078206738
 31
0.0
  0
POLYLINE
  5
2F02D
  8
0
 10
878.57657794436136
 20
335.3641680454835
 30
0.0
 66
     1
 70
     8
  0
VERTEX
  8
0
  5
2F44D
 10
878.577
 20
335.364
 30
0.000000
  70
    32
  0
VERTEX
  8
0
  5
2F44E
 10
878.567
 20
335.300
 30
0.000000
  70
    32
  0
VERTEX
  8
0
  5
2F44F
 10
878.557
 20
335.236
 30
0.000000
  70
    32
  0
VERTEX
  8
0
  5
2F450
 10
878.547
 20
335.172
 30
0.000000
  70
    32
  0
VERTEX
  8
0
  5
2F451
 10
878.538
 20
335.108
 30
0.000000
  70
    32
  0
VERTEX
  8
0
  5
2F452
 10
878.528
 20
335.044
 30
0.000000
  70
    32
  0
VERTEX
  8
0
  5
2F453
 10
878.519
 20
334.979
 30
0.000000
  70
    32
  0
VERTEX
  8
0
  5
2F454
 10
878.509
 20
334.915
 30
0.000000
  70
    32
  0
VERTEX
  8
0
  5
2F455
 10
878.500
 20
334.851
 30
0.000000
  70
    32
  0
VERTEX
  8
0
  5
2F456
 10
878.490
 20
334.787
 30
0.000000
  70
    32
  0
VERTEX
  8
0
  5
2F457
 10
878.481
 20
334.722
 30
0.000000
  70
    32
  0
VERTEX
  8
0
  5
2F458
 10
878.472
 20
334.658
 30
0.000000
  70
    32
  0
VERTEX
  8
0
  5
2F459
 10
878.463
 20
334.594
 30
0.000000
  70
    32
  0
VERTEX
  8
0
  5
2F45A
 10
878.454
 20
334.529
 30
0.000000
  70
    32
  0
VERTEX
  8
0
  5
2F45B
 10
878.445
 20
334.465
 30
0.000000
  70
    32
  0
VERTEX
  8
0
  5
2F45C
 10
878.437
 20
334.400
 30
0.000000
  70
    32
  0
VERTEX
  8
0
  5
2F45D
 10
878.428
 20
334.336
 30
0.000000
  70
    32
  0
VERTEX
  8
0
  5
2F45E
 10
878.419
 20
334.271
 30
0.000000
  70
    32
  0
VERTEX
  8
0
  5
2F45F
 10
878.411
 20
334.207
 30
0.000000
  70
    32
  0
VERTEX
  8
0
  5
2F460
 10
878.402
 20
334.142
 30
0.000000
  70
    32
  0
VERTEX
  8
0
  5
2F461
 10
878.394
 20
334.077
 30
0.000000
  70
    32
  0
VERTEX
  8
0
  5
2F462
 10
878.385
 20
334.013
 30
0.000000
  70
    32
  0
VERTEX
  8
0
  5
2F463
 10
878.377
 20
333.948
 30
0.000000
  70
    32
  0
VERTEX
  8
0
  5
2F464
 10
878.369
 20
333.883
 30
0.000000
  70
    32
  0
VERTEX
  8
0
  5
2F465
 10
878.361
 20
333.818
 30
0.000000
  70
    32
  0
VERTEX
  8
0
  5
2F466
 10
878.353
 20
333.754
 30
0.000000
  70
    32
  0
VERTEX
  8
0
  5
2F467
 10
878.345
 20
333.689
 30
0.000000
  70
    32
  0
VERTEX
  8
0
  5
2F468
 10
878.337
 20
333.624
 30
0.000000
  70
    32
  0
VERTEX
  8
0
  5
2F469
 10
878.329
 20
333.559
 30
0.000000
  70
    32
  0
VERTEX
  8
0
  5
2F46A
 10
878.321
 20
333.494
 30
0.000000
  70
    32
  0
VERTEX
  8
0
  5
2F46B
 10
878.314
 20
333.429
 30
0.000000
  70
    32
  0
VERTEX
  8
0
  5
2F46C
 10
878.306
 20
333.364
 30
0.000000
  70
    32
  0
VERTEX
  8
0
  5
2F46D
 10
878.298
 20
333.299
 30
0.000000
  70
    32
  0
VERTEX
  8
0
  5
2F46E
 10
878.291
 20
333.234
 30
0.000000
  70
    32
  0
VERTEX
  8
0
  5
2F46F
 10
878.284
 20
333.169
 30
0.000000
  70
    32
  0
VERTEX
  8
0
  5
2F470
 10
878.276
 20
333.104
 30
0.000000
  70
    32
  0
VERTEX
  8
0
  5
2F471
 10
878.269
 20
333.039
 30
0.000000
  70
    32
  0
VERTEX
  8
0
  5
2F472
 10
878.262
 20
332.974
 30
0.000000
  70
    32
  0
VERTEX
  8
0
  5
2F473
 10
878.255
 20
332.909
 30
0.000000
  70
    32
  0
VERTEX
  8
0
  5
2F474
 10
878.248
 20
332.844
 30
0.000000
  70
    32
  0
VERTEX
  8
0
  5
2F475
 10
878.241
 20
332.778
 30
0.000000
  70
    32
  0
VERTEX
  8
0
  5
2F476
 10
878.234
 20
332.713
 30
0.000000
  70
    32
  0
VERTEX
  8
0
  5
2F477
 10
878.228
 20
332.648
 30
0.000000
  70
    32
  0
VERTEX
  8
0
  5
2F478
 10
878.221
 20
332.583
 30
0.000000
  70
    32
  0
VERTEX
  8
0
  5
2F479
 10
878.214
 20
332.517
 30
0.000000
  70
    32
  0
VERTEX
  8
0
  5
2F47A
 10
878.208
 20
332.452
 30
0.000000
  70
    32
  0
VERTEX
  8
0
  5
2F47B
 10
878.201
 20
332.387
 30
0.000000
  70
    32
  0
VERTEX
  8
0
  5
2F47C
 10
878.195
 20
332.321
 30
0.000000
  70
    32
  0
VERTEX
  8
0
  5
2F47D
 10
878.189
 20
332.256
 30
0.000000
  70
    32
  0
VERTEX
  8
0
  5
2F47E
 10
878.183
 20
332.191
 30
0.000000
  70
    32
  0
VERTEX
  8
0
  5
2F47F
 10
878.177
 20
332.125
 30
0.000000
  70
    32
  0
VERTEX
  8
0
  5
2F480
 10
878.171
 20
332.060
 30
0.000000
  70
    32
  0
VERTEX
  8
0
  5
2F481
 10
878.165
 20
331.994
 30
0.000000
  70
    32
  0
VERTEX
  8
0
  5
2F482
 10
878.159
 20
331.929
 30
0.000000
  70
    32
  0
VERTEX
  8
0
  5
2F483
 10
878.153
 20
331.863
 30
0.000000
  70
    32
  0
VERTEX
  8
0
  5
2F484
 10
878.147
 20
331.798
 30
0.000000
  70
    32
  0
VERTEX
  8
0
  5
2F485
 10
878.141
 20
331.732
 30
0.000000
  70
    32
  0
VERTEX
  8
0
  5
2F486
 10
878.136
 20
331.667
 30
0.000000
  70
    32
  0
VERTEX
  8
0
  5
2F487
 10
878.130
 20
331.601
 30
0.000000
  70
    32
  0
VERTEX
  8
0
  5
2F488
 10
878.125
 20
331.536
 30
0.000000
  70
    32
  0
VERTEX
  8
0
  5
2F489
 10
878.120
 20
331.470
 30
0.000000
  70
    32
  0
VERTEX
  8
0
  5
2F48A
 10
878.114
 20
331.404
 30
0.000000
  70
    32
  0
VERTEX
  8
0
  5
2F48B
 10
878.109
 20
331.339
 30
0.000000
  70
    32
  0
VERTEX
  8
0
  5
2F48C
 10
878.104
 20
331.273
 30
0.000000
  70
    32
  0
VERTEX
  8
0
  5
2F48D
 10
878.099
 20
331.207
 30
0.000000
  70
    32
  0
VERTEX
  8
0
  5
2F48E
 10
878.094
 20
331.142
 30
0.000000
  70
    32
  0
VERTEX
  8
0
  5
2F48F
 10
878.089
 20
331.076
 30
0.000000
  70
    32
  0
VERTEX
  8
0
  5
2F490
 10
878.084
 20
331.010
 30
0.000000
  70
    32
  0
VERTEX
  8
0
  5
2F491
 10
878.080
 20
330.944
 30
0.000000
  70
    32
  0
VERTEX
  8
0
  5
2F492
 10
878.075
 20
330.879
 30
0.000000
  70
    32
  0
VERTEX
  8
0
  5
2F493
 10
878.070
 20
330.813
 30
0.000000
  70
    32
  0
VERTEX
  8
0
  5
2F494
 10
878.066
 20
330.747
 30
0.000000
  70
    32
  0
VERTEX
  8
0
  5
2F495
 10
878.062
 20
330.681
 30
0.000000
  70
    32
  0
VERTEX
  8
0
  5
2F496
 10
878.057
 20
330.615
 30
0.000000
  70
    32
  0
VERTEX
  8
0
  5
2F497
 10
878.053
 20
330.549
 30
0.000000
  70
    32
  0
VERTEX
  8
0
  5
2F498
 10
878.049
 20
330.484
 30
0.000000
  70
    32
  0
VERTEX
  8
0
  5
2F499
 10
878.045
 20
330.418
 30
0.000000
  70
    32
  0
VERTEX
  8
0
  5
2F49A
 10
878.041
 20
330.352
 30
0.000000
  70
    32
  0
VERTEX
  8
0
  5
2F49B
 10
878.037
 20
330.286
 30
0.000000
  70
    32
  0
VERTEX
  8
0
  5
2F49C
 10
878.033
 20
330.220
 30
0.000000
  70
    32
  0
VERTEX
  8
0
  5
2F49D
 10
878.029
 20
330.154
 30
0.000000
  70
    32
  0
VERTEX
  8
0
  5
2F49E
 10
878.025
 20
330.088
 30
0.000000
  70
    32
  0
VERTEX
  8
0
  5
2F49F
 10
878.022
 20
330.022
 30
0.000000
  70
    32
  0
VERTEX
  8
0
  5
2F4A0
 10
878.018
 20
329.956
 30
0.000000
  70
    32
  0
VERTEX
  8
0
  5
2F4A1
 10
878.015
 20
329.890
 30
0.000000
  70
    32
  0
VERTEX
  8
0
  5
2F4A2
 10
878.011
 20
329.824
 30
0.000000
  70
    32
  0
VERTEX
  8
0
  5
2F4A3
 10
878.008
 20
329.758
 30
0.000000
  70
    32
  0
VERTEX
  8
0
  5
2F4A4
 10
878.005
 20
329.692
 30
0.000000
  70
    32
  0
VERTEX
  8
0
  5
2F4A5
 10
878.001
 20
329.626
 30
0.000000
  70
    32
  0
VERTEX
  8
0
  5
2F4A6
 10
877.998
 20
329.560
 30
0.000000
  70
    32
  0
VERTEX
  8
0
  5
2F4A7
 10
877.995
 20
329.494
 30
0.000000
  70
    32
  0
VERTEX
  8
0
  5
2F4A8
 10
877.992
 20
329.428
 30
0.000000
  70
    32
  0
VERTEX
  8
0
  5
2F4A9
 10
877.990
 20
329.362
 30
0.000000
  70
    32
  0
VERTEX
  8
0
  5
2F4AA
 10
877.987
 20
329.296
 30
0.000000
  70
    32
  0
VERTEX
  8
0
  5
2F4AB
 10
877.984
 20
329.229
 30
0.000000
  70
    32
  0
VERTEX
  8
0
  5
2F4AC
 10
877.982
 20
329.163
 30
0.000000
  70
    32
  0
VERTEX
  8
0
  5
2F4AD
 10
877.979
 20
329.097
 30
0.000000
  70
    32
  0
VERTEX
  8
0
  5
2F4AE
 10
877.977
 20
329.031
 30
0.000000
  70
    32
  0
VERTEX
  8
0
  5
2F4AF
 10
877.974
 20
328.965
 30
0.000000
  70
    32
  0
VERTEX
  8
0
  5
2F4B0
 10
877.972
 20
328.899
 30
0.000000
  70
    32
  0
VERTEX
  8
0
  5
2F4B1
 10
877.970
 20
328.833
 30
0.000000
  70
    32
  0
VERTEX
  8
0
  5
2F4B2
 10
877.967
 20
328.766
 30
0.000000
  70
    32
  0
VERTEX
  8
0
  5
2F4B3
 10
877.965
 20
328.700
 30
0.000000
  70
    32
  0
VERTEX
  8
0
  5
2F4B4
 10
877.963
 20
328.634
 30
0.000000
  70
    32
  0
VERTEX
  8
0
  5
2F4B5
 10
877.961
 20
328.568
 30
0.000000
  70
    32
  0
VERTEX
  8
0
  5
2F4B6
 10
877.960
 20
328.502
 30
0.000000
  70
    32
  0
VERTEX
  8
0
  5
2F4B7
 10
877.958
 20
328.436
 30
0.000000
  70
    32
  0
VERTEX
  8
0
  5
2F4B8
 10
877.956
 20
328.369
 30
0.000000
  70
    32
  0
VERTEX
  8
0
  5
2F4B9
 10
877.955
 20
328.303
 30
0.000000
  70
    32
  0
VERTEX
  8
0
  5
2F4BA
 10
877.953
 20
328.237
 30
0.000000
  70
    32
  0
VERTEX
  8
0
  5
2F4BB
 10
877.952
 20
328.171
 30
0.000000
  70
    32
  0
VERTEX
  8
0
  5
2F4BC
 10
877.950
 20
328.104
 30
0.000000
  70
    32
  0
VERTEX
  8
0
  5
2F4BD
 10
877.949
 20
328.038
 30
0.000000
  70
    32
  0
VERTEX
  8
0
  5
2F4BE
 10
877.948
 20
327.972
 30
0.000000
  70
    32
  0
VERTEX
  8
0
  5
2F4BF
 10
877.947
 20
327.906
 30
0.000000
  70
    32
  0
VERTEX
  8
0
  5
2F4C0
 10
877.946
 20
327.839
 30
0.000000
  70
    32
  0
VERTEX
  8
0
  5
2F4C1
 10
877.945
 20
327.773
 30
0.000000
  70
    32
  0
VERTEX
  8
0
  5
2F4C2
 10
877.944
 20
327.707
 30
0.000000
  70
    32
  0
VERTEX
  8
0
  5
2F4C3
 10
877.943
 20
327.641
 30
0.000000
  70
    32
  0
VERTEX
  8
0
  5
2F4C4
 10
877.942
 20
327.574
 30
0.000000
  70
    32
  0
VERTEX
  8
0
  5
2F4C5
 10
877.941
 20
327.508
 30
0.000000
  70
    32
  0
VERTEX
  8
0
  5
2F4C6
 10
877.941
 20
327.442
 30
0.000000
  70
    32
  0
VERTEX
  8
0
  5
2F4C7
 10
877.940
 20
327.376
 30
0.000000
  70
    32
  0
VERTEX
  8
0
  5
2F4C8
 10
877.940
 20
327.309
 30
0.000000
  70
    32
  0
VERTEX
  8
0
  5
2F4C9
 10
877.940
 20
327.243
 30
0.000000
  70
    32
  0
VERTEX
  8
0
  5
2F4CA
 10
877.939
 20
327.177
 30
0.000000
  70
    32
  0
VERTEX
  8
0
  5
2F4CB
 10
877.939
 20
327.111
 30
0.000000
  70
    32
  0
VERTEX
  8
0
  5
2F4CC
 10
877.939
 20
327.044
 30
0.000000
  70
    32
  0
VERTEX
  8
0
  5
2F4CD
 10
877.939
 20
326.978
 30
0.000000
  70
    32
  0
SEQEND
  8
0
  5
2F4CE
  0
LINE
  5
2F02E
  8
0
 10
877.93890209273252
 20
320.91585518646212
 30
0.0
 11
877.93890209273252
 21
482.71585134643283
 31
0.0
  0
LINE
  5
2F02F
  8
0
 10
878.57657865957174
 20
335.36416805436062
 30
0.0
 11
879.07948353663835
 21
337.43523580341753
 31
0.0
  0
LINE
  5
2F030
  8
0
 10
817.93890343383703
 20
320.91585518646212
 30
0.0
 11
817.93890343383703
 21
482.71585134643283
 31
0.0
  0
POLYLINE
  5
2F031
  8
0
 10
817.93890276328443
 20
326.97803267767705
 30
0.0
 66
     1
 70
     8
  0
VERTEX
  8
0
  5
2F4CF
 10
817.939
 20
326.978
 30
0.000000
  70
    32
  0
VERTEX
  8
0
  5
2F4D0
 10
817.939
 20
327.044
 30
0.000000
  70
    32
  0
VERTEX
  8
0
  5
2F4D1
 10
817.939
 20
327.111
 30
0.000000
  70
    32
  0
VERTEX
  8
0
  5
2F4D2
 10
817.939
 20
327.177
 30
0.000000
  70
    32
  0
VERTEX
  8
0
  5
2F4D3
 10
817.938
 20
327.243
 30
0.000000
  70
    32
  0
VERTEX
  8
0
  5
2F4D4
 10
817.938
 20
327.309
 30
0.000000
  70
    32
  0
VERTEX
  8
0
  5
2F4D5
 10
817.937
 20
327.376
 30
0.000000
  70
    32
  0
VERTEX
  8
0
  5
2F4D6
 10
817.937
 20
327.442
 30
0.000000
  70
    32
  0
VERTEX
  8
0
  5
2F4D7
 10
817.936
 20
327.508
 30
0.000000
  70
    32
  0
VERTEX
  8
0
  5
2F4D8
 10
817.936
 20
327.574
 30
0.000000
  70
    32
  0
VERTEX
  8
0
  5
2F4D9
 10
817.935
 20
327.641
 30
0.000000
  70
    32
  0
VERTEX
  8
0
  5
2F4DA
 10
817.934
 20
327.707
 30
0.000000
  70
    32
  0
VERTEX
  8
0
  5
2F4DB
 10
817.933
 20
327.773
 30
0.000000
  70
    32
  0
VERTEX
  8
0
  5
2F4DC
 10
817.932
 20
327.839
 30
0.000000
  70
    32
  0
VERTEX
  8
0
  5
2F4DD
 10
817.931
 20
327.906
 30
0.000000
  70
    32
  0
VERTEX
  8
0
  5
2F4DE
 10
817.930
 20
327.972
 30
0.000000
  70
    32
  0
VERTEX
  8
0
  5
2F4DF
 10
817.929
 20
328.038
 30
0.000000
  70
    32
  0
VERTEX
  8
0
  5
2F4E0
 10
817.928
 20
328.104
 30
0.000000
  70
    32
  0
VERTEX
  8
0
  5
2F4E1
 10
817.926
 20
328.171
 30
0.000000
  70
    32
  0
VERTEX
  8
0
  5
2F4E2
 10
817.925
 20
328.237
 30
0.000000
  70
    32
  0
VERTEX
  8
0
  5
2F4E3
 10
817.923
 20
328.303
 30
0.000000
  70
    32
  0
VERTEX
  8
0
  5
2F4E4
 10
817.922
 20
328.369
 30
0.000000
  70
    32
  0
VERTEX
  8
0
  5
2F4E5
 10
817.920
 20
328.436
 30
0.000000
  70
    32
  0
VERTEX
  8
0
  5
2F4E6
 10
817.918
 20
328.502
 30
0.000000
  70
    32
  0
VERTEX
  8
0
  5
2F4E7
 10
817.916
 20
328.568
 30
0.000000
  70
    32
  0
VERTEX
  8
0
  5
2F4E8
 10
817.914
 20
328.634
 30
0.000000
  70
    32
  0
VERTEX
  8
0
  5
2F4E9
 10
817.912
 20
328.700
 30
0.000000
  70
    32
  0
VERTEX
  8
0
  5
2F4EA
 10
817.910
 20
328.766
 30
0.000000
  70
    32
  0
VERTEX
  8
0
  5
2F4EB
 10
817.908
 20
328.833
 30
0.000000
  70
    32
  0
VERTEX
  8
0
  5
2F4EC
 10
817.906
 20
328.899
 30
0.000000
  70
    32
  0
VERTEX
  8
0
  5
2F4ED
 10
817.904
 20
328.965
 30
0.000000
  70
    32
  0
VERTEX
  8
0
  5
2F4EE
 10
817.901
 20
329.031
 30
0.000000
  70
    32
  0
VERTEX
  8
0
  5
2F4EF
 10
817.899
 20
329.097
 30
0.000000
  70
    32
  0
VERTEX
  8
0
  5
2F4F0
 10
817.896
 20
329.163
 30
0.000000
  70
    32
  0
VERTEX
  8
0
  5
2F4F1
 10
817.894
 20
329.229
 30
0.000000
  70
    32
  0
VERTEX
  8
0
  5
2F4F2
 10
817.891
 20
329.296
 30
0.000000
  70
    32
  0
VERTEX
  8
0
  5
2F4F3
 10
817.888
 20
329.362
 30
0.000000
  70
    32
  0
VERTEX
  8
0
  5
2F4F4
 10
817.885
 20
329.428
 30
0.000000
  70
    32
  0
VERTEX
  8
0
  5
2F4F5
 10
817.882
 20
329.494
 30
0.000000
  70
    32
  0
VERTEX
  8
0
  5
2F4F6
 10
817.879
 20
329.560
 30
0.000000
  70
    32
  0
VERTEX
  8
0
  5
2F4F7
 10
817.876
 20
329.626
 30
0.000000
  70
    32
  0
VERTEX
  8
0
  5
2F4F8
 10
817.873
 20
329.692
 30
0.000000
  70
    32
  0
VERTEX
  8
0
  5
2F4F9
 10
817.870
 20
329.758
 30
0.000000
  70
    32
  0
VERTEX
  8
0
  5
2F4FA
 10
817.867
 20
329.824
 30
0.000000
  70
    32
  0
VERTEX
  8
0
  5
2F4FB
 10
817.863
 20
329.890
 30
0.000000
  70
    32
  0
VERTEX
  8
0
  5
2F4FC
 10
817.860
 20
329.956
 30
0.000000
  70
    32
  0
VERTEX
  8
0
  5
2F4FD
 10
817.856
 20
330.022
 30
0.000000
  70
    32
  0
VERTEX
  8
0
  5
2F4FE
 10
817.853
 20
330.088
 30
0.000000
  70
    32
  0
VERTEX
  8
0
  5
2F4FF
 10
817.849
 20
330.154
 30
0.000000
  70
    32
  0
VERTEX
  8
0
  5
2F500
 10
817.845
 20
330.220
 30
0.000000
  70
    32
  0
VERTEX
  8
0
  5
2F501
 10
817.841
 20
330.286
 30
0.000000
  70
    32
  0
VERTEX
  8
0
  5
2F502
 10
817.837
 20
330.352
 30
0.000000
  70
    32
  0
VERTEX
  8
0
  5
2F503
 10
817.833
 20
330.418
 30
0.000000
  70
    32
  0
VERTEX
  8
0
  5
2F504
 10
817.829
 20
330.484
 30
0.000000
  70
    32
  0
VERTEX
  8
0
  5
2F505
 10
817.825
 20
330.549
 30
0.000000
  70
    32
  0
VERTEX
  8
0
  5
2F506
 10
817.821
 20
330.615
 30
0.000000
  70
    32
  0
VERTEX
  8
0
  5
2F507
 10
817.816
 20
330.681
 30
0.000000
  70
    32
  0
VERTEX
  8
0
  5
2F508
 10
817.812
 20
330.747
 30
0.000000
  70
    32
  0
VERTEX
  8
0
  5
2F509
 10
817.807
 20
330.813
 30
0.000000
  70
    32
  0
VERTEX
  8
0
  5
2F50A
 10
817.803
 20
330.879
 30
0.000000
  70
    32
  0
VERTEX
  8
0
  5
2F50B
 10
817.798
 20
330.944
 30
0.000000
  70
    32
  0
VERTEX
  8
0
  5
2F50C
 10
817.793
 20
331.010
 30
0.000000
  70
    32
  0
VERTEX
  8
0
  5
2F50D
 10
817.789
 20
331.076
 30
0.000000
  70
    32
  0
VERTEX
  8
0
  5
2F50E
 10
817.784
 20
331.142
 30
0.000000
  70
    32
  0
VERTEX
  8
0
  5
2F50F
 10
817.779
 20
331.207
 30
0.000000
  70
    32
  0
VERTEX
  8
0
  5
2F510
 10
817.774
 20
331.273
 30
0.000000
  70
    32
  0
VERTEX
  8
0
  5
2F511
 10
817.769
 20
331.339
 30
0.000000
  70
    32
  0
VERTEX
  8
0
  5
2F512
 10
817.763
 20
331.404
 30
0.000000
  70
    32
  0
VERTEX
  8
0
  5
2F513
 10
817.758
 20
331.470
 30
0.000000
  70
    32
  0
VERTEX
  8
0
  5
2F514
 10
817.753
 20
331.536
 30
0.000000
  70
    32
  0
VERTEX
  8
0
  5
2F515
 10
817.747
 20
331.601
 30
0.000000
  70
    32
  0
VERTEX
  8
0
  5
2F516
 10
817.742
 20
331.667
 30
0.000000
  70
    32
  0
VERTEX
  8
0
  5
2F517
 10
817.736
 20
331.732
 30
0.000000
  70
    32
  0
VERTEX
  8
0
  5
2F518
 10
817.731
 20
331.798
 30
0.000000
  70
    32
  0
VERTEX
  8
0
  5
2F519
 10
817.725
 20
331.863
 30
0.000000
  70
    32
  0
VERTEX
  8
0
  5
2F51A
 10
817.719
 20
331.929
 30
0.000000
  70
    32
  0
VERTEX
  8
0
  5
2F51B
 10
817.713
 20
331.994
 30
0.000000
  70
    32
  0
VERTEX
  8
0
  5
2F51C
 10
817.707
 20
332.060
 30
0.000000
  70
    32
  0
VERTEX
  8
0
  5
2F51D
 10
817.701
 20
332.125
 30
0.000000
  70
    32
  0
VERTEX
  8
0
  5
2F51E
 10
817.695
 20
332.191
 30
0.000000
  70
    32
  0
VERTEX
  8
0
  5
2F51F
 10
817.689
 20
332.256
 30
0.000000
  70
    32
  0
VERTEX
  8
0
  5
2F520
 10
817.683
 20
332.321
 30
0.000000
  70
    32
  0
VERTEX
  8
0
  5
2F521
 10
817.676
 20
332.387
 30
0.000000
  70
    32
  0
VERTEX
  8
0
  5
2F522
 10
817.670
 20
332.452
 30
0.000000
  70
    32
  0
VERTEX
  8
0
  5
2F523
 10
817.663
 20
332.517
 30
0.000000
  70
    32
  0
VERTEX
  8
0
  5
2F524
 10
817.657
 20
332.583
 30
0.000000
  70
    32
  0
VERTEX
  8
0
  5
2F525
 10
817.650
 20
332.648
 30
0.000000
  70
    32
  0
VERTEX
  8
0
  5
2F526
 10
817.643
 20
332.713
 30
0.000000
  70
    32
  0
VERTEX
  8
0
  5
2F527
 10
817.637
 20
332.778
 30
0.000000
  70
    32
  0
VERTEX
  8
0
  5
2F528
 10
817.630
 20
332.844
 30
0.000000
  70
    32
  0
VERTEX
  8
0
  5
2F529
 10
817.623
 20
332.909
 30
0.000000
  70
    32
  0
VERTEX
  8
0
  5
2F52A
 10
817.616
 20
332.974
 30
0.000000
  70
    32
  0
VERTEX
  8
0
  5
2F52B
 10
817.609
 20
333.039
 30
0.000000
  70
    32
  0
VERTEX
  8
0
  5
2F52C
 10
817.601
 20
333.104
 30
0.000000
  70
    32
  0
VERTEX
  8
0
  5
2F52D
 10
817.594
 20
333.169
 30
0.000000
  70
    32
  0
VERTEX
  8
0
  5
2F52E
 10
817.587
 20
333.234
 30
0.000000
  70
    32
  0
VERTEX
  8
0
  5
2F52F
 10
817.579
 20
333.299
 30
0.000000
  70
    32
  0
VERTEX
  8
0
  5
2F530
 10
817.572
 20
333.364
 30
0.000000
  70
    32
  0
VERTEX
  8
0
  5
2F531
 10
817.564
 20
333.429
 30
0.000000
  70
    32
  0
VERTEX
  8
0
  5
2F532
 10
817.557
 20
333.494
 30
0.000000
  70
    32
  0
VERTEX
  8
0
  5
2F533
 10
817.549
 20
333.559
 30
0.000000
  70
    32
  0
VERTEX
  8
0
  5
2F534
 10
817.541
 20
333.624
 30
0.000000
  70
    32
  0
VERTEX
  8
0
  5
2F535
 10
817.533
 20
333.689
 30
0.000000
  70
    32
  0
VERTEX
  8
0
  5
2F536
 10
817.525
 20
333.754
 30
0.000000
  70
    32
  0
VERTEX
  8
0
  5
2F537
 10
817.517
 20
333.818
 30
0.000000
  70
    32
  0
VERTEX
  8
0
  5
2F538
 10
817.509
 20
333.883
 30
0.000000
  70
    32
  0
VERTEX
  8
0
  5
2F539
 10
817.501
 20
333.948
 30
0.000000
  70
    32
  0
VERTEX
  8
0
  5
2F53A
 10
817.493
 20
334.013
 30
0.000000
  70
    32
  0
VERTEX
  8
0
  5
2F53B
 10
817.484
 20
334.077
 30
0.000000
  70
    32
  0
VERTEX
  8
0
  5
2F53C
 10
817.476
 20
334.142
 30
0.000000
  70
    32
  0
VERTEX
  8
0
  5
2F53D
 10
817.467
 20
334.207
 30
0.000000
  70
    32
  0
VERTEX
  8
0
  5
2F53E
 10
817.459
 20
334.271
 30
0.000000
  70
    32
  0
VERTEX
  8
0
  5
2F53F
 10
817.450
 20
334.336
 30
0.000000
  70
    32
  0
VERTEX
  8
0
  5
2F540
 10
817.441
 20
334.400
 30
0.000000
  70
    32
  0
VERTEX
  8
0
  5
2F541
 10
817.432
 20
334.465
 30
0.000000
  70
    32
  0
VERTEX
  8
0
  5
2F542
 10
817.424
 20
334.529
 30
0.000000
  70
    32
  0
VERTEX
  8
0
  5
2F543
 10
817.415
 20
334.594
 30
0.000000
  70
    32
  0
VERTEX
  8
0
  5
2F544
 10
817.406
 20
334.658
 30
0.000000
  70
    32
  0
VERTEX
  8
0
  5
2F545
 10
817.397
 20
334.722
 30
0.000000
  70
    32
  0
VERTEX
  8
0
  5
2F546
 10
817.387
 20
334.787
 30
0.000000
  70
    32
  0
VERTEX
  8
0
  5
2F547
 10
817.378
 20
334.851
 30
0.000000
  70
    32
  0
VERTEX
  8
0
  5
2F548
 10
817.369
 20
334.915
 30
0.000000
  70
    32
  0
VERTEX
  8
0
  5
2F549
 10
817.359
 20
334.979
 30
0.000000
  70
    32
  0
VERTEX
  8
0
  5
2F54A
 10
817.350
 20
335.044
 30
0.000000
  70
    32
  0
VERTEX
  8
0
  5
2F54B
 10
817.340
 20
335.108
 30
0.000000
  70
    32
  0
VERTEX
  8
0
  5
2F54C
 10
817.331
 20
335.172
 30
0.000000
  70
    32
  0
VERTEX
  8
0
  5
2F54D
 10
817.321
 20
335.236
 30
0.000000
  70
    32
  0
VERTEX
  8
0
  5
2F54E
 10
817.311
 20
335.300
 30
0.000000
  70
    32
  0
VERTEX
  8
0
  5
2F54F
 10
817.301
 20
335.364
 30
0.000000
  70
    32
  0
SEQEND
  8
0
  5
2F550
  0
LINE
  5
2F032
  8
0
 10
816.7983219899312
 20
337.43523580341753
 30
0.0
 11
817.30122686699781
 21
335.36416805436062
 31
0.0
  0
ARC
  5
2F035
  8
0
 10
861.39450821926107
 20
481.21584902035369
 30
0.0
 40
1.500002326079692
 50
90.000012284499491
 51
154.99984993208011
  0
POLYLINE
  5
2F036
  8
0
 66
     1
 10
0.0
 20
0.0
 30
0.0
 70
   128
  0
VERTEX
  5
2F331
  8
0
 10
859.38865048215541
 20
480.46358553546628
 30
0.0
  0
VERTEX
  5
2F332
  8
0
 10
859.61570413187894
 20
480.9504958786365
 30
0.0
  0
VERTEX
  5
2F333
  8
0
 10
859.83132859096679
 20
481.41290871280398
 30
0.0
  0
VERTEX
  5
2F334
  8
0
 10
860.03504609093818
 20
481.84978095668521
 30
0.0
  0
SEQEND
  5
2F335
  8
0
  0
POLYLINE
  5
2F03A
  8
0
 66
     1
 10
0.0
 20
0.0
 30
0.0
 70
   128
  0
VERTEX
  5
2F336
  8
0
 10
835.84275943563136
 20
481.84978095668521
 30
0.0
  0
VERTEX
  5
2F337
  8
0
 10
836.04647693560275
 20
481.41290871280398
 30
0.0
  0
VERTEX
  5
2F338
  8
0
 10
836.2621013946906
 20
480.9504958786365
 30
0.0
  0
VERTEX
  5
2F339
  8
0
 10
836.48915504441413
 20
480.46358553546628
 30
0.0
  0
SEQEND
  5
2F33A
  8
0
  0
ARC
  5
2F03B
  8
0
 10
834.49140728186171
 20
481.22857916421702
 30
0.0
 40
1.4872942918143091
 50
24.687724031786939
 51
90.312413751650709
  0
POLYLINE
  5
2F03C
  8
0
 10
881.91451558200311
 20
335.3641680454835
 30
0.0
 66
     1
 70
     8
  0
VERTEX
  8
0
  5
2F551
 10
881.915
 20
335.364
 30
0.000000
  70
    32
  0
VERTEX
  8
0
  5
2F552
 10
881.903
 20
335.301
 30
0.000000
  70
    32
  0
VERTEX
  8
0
  5
2F553
 10
881.891
 20
335.237
 30
0.000000
  70
    32
  0
VERTEX
  8
0
  5
2F554
 10
881.879
 20
335.174
 30
0.000000
  70
    32
  0
VERTEX
  8
0
  5
2F555
 10
881.867
 20
335.111
 30
0.000000
  70
    32
  0
VERTEX
  8
0
  5
2F556
 10
881.856
 20
335.047
 30
0.000000
  70
    32
  0
VERTEX
  8
0
  5
2F557
 10
881.844
 20
334.983
 30
0.000000
  70
    32
  0
VERTEX
  8
0
  5
2F558
 10
881.833
 20
334.920
 30
0.000000
  70
    32
  0
VERTEX
  8
0
  5
2F559
 10
881.821
 20
334.856
 30
0.000000
  70
    32
  0
VERTEX
  8
0
  5
2F55A
 10
881.810
 20
334.792
 30
0.000000
  70
    32
  0
VERTEX
  8
0
  5
2F55B
 10
881.799
 20
334.729
 30
0.000000
  70
    32
  0
VERTEX
  8
0
  5
2F55C
 10
881.788
 20
334.665
 30
0.000000
  70
    32
  0
VERTEX
  8
0
  5
2F55D
 10
881.777
 20
334.601
 30
0.000000
  70
    32
  0
VERTEX
  8
0
  5
2F55E
 10
881.766
 20
334.537
 30
0.000000
  70
    32
  0
VERTEX
  8
0
  5
2F55F
 10
881.755
 20
334.473
 30
0.000000
  70
    32
  0
VERTEX
  8
0
  5
2F560
 10
881.745
 20
334.409
 30
0.000000
  70
    32
  0
VERTEX
  8
0
  5
2F561
 10
881.734
 20
334.345
 30
0.000000
  70
    32
  0
VERTEX
  8
0
  5
2F562
 10
881.723
 20
334.281
 30
0.000000
  70
    32
  0
VERTEX
  8
0
  5
2F563
 10
881.713
 20
334.217
 30
0.000000
  70
    32
  0
VERTEX
  8
0
  5
2F564
 10
881.703
 20
334.153
 30
0.000000
  70
    32
  0
VERTEX
  8
0
  5
2F565
 10
881.692
 20
334.088
 30
0.000000
  70
    32
  0
VERTEX
  8
0
  5
2F566
 10
881.682
 20
334.024
 30
0.000000
  70
    32
  0
VERTEX
  8
0
  5
2F567
 10
881.672
 20
333.960
 30
0.000000
  70
    32
  0
VERTEX
  8
0
  5
2F568
 10
881.662
 20
333.895
 30
0.000000
  70
    32
  0
VERTEX
  8
0
  5
2F569
 10
881.652
 20
333.831
 30
0.000000
  70
    32
  0
VERTEX
  8
0
  5
2F56A
 10
881.643
 20
333.767
 30
0.000000
  70
    32
  0
VERTEX
  8
0
  5
2F56B
 10
881.633
 20
333.702
 30
0.000000
  70
    32
  0
VERTEX
  8
0
  5
2F56C
 10
881.623
 20
333.638
 30
0.000000
  70
    32
  0
VERTEX
  8
0
  5
2F56D
 10
881.614
 20
333.573
 30
0.000000
  70
    32
  0
VERTEX
  8
0
  5
2F56E
 10
881.604
 20
333.508
 30
0.000000
  70
    32
  0
VERTEX
  8
0
  5
2F56F
 10
881.595
 20
333.444
 30
0.000000
  70
    32
  0
VERTEX
  8
0
  5
2F570
 10
881.586
 20
333.379
 30
0.000000
  70
    32
  0
VERTEX
  8
0
  5
2F571
 10
881.577
 20
333.314
 30
0.000000
  70
    32
  0
VERTEX
  8
0
  5
2F572
 10
881.568
 20
333.250
 30
0.000000
  70
    32
  0
VERTEX
  8
0
  5
2F573
 10
881.559
 20
333.185
 30
0.000000
  70
    32
  0
VERTEX
  8
0
  5
2F574
 10
881.550
 20
333.120
 30
0.000000
  70
    32
  0
VERTEX
  8
0
  5
2F575
 10
881.541
 20
333.055
 30
0.000000
  70
    32
  0
VERTEX
  8
0
  5
2F576
 10
881.533
 20
332.990
 30
0.000000
  70
    32
  0
VERTEX
  8
0
  5
2F577
 10
881.524
 20
332.925
 30
0.000000
  70
    32
  0
VERTEX
  8
0
  5
2F578
 10
881.516
 20
332.860
 30
0.000000
  70
    32
  0
VERTEX
  8
0
  5
2F579
 10
881.507
 20
332.795
 30
0.000000
  70
    32
  0
VERTEX
  8
0
  5
2F57A
 10
881.499
 20
332.730
 30
0.000000
  70
    32
  0
VERTEX
  8
0
  5
2F57B
 10
881.491
 20
332.665
 30
0.000000
  70
    32
  0
VERTEX
  8
0
  5
2F57C
 10
881.483
 20
332.600
 30
0.000000
  70
    32
  0
VERTEX
  8
0
  5
2F57D
 10
881.475
 20
332.535
 30
0.000000
  70
    32
  0
VERTEX
  8
0
  5
2F57E
 10
881.467
 20
332.469
 30
0.000000
  70
    32
  0
VERTEX
  8
0
  5
2F57F
 10
881.459
 20
332.404
 30
0.000000
  70
    32
  0
VERTEX
  8
0
  5
2F580
 10
881.451
 20
332.339
 30
0.000000
  70
    32
  0
VERTEX
  8
0
  5
2F581
 10
881.443
 20
332.274
 30
0.000000
  70
    32
  0
VERTEX
  8
0
  5
2F582
 10
881.436
 20
332.208
 30
0.000000
  70
    32
  0
VERTEX
  8
0
  5
2F583
 10
881.428
 20
332.143
 30
0.000000
  70
    32
  0
VERTEX
  8
0
  5
2F584
 10
881.421
 20
332.078
 30
0.000000
  70
    32
  0
VERTEX
  8
0
  5
2F585
 10
881.414
 20
332.012
 30
0.000000
  70
    32
  0
VERTEX
  8
0
  5
2F586
 10
881.407
 20
331.947
 30
0.000000
  70
    32
  0
VERTEX
  8
0
  5
2F587
 10
881.400
 20
331.881
 30
0.000000
  70
    32
  0
VERTEX
  8
0
  5
2F588
 10
881.393
 20
331.816
 30
0.000000
  70
    32
  0
VERTEX
  8
0
  5
2F589
 10
881.386
 20
331.750
 30
0.000000
  70
    32
  0
VERTEX
  8
0
  5
2F58A
 10
881.379
 20
331.684
 30
0.000000
  70
    32
  0
VERTEX
  8
0
  5
2F58B
 10
881.372
 20
331.619
 30
0.000000
  70
    32
  0
VERTEX
  8
0
  5
2F58C
 10
881.366
 20
331.553
 30
0.000000
  70
    32
  0
VERTEX
  8
0
  5
2F58D
 10
881.359
 20
331.488
 30
0.000000
  70
    32
  0
VERTEX
  8
0
  5
2F58E
 10
881.353
 20
331.422
 30
0.000000
  70
    32
  0
VERTEX
  8
0
  5
2F58F
 10
881.346
 20
331.356
 30
0.000000
  70
    32
  0
VERTEX
  8
0
  5
2F590
 10
881.340
 20
331.290
 30
0.000000
  70
    32
  0
VERTEX
  8
0
  5
2F591
 10
881.334
 20
331.225
 30
0.000000
  70
    32
  0
VERTEX
  8
0
  5
2F592
 10
881.328
 20
331.159
 30
0.000000
  70
    32
  0
VERTEX
  8
0
  5
2F593
 10
881.322
 20
331.093
 30
0.000000
  70
    32
  0
VERTEX
  8
0
  5
2F594
 10
881.316
 20
331.027
 30
0.000000
  70
    32
  0
VERTEX
  8
0
  5
2F595
 10
881.310
 20
330.961
 30
0.000000
  70
    32
  0
VERTEX
  8
0
  5
2F596
 10
881.305
 20
330.895
 30
0.000000
  70
    32
  0
VERTEX
  8
0
  5
2F597
 10
881.299
 20
330.829
 30
0.000000
  70
    32
  0
VERTEX
  8
0
  5
2F598
 10
881.294
 20
330.763
 30
0.000000
  70
    32
  0
VERTEX
  8
0
  5
2F599
 10
881.288
 20
330.697
 30
0.000000
  70
    32
  0
VERTEX
  8
0
  5
2F59A
 10
881.283
 20
330.631
 30
0.000000
  70
    32
  0
VERTEX
  8
0
  5
2F59B
 10
881.278
 20
330.565
 30
0.000000
  70
    32
  0
VERTEX
  8
0
  5
2F59C
 10
881.273
 20
330.499
 30
0.000000
  70
    32
  0
VERTEX
  8
0
  5
2F59D
 10
881.268
 20
330.433
 30
0.000000
  70
    32
  0
VERTEX
  8
0
  5
2F59E
 10
881.263
 20
330.367
 30
0.000000
  70
    32
  0
VERTEX
  8
0
  5
2F59F
 10
881.258
 20
330.301
 30
0.000000
  70
    32
  0
VERTEX
  8
0
  5
2F5A0
 10
881.253
 20
330.235
 30
0.000000
  70
    32
  0
VERTEX
  8
0
  5
2F5A1
 10
881.249
 20
330.169
 30
0.000000
  70
    32
  0
VERTEX
  8
0
  5
2F5A2
 10
881.244
 20
330.103
 30
0.000000
  70
    32
  0
VERTEX
  8
0
  5
2F5A3
 10
881.240
 20
330.036
 30
0.000000
  70
    32
  0
VERTEX
  8
0
  5
2F5A4
 10
881.235
 20
329.970
 30
0.000000
  70
    32
  0
VERTEX
  8
0
  5
2F5A5
 10
881.231
 20
329.904
 30
0.000000
  70
    32
  0
VERTEX
  8
0
  5
2F5A6
 10
881.227
 20
329.838
 30
0.000000
  70
    32
  0
VERTEX
  8
0
  5
2F5A7
 10
881.223
 20
329.772
 30
0.000000
  70
    32
  0
VERTEX
  8
0
  5
2F5A8
 10
881.219
 20
329.705
 30
0.000000
  70
    32
  0
VERTEX
  8
0
  5
2F5A9
 10
881.215
 20
329.639
 30
0.000000
  70
    32
  0
VERTEX
  8
0
  5
2F5AA
 10
881.211
 20
329.573
 30
0.000000
  70
    32
  0
VERTEX
  8
0
  5
2F5AB
 10
881.208
 20
329.506
 30
0.000000
  70
    32
  0
VERTEX
  8
0
  5
2F5AC
 10
881.204
 20
329.440
 30
0.000000
  70
    32
  0
VERTEX
  8
0
  5
2F5AD
 10
881.201
 20
329.374
 30
0.000000
  70
    32
  0
VERTEX
  8
0
  5
2F5AE
 10
881.197
 20
329.307
 30
0.000000
  70
    32
  0
VERTEX
  8
0
  5
2F5AF
 10
881.194
 20
329.241
 30
0.000000
  70
    32
  0
VERTEX
  8
0
  5
2F5B0
 10
881.191
 20
329.174
 30
0.000000
  70
    32
  0
VERTEX
  8
0
  5
2F5B1
 10
881.188
 20
329.108
 30
0.000000
  70
    32
  0
VERTEX
  8
0
  5
2F5B2
 10
881.185
 20
329.042
 30
0.000000
  70
    32
  0
VERTEX
  8
0
  5
2F5B3
 10
881.182
 20
328.975
 30
0.000000
  70
    32
  0
VERTEX
  8
0
  5
2F5B4
 10
881.179
 20
328.909
 30
0.000000
  70
    32
  0
VERTEX
  8
0
  5
2F5B5
 10
881.176
 20
328.842
 30
0.000000
  70
    32
  0
VERTEX
  8
0
  5
2F5B6
 10
881.174
 20
328.776
 30
0.000000
  70
    32
  0
VERTEX
  8
0
  5
2F5B7
 10
881.171
 20
328.709
 30
0.000000
  70
    32
  0
VERTEX
  8
0
  5
2F5B8
 10
881.169
 20
328.643
 30
0.000000
  70
    32
  0
VERTEX
  8
0
  5
2F5B9
 10
881.166
 20
328.576
 30
0.000000
  70
    32
  0
VERTEX
  8
0
  5
2F5BA
 10
881.164
 20
328.510
 30
0.000000
  70
    32
  0
VERTEX
  8
0
  5
2F5BB
 10
881.162
 20
328.443
 30
0.000000
  70
    32
  0
VERTEX
  8
0
  5
2F5BC
 10
881.160
 20
328.377
 30
0.000000
  70
    32
  0
VERTEX
  8
0
  5
2F5BD
 10
881.158
 20
328.310
 30
0.000000
  70
    32
  0
VERTEX
  8
0
  5
2F5BE
 10
881.156
 20
328.244
 30
0.000000
  70
    32
  0
VERTEX
  8
0
  5
2F5BF
 10
881.154
 20
328.177
 30
0.000000
  70
    32
  0
VERTEX
  8
0
  5
2F5C0
 10
881.153
 20
328.110
 30
0.000000
  70
    32
  0
VERTEX
  8
0
  5
2F5C1
 10
881.151
 20
328.044
 30
0.000000
  70
    32
  0
VERTEX
  8
0
  5
2F5C2
 10
881.150
 20
327.977
 30
0.000000
  70
    32
  0
VERTEX
  8
0
  5
2F5C3
 10
881.148
 20
327.911
 30
0.000000
  70
    32
  0
VERTEX
  8
0
  5
2F5C4
 10
881.147
 20
327.844
 30
0.000000
  70
    32
  0
VERTEX
  8
0
  5
2F5C5
 10
881.146
 20
327.777
 30
0.000000
  70
    32
  0
VERTEX
  8
0
  5
2F5C6
 10
881.145
 20
327.711
 30
0.000000
  70
    32
  0
VERTEX
  8
0
  5
2F5C7
 10
881.144
 20
327.644
 30
0.000000
  70
    32
  0
VERTEX
  8
0
  5
2F5C8
 10
881.143
 20
327.578
 30
0.000000
  70
    32
  0
VERTEX
  8
0
  5
2F5C9
 10
881.142
 20
327.511
 30
0.000000
  70
    32
  0
VERTEX
  8
0
  5
2F5CA
 10
881.141
 20
327.444
 30
0.000000
  70
    32
  0
VERTEX
  8
0
  5
2F5CB
 10
881.141
 20
327.378
 30
0.000000
  70
    32
  0
VERTEX
  8
0
  5
2F5CC
 10
881.140
 20
327.311
 30
0.000000
  70
    32
  0
VERTEX
  8
0
  5
2F5CD
 10
881.140
 20
327.245
 30
0.000000
  70
    32
  0
VERTEX
  8
0
  5
2F5CE
 10
881.139
 20
327.178
 30
0.000000
  70
    32
  0
VERTEX
  8
0
  5
2F5CF
 10
881.139
 20
327.111
 30
0.000000
  70
    32
  0
VERTEX
  8
0
  5
2F5D0
 10
881.139
 20
327.045
 30
0.000000
  70
    32
  0
VERTEX
  8
0
  5
2F5D1
 10
881.139
 20
326.978
 30
0.000000
  70
    32
  0
SEQEND
  8
0
  5
2F5D2
  0
LINE
  5
2F03D
  8
0
 10
882.53595316187295
 20
337.43523580341753
 30
0.0
 11
881.91451513544473
 21
335.36416805436062
 31
0.0
  0
POLYLINE
  5
2F03E
  8
0
 10
814.7389027632845
 20
326.97803267767716
 30
0.0
 66
     1
 70
     8
  0
VERTEX
  8
0
  5
2F5D3
 10
814.739
 20
326.978
 30
0.000000
  70
    32
  0
VERTEX
  8
0
  5
2F5D4
 10
814.739
 20
327.045
 30
0.000000
  70
    32
  0
VERTEX
  8
0
  5
2F5D5
 10
814.739
 20
327.111
 30
0.000000
  70
    32
  0
VERTEX
  8
0
  5
2F5D6
 10
814.738
 20
327.178
 30
0.000000
  70
    32
  0
VERTEX
  8
0
  5
2F5D7
 10
814.738
 20
327.245
 30
0.000000
  70
    32
  0
VERTEX
  8
0
  5
2F5D8
 10
814.738
 20
327.311
 30
0.000000
  70
    32
  0
VERTEX
  8
0
  5
2F5D9
 10
814.737
 20
327.378
 30
0.000000
  70
    32
  0
VERTEX
  8
0
  5
2F5DA
 10
814.737
 20
327.444
 30
0.000000
  70
    32
  0
VERTEX
  8
0
  5
2F5DB
 10
814.736
 20
327.511
 30
0.000000
  70
    32
  0
VERTEX
  8
0
  5
2F5DC
 10
814.735
 20
327.578
 30
0.000000
  70
    32
  0
VERTEX
  8
0
  5
2F5DD
 10
814.734
 20
327.644
 30
0.000000
  70
    32
  0
VERTEX
  8
0
  5
2F5DE
 10
814.733
 20
327.711
 30
0.000000
  70
    32
  0
VERTEX
  8
0
  5
2F5DF
 10
814.732
 20
327.777
 30
0.000000
  70
    32
  0
VERTEX
  8
0
  5
2F5E0
 10
814.731
 20
327.844
 30
0.000000
  70
    32
  0
VERTEX
  8
0
  5
2F5E1
 10
814.730
 20
327.911
 30
0.000000
  70
    32
  0
VERTEX
  8
0
  5
2F5E2
 10
814.728
 20
327.977
 30
0.000000
  70
    32
  0
VERTEX
  8
0
  5
2F5E3
 10
814.727
 20
328.044
 30
0.000000
  70
    32
  0
VERTEX
  8
0
  5
2F5E4
 10
814.725
 20
328.110
 30
0.000000
  70
    32
  0
VERTEX
  8
0
  5
2F5E5
 10
814.723
 20
328.177
 30
0.000000
  70
    32
  0
VERTEX
  8
0
  5
2F5E6
 10
814.722
 20
328.244
 30
0.000000
  70
    32
  0
VERTEX
  8
0
  5
2F5E7
 10
814.720
 20
328.310
 30
0.000000
  70
    32
  0
VERTEX
  8
0
  5
2F5E8
 10
814.718
 20
328.377
 30
0.000000
  70
    32
  0
VERTEX
  8
0
  5
2F5E9
 10
814.716
 20
328.443
 30
0.000000
  70
    32
  0
VERTEX
  8
0
  5
2F5EA
 10
814.714
 20
328.510
 30
0.000000
  70
    32
  0
VERTEX
  8
0
  5
2F5EB
 10
814.711
 20
328.576
 30
0.000000
  70
    32
  0
VERTEX
  8
0
  5
2F5EC
 10
814.709
 20
328.643
 30
0.000000
  70
    32
  0
VERTEX
  8
0
  5
2F5ED
 10
814.707
 20
328.709
 30
0.000000
  70
    32
  0
VERTEX
  8
0
  5
2F5EE
 10
814.704
 20
328.776
 30
0.000000
  70
    32
  0
VERTEX
  8
0
  5
2F5EF
 10
814.701
 20
328.842
 30
0.000000
  70
    32
  0
VERTEX
  8
0
  5
2F5F0
 10
814.699
 20
328.909
 30
0.000000
  70
    32
  0
VERTEX
  8
0
  5
2F5F1
 10
814.696
 20
328.975
 30
0.000000
  70
    32
  0
VERTEX
  8
0
  5
2F5F2
 10
814.693
 20
329.042
 30
0.000000
  70
    32
  0
VERTEX
  8
0
  5
2F5F3
 10
814.690
 20
329.108
 30
0.000000
  70
    32
  0
VERTEX
  8
0
  5
2F5F4
 10
814.687
 20
329.174
 30
0.000000
  70
    32
  0
VERTEX
  8
0
  5
2F5F5
 10
814.684
 20
329.241
 30
0.000000
  70
    32
  0
VERTEX
  8
0
  5
2F5F6
 10
814.680
 20
329.307
 30
0.000000
  70
    32
  0
VERTEX
  8
0
  5
2F5F7
 10
814.677
 20
329.374
 30
0.000000
  70
    32
  0
VERTEX
  8
0
  5
2F5F8
 10
814.674
 20
329.440
 30
0.000000
  70
    32
  0
VERTEX
  8
0
  5
2F5F9
 10
814.670
 20
329.506
 30
0.000000
  70
    32
  0
VERTEX
  8
0
  5
2F5FA
 10
814.666
 20
329.573
 30
0.000000
  70
    32
  0
VERTEX
  8
0
  5
2F5FB
 10
814.663
 20
329.639
 30
0.000000
  70
    32
  0
VERTEX
  8
0
  5
2F5FC
 10
814.659
 20
329.705
 30
0.000000
  70
    32
  0
VERTEX
  8
0
  5
2F5FD
 10
814.655
 20
329.772
 30
0.000000
  70
    32
  0
VERTEX
  8
0
  5
2F5FE
 10
814.651
 20
329.838
 30
0.000000
  70
    32
  0
VERTEX
  8
0
  5
2F5FF
 10
814.647
 20
329.904
 30
0.000000
  70
    32
  0
VERTEX
  8
0
  5
2F600
 10
814.642
 20
329.970
 30
0.000000
  70
    32
  0
VERTEX
  8
0
  5
2F601
 10
814.638
 20
330.036
 30
0.000000
  70
    32
  0
VERTEX
  8
0
  5
2F602
 10
814.634
 20
330.103
 30
0.000000
  70
    32
  0
VERTEX
  8
0
  5
2F603
 10
814.629
 20
330.169
 30
0.000000
  70
    32
  0
VERTEX
  8
0
  5
2F604
 10
814.624
 20
330.235
 30
0.000000
  70
    32
  0
VERTEX
  8
0
  5
2F605
 10
814.620
 20
330.301
 30
0.000000
  70
    32
  0
VERTEX
  8
0
  5
2F606
 10
814.615
 20
330.367
 30
0.000000
  70
    32
  0
VERTEX
  8
0
  5
2F607
 10
814.610
 20
330.433
 30
0.000000
  70
    32
  0
VERTEX
  8
0
  5
2F608
 10
814.605
 20
330.499
 30
0.000000
  70
    32
  0
VERTEX
  8
0
  5
2F609
 10
814.600
 20
330.565
 30
0.000000
  70
    32
  0
VERTEX
  8
0
  5
2F60A
 10
814.595
 20
330.631
 30
0.000000
  70
    32
  0
VERTEX
  8
0
  5
2F60B
 10
814.589
 20
330.697
 30
0.000000
  70
    32
  0
VERTEX
  8
0
  5
2F60C
 10
814.584
 20
330.763
 30
0.000000
  70
    32
  0
VERTEX
  8
0
  5
2F60D
 10
814.579
 20
330.829
 30
0.000000
  70
    32
  0
VERTEX
  8
0
  5
2F60E
 10
814.573
 20
330.895
 30
0.000000
  70
    32
  0
VERTEX
  8
0
  5
2F60F
 10
814.567
 20
330.961
 30
0.000000
  70
    32
  0
VERTEX
  8
0
  5
2F610
 10
814.562
 20
331.027
 30
0.000000
  70
    32
  0
VERTEX
  8
0
  5
2F611
 10
814.556
 20
331.093
 30
0.000000
  70
    32
  0
VERTEX
  8
0
  5
2F612
 10
814.550
 20
331.159
 30
0.000000
  70
    32
  0
VERTEX
  8
0
  5
2F613
 10
814.544
 20
331.225
 30
0.000000
  70
    32
  0
VERTEX
  8
0
  5
2F614
 10
814.538
 20
331.290
 30
0.000000
  70
    32
  0
VERTEX
  8
0
  5
2F615
 10
814.531
 20
331.356
 30
0.000000
  70
    32
  0
VERTEX
  8
0
  5
2F616
 10
814.525
 20
331.422
 30
0.000000
  70
    32
  0
VERTEX
  8
0
  5
2F617
 10
814.519
 20
331.488
 30
0.000000
  70
    32
  0
VERTEX
  8
0
  5
2F618
 10
814.512
 20
331.553
 30
0.000000
  70
    32
  0
VERTEX
  8
0
  5
2F619
 10
814.506
 20
331.619
 30
0.000000
  70
    32
  0
VERTEX
  8
0
  5
2F61A
 10
814.499
 20
331.684
 30
0.000000
  70
    32
  0
VERTEX
  8
0
  5
2F61B
 10
814.492
 20
331.750
 30
0.000000
  70
    32
  0
VERTEX
  8
0
  5
2F61C
 10
814.485
 20
331.816
 30
0.000000
  70
    32
  0
VERTEX
  8
0
  5
2F61D
 10
814.478
 20
331.881
 30
0.000000
  70
    32
  0
VERTEX
  8
0
  5
2F61E
 10
814.471
 20
331.947
 30
0.000000
  70
    32
  0
VERTEX
  8
0
  5
2F61F
 10
814.464
 20
332.012
 30
0.000000
  70
    32
  0
VERTEX
  8
0
  5
2F620
 10
814.457
 20
332.078
 30
0.000000
  70
    32
  0
VERTEX
  8
0
  5
2F621
 10
814.449
 20
332.143
 30
0.000000
  70
    32
  0
VERTEX
  8
0
  5
2F622
 10
814.442
 20
332.208
 30
0.000000
  70
    32
  0
VERTEX
  8
0
  5
2F623
 10
814.434
 20
332.274
 30
0.000000
  70
    32
  0
VERTEX
  8
0
  5
2F624
 10
814.427
 20
332.339
 30
0.000000
  70
    32
  0
VERTEX
  8
0
  5
2F625
 10
814.419
 20
332.404
 30
0.000000
  70
    32
  0
VERTEX
  8
0
  5
2F626
 10
814.411
 20
332.469
 30
0.000000
  70
    32
  0
VERTEX
  8
0
  5
2F627
 10
814.403
 20
332.535
 30
0.000000
  70
    32
  0
VERTEX
  8
0
  5
2F628
 10
814.395
 20
332.600
 30
0.000000
  70
    32
  0
VERTEX
  8
0
  5
2F629
 10
814.387
 20
332.665
 30
0.000000
  70
    32
  0
VERTEX
  8
0
  5
2F62A
 10
814.379
 20
332.730
 30
0.000000
  70
    32
  0
VERTEX
  8
0
  5
2F62B
 10
814.371
 20
332.795
 30
0.000000
  70
    32
  0
VERTEX
  8
0
  5
2F62C
 10
814.362
 20
332.860
 30
0.000000
  70
    32
  0
VERTEX
  8
0
  5
2F62D
 10
814.354
 20
332.925
 30
0.000000
  70
    32
  0
VERTEX
  8
0
  5
2F62E
 10
814.345
 20
332.990
 30
0.000000
  70
    32
  0
VERTEX
  8
0
  5
2F62F
 10
814.337
 20
333.055
 30
0.000000
  70
    32
  0
VERTEX
  8
0
  5
2F630
 10
814.328
 20
333.120
 30
0.000000
  70
    32
  0
VERTEX
  8
0
  5
2F631
 10
814.319
 20
333.185
 30
0.000000
  70
    32
  0
VERTEX
  8
0
  5
2F632
 10
814.310
 20
333.250
 30
0.000000
  70
    32
  0
VERTEX
  8
0
  5
2F633
 10
814.301
 20
333.314
 30
0.000000
  70
    32
  0
VERTEX
  8
0
  5
2F634
 10
814.292
 20
333.379
 30
0.000000
  70
    32
  0
VERTEX
  8
0
  5
2F635
 10
814.283
 20
333.444
 30
0.000000
  70
    32
  0
VERTEX
  8
0
  5
2F636
 10
814.273
 20
333.508
 30
0.000000
  70
    32
  0
VERTEX
  8
0
  5
2F637
 10
814.264
 20
333.573
 30
0.000000
  70
    32
  0
VERTEX
  8
0
  5
2F638
 10
814.254
 20
333.638
 30
0.000000
  70
    32
  0
VERTEX
  8
0
  5
2F639
 10
814.245
 20
333.702
 30
0.000000
  70
    32
  0
VERTEX
  8
0
  5
2F63A
 10
814.235
 20
333.767
 30
0.000000
  70
    32
  0
VERTEX
  8
0
  5
2F63B
 10
814.225
 20
333.831
 30
0.000000
  70
    32
  0
VERTEX
  8
0
  5
2F63C
 10
814.216
 20
333.895
 30
0.000000
  70
    32
  0
VERTEX
  8
0
  5
2F63D
 10
814.206
 20
333.960
 30
0.000000
  70
    32
  0
VERTEX
  8
0
  5
2F63E
 10
814.196
 20
334.024
 30
0.000000
  70
    32
  0
VERTEX
  8
0
  5
2F63F
 10
814.185
 20
334.088
 30
0.000000
  70
    32
  0
VERTEX
  8
0
  5
2F640
 10
814.175
 20
334.153
 30
0.000000
  70
    32
  0
VERTEX
  8
0
  5
2F641
 10
814.165
 20
334.217
 30
0.000000
  70
    32
  0
VERTEX
  8
0
  5
2F642
 10
814.154
 20
334.281
 30
0.000000
  70
    32
  0
VERTEX
  8
0
  5
2F643
 10
814.144
 20
334.345
 30
0.000000
  70
    32
  0
VERTEX
  8
0
  5
2F644
 10
814.133
 20
334.409
 30
0.000000
  70
    32
  0
VERTEX
  8
0
  5
2F645
 10
814.123
 20
334.473
 30
0.000000
  70
    32
  0
VERTEX
  8
0
  5
2F646
 10
814.112
 20
334.537
 30
0.000000
  70
    32
  0
VERTEX
  8
0
  5
2F647
 10
814.101
 20
334.601
 30
0.000000
  70
    32
  0
VERTEX
  8
0
  5
2F648
 10
814.090
 20
334.665
 30
0.000000
  70
    32
  0
VERTEX
  8
0
  5
2F649
 10
814.079
 20
334.729
 30
0.000000
  70
    32
  0
VERTEX
  8
0
  5
2F64A
 10
814.068
 20
334.792
 30
0.000000
  70
    32
  0
VERTEX
  8
0
  5
2F64B
 10
814.057
 20
334.856
 30
0.000000
  70
    32
  0
VERTEX
  8
0
  5
2F64C
 10
814.045
 20
334.920
 30
0.000000
  70
    32
  0
VERTEX
  8
0
  5
2F64D
 10
814.034
 20
334.983
 30
0.000000
  70
    32
  0
VERTEX
  8
0
  5
2F64E
 10
814.022
 20
335.047
 30
0.000000
  70
    32
  0
VERTEX
  8
0
  5
2F64F
 10
814.011
 20
335.111
 30
0.000000
  70
    32
  0
VERTEX
  8
0
  5
2F650
 10
813.999
 20
335.174
 30
0.000000
  70
    32
  0
VERTEX
  8
0
  5
2F651
 10
813.987
 20
335.237
 30
0.000000
  70
    32
  0
VERTEX
  8
0
  5
2F652
 10
813.975
 20
335.301
 30
0.000000
  70
    32
  0
VERTEX
  8
0
  5
2F653
 10
813.963
 20
335.364
 30
0.000000
  70
    32
  0
SEQEND
  8
0
  5
2F654
  0
LINE
  5
2F03F
  8
0
 10
813.96329039112481
 20
335.36416805436062
 30
0.0
 11
813.34185236469659
 21
337.43523580341753
 31
0.0
  0
LINE
  5
2F040
  8
0
 10
836.48915504441413
 20
480.46358553546628
 30
0.0
 11
837.76072514579448
 21
477.73668793815341
 31
0.0
  0
LINE
  5
2F041
  8
0
 10
858.11708038077506
 20
477.73668793815341
 30
0.0
 11
859.38865048215541
 21
480.46358553546628
 31
0.0
  0
ARC
  5
2F043
  8
0
 10
840.9328022831811
 20
479.21585485115969
 30
0.0
 40
3.4999999999739861
 50
205.0000000000106
 51
221.0823331402548
  0
LINE
  5
2F044
  8
0
 10
838.294620712854
 20
476.91585747379031
 30
0.0
 11
857.58318481371555
 21
476.91585747379031
 31
0.0
  0
ARC
  5
2F045
  8
0
 10
854.94500324338935
 20
479.21585485115969
 30
0.0
 40
3.4999999999735789
 50
318.91766685974522
 51
335.00000000031201
  0
LINE
  5
2F048
  8
0
 10
881.13890224472436
 20
326.97803312766519
 30
0.0
 11
881.13890224472436
 21
325.9158550747033
 31
0.0
  0
LINE
  5
2F049
  8
0
 10
877.93890209273252
 20
325.9158550747033
 30
0.0
 11
881.13890224472436
 21
325.9158550747033
 31
0.0
  0
LINE
  5
2F04C
  8
0
 10
814.73890328184518
 20
325.9158550747033
 30
0.0
 11
817.93890343383703
 21
325.9158550747033
 31
0.0
  0
LINE
  5
2F04D
  8
0
 10
814.73890328184518
 20
325.9158550747033
 30
0.0
 11
814.73890328184518
 21
326.97803312766519
 31
0.0
  0
LINE
  5
2F050
  8
0
 10
881.13890224472436
 20
325.9158550747033
 30
0.0
 11
881.13890224472436
 21
320.91585518646212
 31
0.0
  0
LINE
  5
2F052
  8
0
 10
814.73890328184518
 20
320.91585518646212
 30
0.0
 11
814.73890328184518
 21
325.9158550747033
 31
0.0
  0
LINE
  5
2F058
  8
0
 10
813.79775339142236
 20
335.91585485118588
 30
0.0
 11
808.37608510033044
 21
335.91585485118588
 31
0.0
  0
ARC
  5
2F059
  8
0
 10
820.90112838176958
 20
340.58851630035542
 30
0.0
 40
13.368263695053081
 50
166.28081210963899
 51
200.45880948721029
  0
LINE
  5
2F05A
  8
0
 10
807.23890298382196
 20
326.91585523861607
 30
0.0
 11
807.23890298382196
 21
344.28023053187098
 31
0.0
  0
ARC
  5
2F05C
  8
0
 10
821.49678401760843
 20
331.16585500392279
 30
0.0
 40
13.95404022592991
 50
160.09855934115879
 51
199.9014406588411
  0
LINE
  5
2F05D
  8
0
 10
891.13890388385209
 20
345.41585454571208
 30
0.0
 11
890.62994727269563
 21
345.41585454571208
 31
0.0
  0
LINE
  5
2F05F
  8
0
 10
891.13890388385209
 20
335.91585485118588
 30
0.0
 11
882.08005213514718
 21
335.91585485118588
 31
0.0
  0
LINE
  5
2F060
  8
0
 10
891.13890388385209
 20
345.41585454571208
 30
0.0
 11
891.13890388385209
 21
326.41585515665969
 31
0.0
  0
LINE
  5
2F061
  8
0
 10
891.13890388385209
 20
326.41585515665969
 30
0.0
 11
881.13890224472436
 21
326.41585515665969
 31
0.0
  0
LINE
  5
2F062
  8
0
 10
814.73890328184518
 20
326.41585515665969
 30
0.0
 11
807.52757945434007
 21
326.41585515665969
 31
0.0
  0
LINE
  5
2F064
  8
0
 10
872.93890313581198
 20
239.9158540166967
 30
0.0
 11
872.9389031358138
 21
431.91585568565102
 31
0.0
  0
LINE
  5
2F066
  8
0
 10
822.93890239075449
 20
239.91585401674641
 30
0.0
 11
822.93890239075574
 21
431.91585568565102
 31
0.0
  0
LINE
  5
2F06A
  8
0
 10
869.86164943650942
 20
235.91585485118611
 30
0.0
 11
869.86164943651113
 21
435.915856341302
 31
0.0
  0
LINE
  5
2F06C
  8
0
 10
826.0161560900566
 20
235.9158548511862
 30
0.0
 11
826.01615609005842
 21
435.915856341302
 31
0.0
  0
LINE
  5
2F070
  8
0
 10
162.9018811537882
 20
350.91585302579369
 30
0.0
 11
157.90188219686951
 21
350.91585302579369
 31
0.0
  0
LINE
  5
2F071
  8
0
 10
154.70188204487769
 20
320.91585369634589
 30
0.0
 11
162.9018811537882
 21
320.91585369634589
 31
0.0
  0
LINE
  5
2F072
  8
0
 10
217.90188085576511
 20
350.91585302579369
 30
0.0
 11
212.9018818988464
 21
350.91585302579369
 31
0.0
  0
LINE
  5
2F073
  8
0
 10
212.9018818988464
 20
320.91585369634589
 30
0.0
 11
221.1018810077569
 21
320.91585369634589
 31
0.0
  0
LINE
  5
2F074
  8
0
 10
228.31320483526201
 20
326.41585366654363
 30
0.0
 11
228.6018813057801
 21
326.91585374850001
 31
0.0
  0
ARC
  5
2F077
  8
0
 10
165.97913403250391
 20
432.91585336107067
 30
0.0
 40
2.999999999999118
 50
89.999999999986969
 51
176.0000000000212
  0
ARC
  5
2F078
  8
0
 10
165.97913403250391
 20
238.91585336106891
 30
0.0
 40
2.9999999999989981
 50
183.99999999997391
 51
270.00000000000648
  0
LINE
  5
2F079
  8
0
 10
209.8246281995437
 20
435.91585485118588
 30
0.0
 11
165.9791348530909
 21
435.91585485118588
 31
0.0
  0
LINE
  5
2F07A
  8
0
 10
165.9791348530909
 20
235.9158518709537
 30
0.0
 11
209.8246281995437
 21
235.9158518709537
 31
0.0
  0
ARC
  5
2F07B
  8
0
 10
209.82462902013069
 20
432.91585336107067
 30
0.0
 40
2.9999999999991491
 50
3.9999999999787281
 51
90.000000000006509
  0
ARC
  5
2F07C
  8
0
 10
209.82462902013069
 20
238.91585336106891
 30
0.0
 40
2.9999999999991398
 50
269.99999999998698
 51
356.00000000002598
  0
LINE
  5
2F07D
  8
0
 10
162.98644151827301
 20
433.12512067931863
 30
0.0
 11
162.9018811537882
 21
431.91585419553479
 31
0.0
  0
LINE
  5
2F07E
  8
0
 10
162.9018811537882
 20
239.91585252660479
 30
0.0
 11
162.98644151827301
 21
238.7065860428211
 31
0.0
  0
LINE
  5
2F07F
  8
0
 10
212.81732153436161
 20
238.7065860428211
 30
0.0
 11
212.9018818988464
 21
239.91585252660479
 31
0.0
  0
LINE
  5
2F080
  8
0
 10
212.9018818988464
 20
431.91585419553479
 30
0.0
 11
212.81732153436161
 21
433.12512067931863
 31
0.0
  0
LINE
  5
2F089
  8
0
 10
130.90188149651499
 20
485.9158593215343
 30
0.0
 11
244.9018815561196
 21
485.9158593215343
 31
0.0
  0
LINE
  5
2F08A
  8
0
 10
130.90188149651499
 20
482.71584985631671
 30
0.0
 11
244.9018815561196
 21
482.71584985631671
 31
0.0
  0
LINE
  5
2F09F
  8
0
 10
134.1018797858616
 20
369.64644593971929
 30
0.0
 11
134.1018797858616
 21
362.57537929195132
 31
0.0
  0
LINE
  5
2F0A0
  8
0
 10
130.90188149651499
 20
362.57537929195132
 30
0.0
 11
130.90188149651499
 21
369.64644593971929
 31
0.0
  0
LINE
  5
2F0A1
  8
0
 10
134.1018797858616
 20
482.71584985631671
 30
0.0
 11
134.1018797858616
 21
369.64644593971929
 31
0.0
  0
LINE
  5
2F0A2
  8
0
 10
130.90188149651499
 20
369.64644593971929
 30
0.0
 11
130.90188149651499
 21
485.9158593215343
 31
0.0
  0
LINE
  5
2F0A4
  8
0
 10
244.9018815561196
 20
485.9158593215343
 30
0.0
 11
244.9018815561196
 21
369.64644593971929
 31
0.0
  0
LINE
  5
2F0A5
  8
0
 10
241.70188326677291
 20
369.64644593971929
 30
0.0
 11
241.70188326677291
 21
482.71584985631671
 31
0.0
  0
LINE
  5
2F0A7
  8
0
 10
244.9018815561196
 20
369.64644593971929
 30
0.0
 11
244.9018815561196
 21
362.57537929195132
 31
0.0
  0
LINE
  5
2F0A8
  8
0
 10
241.70188326677291
 20
362.57537929195132
 30
0.0
 11
241.70188326677291
 21
369.64644593971929
 31
0.0
  0
ARC
  5
2F0A9
  8
0
 10
140.90188152631731
 20
359.4676789002383
 30
0.0
 40
6.8000000000009866
 50
180.0
 51
240.0
  0
LINE
  5
2F0AA
  8
0
 10
137.5018814607522
 20
353.57870636361798
 30
0.0
 11
148.55188224753351
 21
347.1989856086966
 31
0.0
  0
ARC
  5
2F0AB
  8
0
 10
139.20188152631661
 20
331.0043106291896
 30
0.0
 40
18.699999999999601
 50
20.11464170692317
 51
60.0
  0
ARC
  5
2F0AD
  8
0
 10
139.20188152631661
 20
331.0043106291896
 30
0.0
 40
15.499999999999581
 50
24.512912471836451
 51
60.0
  0
LINE
  5
2F0AE
  8
0
 10
146.95188124021499
 20
344.42770397144523
 30
0.0
 11
135.90188045343371
 21
350.80742472636672
 31
0.0
  0
ARC
  5
2F0AF
  8
0
 10
140.90188152631731
 20
359.4676789002383
 30
0.0
 40
10.000000000000909
 50
180.0
 51
240.0
  0
LINE
  5
2F0B0
  8
0
 10
134.1018797858616
 20
362.57537929195132
 30
0.0
 11
134.1018797858616
 21
359.46767879503932
 31
0.0
  0
LINE
  5
2F0B1
  8
0
 10
130.90188149651499
 20
359.46767879503932
 30
0.0
 11
130.90188149651499
 21
362.57537929195132
 31
0.0
  0
ARC
  5
2F0B2
  8
0
 10
236.60188152631619
 20
331.0043106291896
 30
0.0
 40
15.49999999999948
 50
120.0
 51
155.4870875281635
  0
ARC
  5
2F0B4
  8
0
 10
236.60188152631619
 20
331.0043106291896
 30
0.0
 40
18.699999999999481
 50
120.0
 51
159.88535829307679
  0
LINE
  5
2F0B5
  8
0
 10
227.25188080510111
 20
347.1989856086966
 30
0.0
 11
238.30188159188239
 21
353.57870636361798
 31
0.0
  0
ARC
  5
2F0B6
  8
0
 10
234.9018815263164
 20
359.4676789002383
 30
0.0
 40
6.8000000000010381
 50
300.0
 51
0.0
  0
ARC
  5
2F0B7
  8
0
 10
234.9018815263164
 20
359.4676789002383
 30
0.0
 40
10.000000000000989
 50
300.0
 51
0.0
  0
LINE
  5
2F0B8
  8
0
 10
239.90188259920089
 20
350.80742472636672
 30
0.0
 11
228.85188181241961
 21
344.42770397144523
 31
0.0
  0
LINE
  5
2F0B9
  8
0
 10
244.9018815561196
 20
362.57537929195132
 30
0.0
 11
244.9018815561196
 21
359.46767879503932
 31
0.0
  0
LINE
  5
2F0BA
  8
0
 10
241.70188326677291
 20
359.46767879503932
 30
0.0
 11
241.70188326677291
 21
362.57537929195132
 31
0.0
  0
LINE
  5
2F0BF
  8
0
 10
157.90188219686951
 20
320.91585369634589
 30
0.0
 11
157.90188219686951
 21
482.71584985631671
 31
0.0
  0
POLYLINE
  5
2F0C0
  8
0
 10
157.90188152631609
 20
326.97803118756133
 30
0.0
 66
     1
 70
     8
  0
VERTEX
  8
0
  5
2F655
 10
157.902
 20
326.978
 30
0.000000
  70
    32
  0
VERTEX
  8
0
  5
2F656
 10
157.902
 20
327.044
 30
0.000000
  70
    32
  0
VERTEX
  8
0
  5
2F657
 10
157.902
 20
327.111
 30
0.000000
  70
    32
  0
VERTEX
  8
0
  5
2F658
 10
157.902
 20
327.177
 30
0.000000
  70
    32
  0
VERTEX
  8
0
  5
2F659
 10
157.901
 20
327.243
 30
0.000000
  70
    32
  0
VERTEX
  8
0
  5
2F65A
 10
157.901
 20
327.309
 30
0.000000
  70
    32
  0
VERTEX
  8
0
  5
2F65B
 10
157.900
 20
327.376
 30
0.000000
  70
    32
  0
VERTEX
  8
0
  5
2F65C
 10
157.900
 20
327.442
 30
0.000000
  70
    32
  0
VERTEX
  8
0
  5
2F65D
 10
157.899
 20
327.508
 30
0.000000
  70
    32
  0
VERTEX
  8
0
  5
2F65E
 10
157.899
 20
327.574
 30
0.000000
  70
    32
  0
VERTEX
  8
0
  5
2F65F
 10
157.898
 20
327.641
 30
0.000000
  70
    32
  0
VERTEX
  8
0
  5
2F660
 10
157.897
 20
327.707
 30
0.000000
  70
    32
  0
VERTEX
  8
0
  5
2F661
 10
157.896
 20
327.773
 30
0.000000
  70
    32
  0
VERTEX
  8
0
  5
2F662
 10
157.895
 20
327.839
 30
0.000000
  70
    32
  0
VERTEX
  8
0
  5
2F663
 10
157.894
 20
327.906
 30
0.000000
  70
    32
  0
VERTEX
  8
0
  5
2F664
 10
157.893
 20
327.972
 30
0.000000
  70
    32
  0
VERTEX
  8
0
  5
2F665
 10
157.892
 20
328.038
 30
0.000000
  70
    32
  0
VERTEX
  8
0
  5
2F666
 10
157.891
 20
328.104
 30
0.000000
  70
    32
  0
VERTEX
  8
0
  5
2F667
 10
157.889
 20
328.171
 30
0.000000
  70
    32
  0
VERTEX
  8
0
  5
2F668
 10
157.888
 20
328.237
 30
0.000000
  70
    32
  0
VERTEX
  8
0
  5
2F669
 10
157.886
 20
328.303
 30
0.000000
  70
    32
  0
VERTEX
  8
0
  5
2F66A
 10
157.885
 20
328.369
 30
0.000000
  70
    32
  0
VERTEX
  8
0
  5
2F66B
 10
157.883
 20
328.436
 30
0.000000
  70
    32
  0
VERTEX
  8
0
  5
2F66C
 10
157.881
 20
328.502
 30
0.000000
  70
    32
  0
VERTEX
  8
0
  5
2F66D
 10
157.879
 20
328.568
 30
0.000000
  70
    32
  0
VERTEX
  8
0
  5
2F66E
 10
157.877
 20
328.634
 30
0.000000
  70
    32
  0
VERTEX
  8
0
  5
2F66F
 10
157.875
 20
328.700
 30
0.000000
  70
    32
  0
VERTEX
  8
0
  5
2F670
 10
157.873
 20
328.766
 30
0.000000
  70
    32
  0
VERTEX
  8
0
  5
2F671
 10
157.871
 20
328.833
 30
0.000000
  70
    32
  0
VERTEX
  8
0
  5
2F672
 10
157.869
 20
328.899
 30
0.000000
  70
    32
  0
VERTEX
  8
0
  5
2F673
 10
157.867
 20
328.965
 30
0.000000
  70
    32
  0
VERTEX
  8
0
  5
2F674
 10
157.864
 20
329.031
 30
0.000000
  70
    32
  0
VERTEX
  8
0
  5
2F675
 10
157.862
 20
329.097
 30
0.000000
  70
    32
  0
VERTEX
  8
0
  5
2F676
 10
157.859
 20
329.163
 30
0.000000
  70
    32
  0
VERTEX
  8
0
  5
2F677
 10
157.857
 20
329.229
 30
0.000000
  70
    32
  0
VERTEX
  8
0
  5
2F678
 10
157.854
 20
329.296
 30
0.000000
  70
    32
  0
VERTEX
  8
0
  5
2F679
 10
157.851
 20
329.362
 30
0.000000
  70
    32
  0
VERTEX
  8
0
  5
2F67A
 10
157.848
 20
329.428
 30
0.000000
  70
    32
  0
VERTEX
  8
0
  5
2F67B
 10
157.845
 20
329.494
 30
0.000000
  70
    32
  0
VERTEX
  8
0
  5
2F67C
 10
157.842
 20
329.560
 30
0.000000
  70
    32
  0
VERTEX
  8
0
  5
2F67D
 10
157.839
 20
329.626
 30
0.000000
  70
    32
  0
VERTEX
  8
0
  5
2F67E
 10
157.836
 20
329.692
 30
0.000000
  70
    32
  0
VERTEX
  8
0
  5
2F67F
 10
157.833
 20
329.758
 30
0.000000
  70
    32
  0
VERTEX
  8
0
  5
2F680
 10
157.830
 20
329.824
 30
0.000000
  70
    32
  0
VERTEX
  8
0
  5
2F681
 10
157.826
 20
329.890
 30
0.000000
  70
    32
  0
VERTEX
  8
0
  5
2F682
 10
157.823
 20
329.956
 30
0.000000
  70
    32
  0
VERTEX
  8
0
  5
2F683
 10
157.819
 20
330.022
 30
0.000000
  70
    32
  0
VERTEX
  8
0
  5
2F684
 10
157.815
 20
330.088
 30
0.000000
  70
    32
  0
VERTEX
  8
0
  5
2F685
 10
157.812
 20
330.154
 30
0.000000
  70
    32
  0
VERTEX
  8
0
  5
2F686
 10
157.808
 20
330.220
 30
0.000000
  70
    32
  0
VERTEX
  8
0
  5
2F687
 10
157.804
 20
330.286
 30
0.000000
  70
    32
  0
VERTEX
  8
0
  5
2F688
 10
157.800
 20
330.352
 30
0.000000
  70
    32
  0
VERTEX
  8
0
  5
2F689
 10
157.796
 20
330.418
 30
0.000000
  70
    32
  0
VERTEX
  8
0
  5
2F68A
 10
157.792
 20
330.484
 30
0.000000
  70
    32
  0
VERTEX
  8
0
  5
2F68B
 10
157.788
 20
330.549
 30
0.000000
  70
    32
  0
VERTEX
  8
0
  5
2F68C
 10
157.784
 20
330.615
 30
0.000000
  70
    32
  0
VERTEX
  8
0
  5
2F68D
 10
157.779
 20
330.681
 30
0.000000
  70
    32
  0
VERTEX
  8
0
  5
2F68E
 10
157.775
 20
330.747
 30
0.000000
  70
    32
  0
VERTEX
  8
0
  5
2F68F
 10
157.770
 20
330.813
 30
0.000000
  70
    32
  0
VERTEX
  8
0
  5
2F690
 10
157.766
 20
330.879
 30
0.000000
  70
    32
  0
VERTEX
  8
0
  5
2F691
 10
157.761
 20
330.944
 30
0.000000
  70
    32
  0
VERTEX
  8
0
  5
2F692
 10
157.756
 20
331.010
 30
0.000000
  70
    32
  0
VERTEX
  8
0
  5
2F693
 10
157.752
 20
331.076
 30
0.000000
  70
    32
  0
VERTEX
  8
0
  5
2F694
 10
157.747
 20
331.142
 30
0.000000
  70
    32
  0
VERTEX
  8
0
  5
2F695
 10
157.742
 20
331.207
 30
0.000000
  70
    32
  0
VERTEX
  8
0
  5
2F696
 10
157.737
 20
331.273
 30
0.000000
  70
    32
  0
VERTEX
  8
0
  5
2F697
 10
157.732
 20
331.339
 30
0.000000
  70
    32
  0
VERTEX
  8
0
  5
2F698
 10
157.726
 20
331.404
 30
0.000000
  70
    32
  0
VERTEX
  8
0
  5
2F699
 10
157.721
 20
331.470
 30
0.000000
  70
    32
  0
VERTEX
  8
0
  5
2F69A
 10
157.716
 20
331.536
 30
0.000000
  70
    32
  0
VERTEX
  8
0
  5
2F69B
 10
157.710
 20
331.601
 30
0.000000
  70
    32
  0
VERTEX
  8
0
  5
2F69C
 10
157.705
 20
331.667
 30
0.000000
  70
    32
  0
VERTEX
  8
0
  5
2F69D
 10
157.699
 20
331.732
 30
0.000000
  70
    32
  0
VERTEX
  8
0
  5
2F69E
 10
157.694
 20
331.798
 30
0.000000
  70
    32
  0
VERTEX
  8
0
  5
2F69F
 10
157.688
 20
331.863
 30
0.000000
  70
    32
  0
VERTEX
  8
0
  5
2F6A0
 10
157.682
 20
331.929
 30
0.000000
  70
    32
  0
VERTEX
  8
0
  5
2F6A1
 10
157.676
 20
331.994
 30
0.000000
  70
    32
  0
VERTEX
  8
0
  5
2F6A2
 10
157.670
 20
332.060
 30
0.000000
  70
    32
  0
VERTEX
  8
0
  5
2F6A3
 10
157.664
 20
332.125
 30
0.000000
  70
    32
  0
VERTEX
  8
0
  5
2F6A4
 10
157.658
 20
332.191
 30
0.000000
  70
    32
  0
VERTEX
  8
0
  5
2F6A5
 10
157.652
 20
332.256
 30
0.000000
  70
    32
  0
VERTEX
  8
0
  5
2F6A6
 10
157.646
 20
332.321
 30
0.000000
  70
    32
  0
VERTEX
  8
0
  5
2F6A7
 10
157.639
 20
332.387
 30
0.000000
  70
    32
  0
VERTEX
  8
0
  5
2F6A8
 10
157.633
 20
332.452
 30
0.000000
  70
    32
  0
VERTEX
  8
0
  5
2F6A9
 10
157.626
 20
332.517
 30
0.000000
  70
    32
  0
VERTEX
  8
0
  5
2F6AA
 10
157.620
 20
332.583
 30
0.000000
  70
    32
  0
VERTEX
  8
0
  5
2F6AB
 10
157.613
 20
332.648
 30
0.000000
  70
    32
  0
VERTEX
  8
0
  5
2F6AC
 10
157.606
 20
332.713
 30
0.000000
  70
    32
  0
VERTEX
  8
0
  5
2F6AD
 10
157.600
 20
332.778
 30
0.000000
  70
    32
  0
VERTEX
  8
0
  5
2F6AE
 10
157.593
 20
332.844
 30
0.000000
  70
    32
  0
VERTEX
  8
0
  5
2F6AF
 10
157.586
 20
332.909
 30
0.000000
  70
    32
  0
VERTEX
  8
0
  5
2F6B0
 10
157.579
 20
332.974
 30
0.000000
  70
    32
  0
VERTEX
  8
0
  5
2F6B1
 10
157.572
 20
333.039
 30
0.000000
  70
    32
  0
VERTEX
  8
0
  5
2F6B2
 10
157.564
 20
333.104
 30
0.000000
  70
    32
  0
VERTEX
  8
0
  5
2F6B3
 10
157.557
 20
333.169
 30
0.000000
  70
    32
  0
VERTEX
  8
0
  5
2F6B4
 10
157.550
 20
333.234
 30
0.000000
  70
    32
  0
VERTEX
  8
0
  5
2F6B5
 10
157.542
 20
333.299
 30
0.000000
  70
    32
  0
VERTEX
  8
0
  5
2F6B6
 10
157.535
 20
333.364
 30
0.000000
  70
    32
  0
VERTEX
  8
0
  5
2F6B7
 10
157.527
 20
333.429
 30
0.000000
  70
    32
  0
VERTEX
  8
0
  5
2F6B8
 10
157.520
 20
333.494
 30
0.000000
  70
    32
  0
VERTEX
  8
0
  5
2F6B9
 10
157.512
 20
333.559
 30
0.000000
  70
    32
  0
VERTEX
  8
0
  5
2F6BA
 10
157.504
 20
333.624
 30
0.000000
  70
    32
  0
VERTEX
  8
0
  5
2F6BB
 10
157.496
 20
333.689
 30
0.000000
  70
    32
  0
VERTEX
  8
0
  5
2F6BC
 10
157.488
 20
333.754
 30
0.000000
  70
    32
  0
VERTEX
  8
0
  5
2F6BD
 10
157.480
 20
333.818
 30
0.000000
  70
    32
  0
VERTEX
  8
0
  5
2F6BE
 10
157.472
 20
333.883
 30
0.000000
  70
    32
  0
VERTEX
  8
0
  5
2F6BF
 10
157.464
 20
333.948
 30
0.000000
  70
    32
  0
VERTEX
  8
0
  5
2F6C0
 10
157.456
 20
334.013
 30
0.000000
  70
    32
  0
VERTEX
  8
0
  5
2F6C1
 10
157.447
 20
334.077
 30
0.000000
  70
    32
  0
VERTEX
  8
0
  5
2F6C2
 10
157.439
 20
334.142
 30
0.000000
  70
    32
  0
VERTEX
  8
0
  5
2F6C3
 10
157.430
 20
334.207
 30
0.000000
  70
    32
  0
VERTEX
  8
0
  5
2F6C4
 10
157.422
 20
334.271
 30
0.000000
  70
    32
  0
VERTEX
  8
0
  5
2F6C5
 10
157.413
 20
334.336
 30
0.000000
  70
    32
  0
VERTEX
  8
0
  5
2F6C6
 10
157.404
 20
334.400
 30
0.000000
  70
    32
  0
VERTEX
  8
0
  5
2F6C7
 10
157.395
 20
334.465
 30
0.000000
  70
    32
  0
VERTEX
  8
0
  5
2F6C8
 10
157.387
 20
334.529
 30
0.000000
  70
    32
  0
VERTEX
  8
0
  5
2F6C9
 10
157.378
 20
334.594
 30
0.000000
  70
    32
  0
VERTEX
  8
0
  5
2F6CA
 10
157.369
 20
334.658
 30
0.000000
  70
    32
  0
VERTEX
  8
0
  5
2F6CB
 10
157.359
 20
334.722
 30
0.000000
  70
    32
  0
VERTEX
  8
0
  5
2F6CC
 10
157.350
 20
334.787
 30
0.000000
  70
    32
  0
VERTEX
  8
0
  5
2F6CD
 10
157.341
 20
334.851
 30
0.000000
  70
    32
  0
VERTEX
  8
0
  5
2F6CE
 10
157.332
 20
334.915
 30
0.000000
  70
    32
  0
VERTEX
  8
0
  5
2F6CF
 10
157.322
 20
334.979
 30
0.000000
  70
    32
  0
VERTEX
  8
0
  5
2F6D0
 10
157.313
 20
335.044
 30
0.000000
  70
    32
  0
VERTEX
  8
0
  5
2F6D1
 10
157.303
 20
335.108
 30
0.000000
  70
    32
  0
VERTEX
  8
0
  5
2F6D2
 10
157.294
 20
335.172
 30
0.000000
  70
    32
  0
VERTEX
  8
0
  5
2F6D3
 10
157.284
 20
335.236
 30
0.000000
  70
    32
  0
VERTEX
  8
0
  5
2F6D4
 10
157.274
 20
335.300
 30
0.000000
  70
    32
  0
VERTEX
  8
0
  5
2F6D5
 10
157.264
 20
335.364
 30
0.000000
  70
    32
  0
SEQEND
  8
0
  5
2F6D6
  0
LINE
  5
2F0C1
  8
0
 10
156.76130075296371
 20
337.43523431330141
 30
0.0
 11
157.26420563003029
 21
335.36416656424439
 31
0.0
  0
LINE
  5
2F0C2
  8
0
 10
218.5395574226043
 20
335.36416656424439
 30
0.0
 11
219.04246229967089
 21
337.43523431330141
 31
0.0
  0
POLYLINE
  5
2F0C3
  8
0
 10
218.53955670739373
 20
335.36416655536624
 30
0.0
 66
     1
 70
     8
  0
VERTEX
  8
0
  5
2F6D7
 10
218.540
 20
335.364
 30
0.000000
  70
    32
  0
VERTEX
  8
0
  5
2F6D8
 10
218.530
 20
335.300
 30
0.000000
  70
    32
  0
VERTEX
  8
0
  5
2F6D9
 10
218.520
 20
335.236
 30
0.000000
  70
    32
  0
VERTEX
  8
0
  5
2F6DA
 10
218.510
 20
335.172
 30
0.000000
  70
    32
  0
VERTEX
  8
0
  5
2F6DB
 10
218.501
 20
335.108
 30
0.000000
  70
    32
  0
VERTEX
  8
0
  5
2F6DC
 10
218.491
 20
335.044
 30
0.000000
  70
    32
  0
VERTEX
  8
0
  5
2F6DD
 10
218.481
 20
334.979
 30
0.000000
  70
    32
  0
VERTEX
  8
0
  5
2F6DE
 10
218.472
 20
334.915
 30
0.000000
  70
    32
  0
VERTEX
  8
0
  5
2F6DF
 10
218.463
 20
334.851
 30
0.000000
  70
    32
  0
VERTEX
  8
0
  5
2F6E0
 10
218.453
 20
334.787
 30
0.000000
  70
    32
  0
VERTEX
  8
0
  5
2F6E1
 10
218.444
 20
334.722
 30
0.000000
  70
    32
  0
VERTEX
  8
0
  5
2F6E2
 10
218.435
 20
334.658
 30
0.000000
  70
    32
  0
VERTEX
  8
0
  5
2F6E3
 10
218.426
 20
334.594
 30
0.000000
  70
    32
  0
VERTEX
  8
0
  5
2F6E4
 10
218.417
 20
334.529
 30
0.000000
  70
    32
  0
VERTEX
  8
0
  5
2F6E5
 10
218.408
 20
334.465
 30
0.000000
  70
    32
  0
VERTEX
  8
0
  5
2F6E6
 10
218.399
 20
334.400
 30
0.000000
  70
    32
  0
VERTEX
  8
0
  5
2F6E7
 10
218.391
 20
334.336
 30
0.000000
  70
    32
  0
VERTEX
  8
0
  5
2F6E8
 10
218.382
 20
334.271
 30
0.000000
  70
    32
  0
VERTEX
  8
0
  5
2F6E9
 10
218.374
 20
334.207
 30
0.000000
  70
    32
  0
VERTEX
  8
0
  5
2F6EA
 10
218.365
 20
334.142
 30
0.000000
  70
    32
  0
VERTEX
  8
0
  5
2F6EB
 10
218.357
 20
334.077
 30
0.000000
  70
    32
  0
VERTEX
  8
0
  5
2F6EC
 10
218.348
 20
334.013
 30
0.000000
  70
    32
  0
VERTEX
  8
0
  5
2F6ED
 10
218.340
 20
333.948
 30
0.000000
  70
    32
  0
VERTEX
  8
0
  5
2F6EE
 10
218.332
 20
333.883
 30
0.000000
  70
    32
  0
VERTEX
  8
0
  5
2F6EF
 10
218.324
 20
333.818
 30
0.000000
  70
    32
  0
VERTEX
  8
0
  5
2F6F0
 10
218.316
 20
333.754
 30
0.000000
  70
    32
  0
VERTEX
  8
0
  5
2F6F1
 10
218.308
 20
333.689
 30
0.000000
  70
    32
  0
VERTEX
  8
0
  5
2F6F2
 10
218.300
 20
333.624
 30
0.000000
  70
    32
  0
VERTEX
  8
0
  5
2F6F3
 10
218.292
 20
333.559
 30
0.000000
  70
    32
  0
VERTEX
  8
0
  5
2F6F4
 10
218.284
 20
333.494
 30
0.000000
  70
    32
  0
VERTEX
  8
0
  5
2F6F5
 10
218.277
 20
333.429
 30
0.000000
  70
    32
  0
VERTEX
  8
0
  5
2F6F6
 10
218.269
 20
333.364
 30
0.000000
  70
    32
  0
VERTEX
  8
0
  5
2F6F7
 10
218.261
 20
333.299
 30
0.000000
  70
    32
  0
VERTEX
  8
0
  5
2F6F8
 10
218.254
 20
333.234
 30
0.000000
  70
    32
  0
VERTEX
  8
0
  5
2F6F9
 10
218.247
 20
333.169
 30
0.000000
  70
    32
  0
VERTEX
  8
0
  5
2F6FA
 10
218.239
 20
333.104
 30
0.000000
  70
    32
  0
VERTEX
  8
0
  5
2F6FB
 10
218.232
 20
333.039
 30
0.000000
  70
    32
  0
VERTEX
  8
0
  5
2F6FC
 10
218.225
 20
332.974
 30
0.000000
  70
    32
  0
VERTEX
  8
0
  5
2F6FD
 10
218.218
 20
332.909
 30
0.000000
  70
    32
  0
VERTEX
  8
0
  5
2F6FE
 10
218.211
 20
332.844
 30
0.000000
  70
    32
  0
VERTEX
  8
0
  5
2F6FF
 10
218.204
 20
332.778
 30
0.000000
  70
    32
  0
VERTEX
  8
0
  5
2F700
 10
218.197
 20
332.713
 30
0.000000
  70
    32
  0
VERTEX
  8
0
  5
2F701
 10
218.191
 20
332.648
 30
0.000000
  70
    32
  0
VERTEX
  8
0
  5
2F702
 10
218.184
 20
332.583
 30
0.000000
  70
    32
  0
VERTEX
  8
0
  5
2F703
 10
218.177
 20
332.517
 30
0.000000
  70
    32
  0
VERTEX
  8
0
  5
2F704
 10
218.171
 20
332.452
 30
0.000000
  70
    32
  0
VERTEX
  8
0
  5
2F705
 10
218.164
 20
332.387
 30
0.000000
  70
    32
  0
VERTEX
  8
0
  5
2F706
 10
218.158
 20
332.321
 30
0.000000
  70
    32
  0
VERTEX
  8
0
  5
2F707
 10
218.152
 20
332.256
 30
0.000000
  70
    32
  0
VERTEX
  8
0
  5
2F708
 10
218.146
 20
332.191
 30
0.000000
  70
    32
  0
VERTEX
  8
0
  5
2F709
 10
218.140
 20
332.125
 30
0.000000
  70
    32
  0
VERTEX
  8
0
  5
2F70A
 10
218.133
 20
332.060
 30
0.000000
  70
    32
  0
VERTEX
  8
0
  5
2F70B
 10
218.128
 20
331.994
 30
0.000000
  70
    32
  0
VERTEX
  8
0
  5
2F70C
 10
218.122
 20
331.929
 30
0.000000
  70
    32
  0
VERTEX
  8
0
  5
2F70D
 10
218.116
 20
331.863
 30
0.000000
  70
    32
  0
VERTEX
  8
0
  5
2F70E
 10
218.110
 20
331.798
 30
0.000000
  70
    32
  0
VERTEX
  8
0
  5
2F70F
 10
218.104
 20
331.732
 30
0.000000
  70
    32
  0
VERTEX
  8
0
  5
2F710
 10
218.099
 20
331.667
 30
0.000000
  70
    32
  0
VERTEX
  8
0
  5
2F711
 10
218.093
 20
331.601
 30
0.000000
  70
    32
  0
VERTEX
  8
0
  5
2F712
 10
218.088
 20
331.536
 30
0.000000
  70
    32
  0
VERTEX
  8
0
  5
2F713
 10
218.083
 20
331.470
 30
0.000000
  70
    32
  0
VERTEX
  8
0
  5
2F714
 10
218.077
 20
331.404
 30
0.000000
  70
    32
  0
VERTEX
  8
0
  5
2F715
 10
218.072
 20
331.339
 30
0.000000
  70
    32
  0
VERTEX
  8
0
  5
2F716
 10
218.067
 20
331.273
 30
0.000000
  70
    32
  0
VERTEX
  8
0
  5
2F717
 10
218.062
 20
331.207
 30
0.000000
  70
    32
  0
VERTEX
  8
0
  5
2F718
 10
218.057
 20
331.142
 30
0.000000
  70
    32
  0
VERTEX
  8
0
  5
2F719
 10
218.052
 20
331.076
 30
0.000000
  70
    32
  0
VERTEX
  8
0
  5
2F71A
 10
218.047
 20
331.010
 30
0.000000
  70
    32
  0
VERTEX
  8
0
  5
2F71B
 10
218.043
 20
330.944
 30
0.000000
  70
    32
  0
VERTEX
  8
0
  5
2F71C
 10
218.038
 20
330.879
 30
0.000000
  70
    32
  0
VERTEX
  8
0
  5
2F71D
 10
218.033
 20
330.813
 30
0.000000
  70
    32
  0
VERTEX
  8
0
  5
2F71E
 10
218.029
 20
330.747
 30
0.000000
  70
    32
  0
VERTEX
  8
0
  5
2F71F
 10
218.025
 20
330.681
 30
0.000000
  70
    32
  0
VERTEX
  8
0
  5
2F720
 10
218.020
 20
330.615
 30
0.000000
  70
    32
  0
VERTEX
  8
0
  5
2F721
 10
218.016
 20
330.549
 30
0.000000
  70
    32
  0
VERTEX
  8
0
  5
2F722
 10
218.012
 20
330.484
 30
0.000000
  70
    32
  0
VERTEX
  8
0
  5
2F723
 10
218.008
 20
330.418
 30
0.000000
  70
    32
  0
VERTEX
  8
0
  5
2F724
 10
218.004
 20
330.352
 30
0.000000
  70
    32
  0
VERTEX
  8
0
  5
2F725
 10
218.000
 20
330.286
 30
0.000000
  70
    32
  0
VERTEX
  8
0
  5
2F726
 10
217.996
 20
330.220
 30
0.000000
  70
    32
  0
VERTEX
  8
0
  5
2F727
 10
217.992
 20
330.154
 30
0.000000
  70
    32
  0
VERTEX
  8
0
  5
2F728
 10
217.988
 20
330.088
 30
0.000000
  70
    32
  0
VERTEX
  8
0
  5
2F729
 10
217.985
 20
330.022
 30
0.000000
  70
    32
  0
VERTEX
  8
0
  5
2F72A
 10
217.981
 20
329.956
 30
0.000000
  70
    32
  0
VERTEX
  8
0
  5
2F72B
 10
217.978
 20
329.890
 30
0.000000
  70
    32
  0
VERTEX
  8
0
  5
2F72C
 10
217.974
 20
329.824
 30
0.000000
  70
    32
  0
VERTEX
  8
0
  5
2F72D
 10
217.971
 20
329.758
 30
0.000000
  70
    32
  0
VERTEX
  8
0
  5
2F72E
 10
217.968
 20
329.692
 30
0.000000
  70
    32
  0
VERTEX
  8
0
  5
2F72F
 10
217.964
 20
329.626
 30
0.000000
  70
    32
  0
VERTEX
  8
0
  5
2F730
 10
217.961
 20
329.560
 30
0.000000
  70
    32
  0
VERTEX
  8
0
  5
2F731
 10
217.958
 20
329.494
 30
0.000000
  70
    32
  0
VERTEX
  8
0
  5
2F732
 10
217.955
 20
329.428
 30
0.000000
  70
    32
  0
VERTEX
  8
0
  5
2F733
 10
217.953
 20
329.362
 30
0.000000
  70
    32
  0
VERTEX
  8
0
  5
2F734
 10
217.950
 20
329.296
 30
0.000000
  70
    32
  0
VERTEX
  8
0
  5
2F735
 10
217.947
 20
329.229
 30
0.000000
  70
    32
  0
VERTEX
  8
0
  5
2F736
 10
217.944
 20
329.163
 30
0.000000
  70
    32
  0
VERTEX
  8
0
  5
2F737
 10
217.942
 20
329.097
 30
0.000000
  70
    32
  0
VERTEX
  8
0
  5
2F738
 10
217.939
 20
329.031
 30
0.000000
  70
    32
  0
VERTEX
  8
0
  5
2F739
 10
217.937
 20
328.965
 30
0.000000
  70
    32
  0
VERTEX
  8
0
  5
2F73A
 10
217.935
 20
328.899
 30
0.000000
  70
    32
  0
VERTEX
  8
0
  5
2F73B
 10
217.933
 20
328.833
 30
0.000000
  70
    32
  0
VERTEX
  8
0
  5
2F73C
 10
217.930
 20
328.766
 30
0.000000
  70
    32
  0
VERTEX
  8
0
  5
2F73D
 10
217.928
 20
328.700
 30
0.000000
  70
    32
  0
VERTEX
  8
0
  5
2F73E
 10
217.926
 20
328.634
 30
0.000000
  70
    32
  0
VERTEX
  8
0
  5
2F73F
 10
217.924
 20
328.568
 30
0.000000
  70
    32
  0
VERTEX
  8
0
  5
2F740
 10
217.923
 20
328.502
 30
0.000000
  70
    32
  0
VERTEX
  8
0
  5
2F741
 10
217.921
 20
328.436
 30
0.000000
  70
    32
  0
VERTEX
  8
0
  5
2F742
 10
217.919
 20
328.369
 30
0.000000
  70
    32
  0
VERTEX
  8
0
  5
2F743
 10
217.918
 20
328.303
 30
0.000000
  70
    32
  0
VERTEX
  8
0
  5
2F744
 10
217.916
 20
328.237
 30
0.000000
  70
    32
  0
VERTEX
  8
0
  5
2F745
 10
217.915
 20
328.171
 30
0.000000
  70
    32
  0
VERTEX
  8
0
  5
2F746
 10
217.913
 20
328.104
 30
0.000000
  70
    32
  0
VERTEX
  8
0
  5
2F747
 10
217.912
 20
328.038
 30
0.000000
  70
    32
  0
VERTEX
  8
0
  5
2F748
 10
217.911
 20
327.972
 30
0.000000
  70
    32
  0
VERTEX
  8
0
  5
2F749
 10
217.910
 20
327.906
 30
0.000000
  70
    32
  0
VERTEX
  8
0
  5
2F74A
 10
217.908
 20
327.839
 30
0.000000
  70
    32
  0
VERTEX
  8
0
  5
2F74B
 10
217.908
 20
327.773
 30
0.000000
  70
    32
  0
VERTEX
  8
0
  5
2F74C
 10
217.907
 20
327.707
 30
0.000000
  70
    32
  0
VERTEX
  8
0
  5
2F74D
 10
217.906
 20
327.641
 30
0.000000
  70
    32
  0
VERTEX
  8
0
  5
2F74E
 10
217.905
 20
327.574
 30
0.000000
  70
    32
  0
VERTEX
  8
0
  5
2F74F
 10
217.904
 20
327.508
 30
0.000000
  70
    32
  0
VERTEX
  8
0
  5
2F750
 10
217.904
 20
327.442
 30
0.000000
  70
    32
  0
VERTEX
  8
0
  5
2F751
 10
217.903
 20
327.376
 30
0.000000
  70
    32
  0
VERTEX
  8
0
  5
2F752
 10
217.903
 20
327.309
 30
0.000000
  70
    32
  0
VERTEX
  8
0
  5
2F753
 10
217.903
 20
327.243
 30
0.000000
  70
    32
  0
VERTEX
  8
0
  5
2F754
 10
217.902
 20
327.177
 30
0.000000
  70
    32
  0
VERTEX
  8
0
  5
2F755
 10
217.902
 20
327.111
 30
0.000000
  70
    32
  0
VERTEX
  8
0
  5
2F756
 10
217.902
 20
327.044
 30
0.000000
  70
    32
  0
VERTEX
  8
0
  5
2F757
 10
217.902
 20
326.978
 30
0.000000
  70
    32
  0
SEQEND
  8
0
  5
2F758
  0
LINE
  5
2F0C4
  8
0
 10
217.90188085576511
 20
320.91585369634589
 30
0.0
 11
217.90188085576511
 21
482.71584985631671
 31
0.0
  0
POLYLINE
  5
2F0C7
  8
0
 66
     1
 10
0.0
 20
0.0
 30
0.0
 70
   128
  0
VERTEX
  5
2F33B
  8
0
 10
175.8057381986639
 20
481.84977946656909
 30
0.0
  0
VERTEX
  5
2F33C
  8
0
 10
176.00945569863529
 20
481.41290722268792
 30
0.0
  0
VERTEX
  5
2F33D
  8
0
 10
176.22508015772311
 20
480.95049438852038
 30
0.0
  0
VERTEX
  5
2F33E
  8
0
 10
176.45213380744659
 20
480.46358404535022
 30
0.0
  0
SEQEND
  5
2F33F
  8
0
  0
ARC
  5
2F0C8
  8
0
 10
174.45438604489411
 20
481.22857767410193
 30
0.0
 40
1.487294291814022
 50
24.687724031776721
 51
90.3124137516442
  0
ARC
  5
2F0CB
  8
0
 10
201.35748698229261
 20
481.21584753023711
 30
0.0
 40
1.500002326079829
 50
90.000012284499491
 51
154.9998499320717
  0
POLYLINE
  5
2F0CC
  8
0
 66
     1
 10
0.0
 20
0.0
 30
0.0
 70
   128
  0
VERTEX
  5
2F340
  8
0
 10
199.35162924518789
 20
480.46358404535022
 30
0.0
  0
VERTEX
  5
2F341
  8
0
 10
199.5786828949114
 20
480.95049438852038
 30
0.0
  0
VERTEX
  5
2F342
  8
0
 10
199.7943073539993
 20
481.41290722268792
 30
0.0
  0
VERTEX
  5
2F343
  8
0
 10
199.99802485397069
 20
481.84977946656909
 30
0.0
  0
SEQEND
  5
2F344
  8
0
  0
LINE
  5
2F0CE
  8
0
 10
153.9262691541573
 20
335.36416656424439
 30
0.0
 11
153.3048311277291
 21
337.43523431330141
 31
0.0
  0
POLYLINE
  5
2F0CF
  8
0
 10
154.70188152631616
 20
326.97803118756127
 30
0.0
 66
     1
 70
     8
  0
VERTEX
  8
0
  5
2F759
 10
154.702
 20
326.978
 30
0.000000
  70
    32
  0
VERTEX
  8
0
  5
2F75A
 10
154.702
 20
327.045
 30
0.000000
  70
    32
  0
VERTEX
  8
0
  5
2F75B
 10
154.702
 20
327.111
 30
0.000000
  70
    32
  0
VERTEX
  8
0
  5
2F75C
 10
154.701
 20
327.178
 30
0.000000
  70
    32
  0
VERTEX
  8
0
  5
2F75D
 10
154.701
 20
327.245
 30
0.000000
  70
    32
  0
VERTEX
  8
0
  5
2F75E
 10
154.701
 20
327.311
 30
0.000000
  70
    32
  0
VERTEX
  8
0
  5
2F75F
 10
154.700
 20
327.378
 30
0.000000
  70
    32
  0
VERTEX
  8
0
  5
2F760
 10
154.700
 20
327.444
 30
0.000000
  70
    32
  0
VERTEX
  8
0
  5
2F761
 10
154.699
 20
327.511
 30
0.000000
  70
    32
  0
VERTEX
  8
0
  5
2F762
 10
154.698
 20
327.578
 30
0.000000
  70
    32
  0
VERTEX
  8
0
  5
2F763
 10
154.697
 20
327.644
 30
0.000000
  70
    32
  0
VERTEX
  8
0
  5
2F764
 10
154.696
 20
327.711
 30
0.000000
  70
    32
  0
VERTEX
  8
0
  5
2F765
 10
154.695
 20
327.777
 30
0.000000
  70
    32
  0
VERTEX
  8
0
  5
2F766
 10
154.694
 20
327.844
 30
0.000000
  70
    32
  0
VERTEX
  8
0
  5
2F767
 10
154.693
 20
327.911
 30
0.000000
  70
    32
  0
VERTEX
  8
0
  5
2F768
 10
154.691
 20
327.977
 30
0.000000
  70
    32
  0
VERTEX
  8
0
  5
2F769
 10
154.690
 20
328.044
 30
0.000000
  70
    32
  0
VERTEX
  8
0
  5
2F76A
 10
154.688
 20
328.110
 30
0.000000
  70
    32
  0
VERTEX
  8
0
  5
2F76B
 10
154.686
 20
328.177
 30
0.000000
  70
    32
  0
VERTEX
  8
0
  5
2F76C
 10
154.685
 20
328.244
 30
0.000000
  70
    32
  0
VERTEX
  8
0
  5
2F76D
 10
154.683
 20
328.310
 30
0.000000
  70
    32
  0
VERTEX
  8
0
  5
2F76E
 10
154.681
 20
328.377
 30
0.000000
  70
    32
  0
VERTEX
  8
0
  5
2F76F
 10
154.679
 20
328.443
 30
0.000000
  70
    32
  0
VERTEX
  8
0
  5
2F770
 10
154.677
 20
328.510
 30
0.000000
  70
    32
  0
VERTEX
  8
0
  5
2F771
 10
154.674
 20
328.576
 30
0.000000
  70
    32
  0
VERTEX
  8
0
  5
2F772
 10
154.672
 20
328.643
 30
0.000000
  70
    32
  0
VERTEX
  8
0
  5
2F773
 10
154.670
 20
328.709
 30
0.000000
  70
    32
  0
VERTEX
  8
0
  5
2F774
 10
154.667
 20
328.776
 30
0.000000
  70
    32
  0
VERTEX
  8
0
  5
2F775
 10
154.664
 20
328.842
 30
0.000000
  70
    32
  0
VERTEX
  8
0
  5
2F776
 10
154.662
 20
328.909
 30
0.000000
  70
    32
  0
VERTEX
  8
0
  5
2F777
 10
154.659
 20
328.975
 30
0.000000
  70
    32
  0
VERTEX
  8
0
  5
2F778
 10
154.656
 20
329.042
 30
0.000000
  70
    32
  0
VERTEX
  8
0
  5
2F779
 10
154.653
 20
329.108
 30
0.000000
  70
    32
  0
VERTEX
  8
0
  5
2F77A
 10
154.650
 20
329.174
 30
0.000000
  70
    32
  0
VERTEX
  8
0
  5
2F77B
 10
154.647
 20
329.241
 30
0.000000
  70
    32
  0
VERTEX
  8
0
  5
2F77C
 10
154.643
 20
329.307
 30
0.000000
  70
    32
  0
VERTEX
  8
0
  5
2F77D
 10
154.640
 20
329.374
 30
0.000000
  70
    32
  0
VERTEX
  8
0
  5
2F77E
 10
154.637
 20
329.440
 30
0.000000
  70
    32
  0
VERTEX
  8
0
  5
2F77F
 10
154.633
 20
329.506
 30
0.000000
  70
    32
  0
VERTEX
  8
0
  5
2F780
 10
154.629
 20
329.573
 30
0.000000
  70
    32
  0
VERTEX
  8
0
  5
2F781
 10
154.626
 20
329.639
 30
0.000000
  70
    32
  0
VERTEX
  8
0
  5
2F782
 10
154.622
 20
329.705
 30
0.000000
  70
    32
  0
VERTEX
  8
0
  5
2F783
 10
154.618
 20
329.772
 30
0.000000
  70
    32
  0
VERTEX
  8
0
  5
2F784
 10
154.614
 20
329.838
 30
0.000000
  70
    32
  0
VERTEX
  8
0
  5
2F785
 10
154.610
 20
329.904
 30
0.000000
  70
    32
  0
VERTEX
  8
0
  5
2F786
 10
154.605
 20
329.970
 30
0.000000
  70
    32
  0
VERTEX
  8
0
  5
2F787
 10
154.601
 20
330.036
 30
0.000000
  70
    32
  0
VERTEX
  8
0
  5
2F788
 10
154.597
 20
330.103
 30
0.000000
  70
    32
  0
VERTEX
  8
0
  5
2F789
 10
154.592
 20
330.169
 30
0.000000
  70
    32
  0
VERTEX
  8
0
  5
2F78A
 10
154.587
 20
330.235
 30
0.000000
  70
    32
  0
VERTEX
  8
0
  5
2F78B
 10
154.583
 20
330.301
 30
0.000000
  70
    32
  0
VERTEX
  8
0
  5
2F78C
 10
154.578
 20
330.367
 30
0.000000
  70
    32
  0
VERTEX
  8
0
  5
2F78D
 10
154.573
 20
330.433
 30
0.000000
  70
    32
  0
VERTEX
  8
0
  5
2F78E
 10
154.568
 20
330.499
 30
0.000000
  70
    32
  0
VERTEX
  8
0
  5
2F78F
 10
154.563
 20
330.565
 30
0.000000
  70
    32
  0
VERTEX
  8
0
  5
2F790
 10
154.558
 20
330.631
 30
0.000000
  70
    32
  0
VERTEX
  8
0
  5
2F791
 10
154.552
 20
330.697
 30
0.000000
  70
    32
  0
VERTEX
  8
0
  5
2F792
 10
154.547
 20
330.763
 30
0.000000
  70
    32
  0
VERTEX
  8
0
  5
2F793
 10
154.542
 20
330.829
 30
0.000000
  70
    32
  0
VERTEX
  8
0
  5
2F794
 10
154.536
 20
330.895
 30
0.000000
  70
    32
  0
VERTEX
  8
0
  5
2F795
 10
154.530
 20
330.961
 30
0.000000
  70
    32
  0
VERTEX
  8
0
  5
2F796
 10
154.525
 20
331.027
 30
0.000000
  70
    32
  0
VERTEX
  8
0
  5
2F797
 10
154.519
 20
331.093
 30
0.000000
  70
    32
  0
VERTEX
  8
0
  5
2F798
 10
154.513
 20
331.159
 30
0.000000
  70
    32
  0
VERTEX
  8
0
  5
2F799
 10
154.507
 20
331.225
 30
0.000000
  70
    32
  0
VERTEX
  8
0
  5
2F79A
 10
154.501
 20
331.290
 30
0.000000
  70
    32
  0
VERTEX
  8
0
  5
2F79B
 10
154.494
 20
331.356
 30
0.000000
  70
    32
  0
VERTEX
  8
0
  5
2F79C
 10
154.488
 20
331.422
 30
0.000000
  70
    32
  0
VERTEX
  8
0
  5
2F79D
 10
154.482
 20
331.488
 30
0.000000
  70
    32
  0
VERTEX
  8
0
  5
2F79E
 10
154.475
 20
331.553
 30
0.000000
  70
    32
  0
VERTEX
  8
0
  5
2F79F
 10
154.469
 20
331.619
 30
0.000000
  70
    32
  0
VERTEX
  8
0
  5
2F7A0
 10
154.462
 20
331.684
 30
0.000000
  70
    32
  0
VERTEX
  8
0
  5
2F7A1
 10
154.455
 20
331.750
 30
0.000000
  70
    32
  0
VERTEX
  8
0
  5
2F7A2
 10
154.448
 20
331.816
 30
0.000000
  70
    32
  0
VERTEX
  8
0
  5
2F7A3
 10
154.441
 20
331.881
 30
0.000000
  70
    32
  0
VERTEX
  8
0
  5
2F7A4
 10
154.434
 20
331.947
 30
0.000000
  70
    32
  0
VERTEX
  8
0
  5
2F7A5
 10
154.427
 20
332.012
 30
0.000000
  70
    32
  0
VERTEX
  8
0
  5
2F7A6
 10
154.420
 20
332.078
 30
0.000000
  70
    32
  0
VERTEX
  8
0
  5
2F7A7
 10
154.412
 20
332.143
 30
0.000000
  70
    32
  0
VERTEX
  8
0
  5
2F7A8
 10
154.405
 20
332.208
 30
0.000000
  70
    32
  0
VERTEX
  8
0
  5
2F7A9
 10
154.397
 20
332.274
 30
0.000000
  70
    32
  0
VERTEX
  8
0
  5
2F7AA
 10
154.390
 20
332.339
 30
0.000000
  70
    32
  0
VERTEX
  8
0
  5
2F7AB
 10
154.382
 20
332.404
 30
0.000000
  70
    32
  0
VERTEX
  8
0
  5
2F7AC
 10
154.374
 20
332.469
 30
0.000000
  70
    32
  0
VERTEX
  8
0
  5
2F7AD
 10
154.366
 20
332.535
 30
0.000000
  70
    32
  0
VERTEX
  8
0
  5
2F7AE
 10
154.358
 20
332.600
 30
0.000000
  70
    32
  0
VERTEX
  8
0
  5
2F7AF
 10
154.350
 20
332.665
 30
0.000000
  70
    32
  0
VERTEX
  8
0
  5
2F7B0
 10
154.342
 20
332.730
 30
0.000000
  70
    32
  0
VERTEX
  8
0
  5
2F7B1
 10
154.334
 20
332.795
 30
0.000000
  70
    32
  0
VERTEX
  8
0
  5
2F7B2
 10
154.325
 20
332.860
 30
0.000000
  70
    32
  0
VERTEX
  8
0
  5
2F7B3
 10
154.317
 20
332.925
 30
0.000000
  70
    32
  0
VERTEX
  8
0
  5
2F7B4
 10
154.308
 20
332.990
 30
0.000000
  70
    32
  0
VERTEX
  8
0
  5
2F7B5
 10
154.300
 20
333.055
 30
0.000000
  70
    32
  0
VERTEX
  8
0
  5
2F7B6
 10
154.291
 20
333.120
 30
0.000000
  70
    32
  0
VERTEX
  8
0
  5
2F7B7
 10
154.282
 20
333.185
 30
0.000000
  70
    32
  0
VERTEX
  8
0
  5
2F7B8
 10
154.273
 20
333.250
 30
0.000000
  70
    32
  0
VERTEX
  8
0
  5
2F7B9
 10
154.264
 20
333.314
 30
0.000000
  70
    32
  0
VERTEX
  8
0
  5
2F7BA
 10
154.255
 20
333.379
 30
0.000000
  70
    32
  0
VERTEX
  8
0
  5
2F7BB
 10
154.246
 20
333.444
 30
0.000000
  70
    32
  0
VERTEX
  8
0
  5
2F7BC
 10
154.236
 20
333.508
 30
0.000000
  70
    32
  0
VERTEX
  8
0
  5
2F7BD
 10
154.227
 20
333.573
 30
0.000000
  70
    32
  0
VERTEX
  8
0
  5
2F7BE
 10
154.217
 20
333.638
 30
0.000000
  70
    32
  0
VERTEX
  8
0
  5
2F7BF
 10
154.208
 20
333.702
 30
0.000000
  70
    32
  0
VERTEX
  8
0
  5
2F7C0
 10
154.198
 20
333.767
 30
0.000000
  70
    32
  0
VERTEX
  8
0
  5
2F7C1
 10
154.188
 20
333.831
 30
0.000000
  70
    32
  0
VERTEX
  8
0
  5
2F7C2
 10
154.179
 20
333.895
 30
0.000000
  70
    32
  0
VERTEX
  8
0
  5
2F7C3
 10
154.169
 20
333.960
 30
0.000000
  70
    32
  0
VERTEX
  8
0
  5
2F7C4
 10
154.159
 20
334.024
 30
0.000000
  70
    32
  0
VERTEX
  8
0
  5
2F7C5
 10
154.148
 20
334.088
 30
0.000000
  70
    32
  0
VERTEX
  8
0
  5
2F7C6
 10
154.138
 20
334.153
 30
0.000000
  70
    32
  0
VERTEX
  8
0
  5
2F7C7
 10
154.128
 20
334.217
 30
0.000000
  70
    32
  0
VERTEX
  8
0
  5
2F7C8
 10
154.117
 20
334.281
 30
0.000000
  70
    32
  0
VERTEX
  8
0
  5
2F7C9
 10
154.107
 20
334.345
 30
0.000000
  70
    32
  0
VERTEX
  8
0
  5
2F7CA
 10
154.096
 20
334.409
 30
0.000000
  70
    32
  0
VERTEX
  8
0
  5
2F7CB
 10
154.086
 20
334.473
 30
0.000000
  70
    32
  0
VERTEX
  8
0
  5
2F7CC
 10
154.075
 20
334.537
 30
0.000000
  70
    32
  0
VERTEX
  8
0
  5
2F7CD
 10
154.064
 20
334.601
 30
0.000000
  70
    32
  0
VERTEX
  8
0
  5
2F7CE
 10
154.053
 20
334.665
 30
0.000000
  70
    32
  0
VERTEX
  8
0
  5
2F7CF
 10
154.042
 20
334.729
 30
0.000000
  70
    32
  0
VERTEX
  8
0
  5
2F7D0
 10
154.031
 20
334.792
 30
0.000000
  70
    32
  0
VERTEX
  8
0
  5
2F7D1
 10
154.019
 20
334.856
 30
0.000000
  70
    32
  0
VERTEX
  8
0
  5
2F7D2
 10
154.008
 20
334.920
 30
0.000000
  70
    32
  0
VERTEX
  8
0
  5
2F7D3
 10
153.997
 20
334.983
 30
0.000000
  70
    32
  0
VERTEX
  8
0
  5
2F7D4
 10
153.985
 20
335.047
 30
0.000000
  70
    32
  0
VERTEX
  8
0
  5
2F7D5
 10
153.974
 20
335.111
 30
0.000000
  70
    32
  0
VERTEX
  8
0
  5
2F7D6
 10
153.962
 20
335.174
 30
0.000000
  70
    32
  0
VERTEX
  8
0
  5
2F7D7
 10
153.950
 20
335.237
 30
0.000000
  70
    32
  0
VERTEX
  8
0
  5
2F7D8
 10
153.938
 20
335.301
 30
0.000000
  70
    32
  0
VERTEX
  8
0
  5
2F7D9
 10
153.926
 20
335.364
 30
0.000000
  70
    32
  0
SEQEND
  8
0
  5
2F7DA
  0
POLYLINE
  5
2F0D0
  8
0
 10
221.87749434503533
 20
335.3641665553663
 30
0.0
 66
     1
 70
     8
  0
VERTEX
  8
0
  5
2F7DB
 10
221.877
 20
335.364
 30
0.000000
  70
    32
  0
VERTEX
  8
0
  5
2F7DC
 10
221.866
 20
335.301
 30
0.000000
  70
    32
  0
VERTEX
  8
0
  5
2F7DD
 10
221.854
 20
335.237
 30
0.000000
  70
    32
  0
VERTEX
  8
0
  5
2F7DE
 10
221.842
 20
335.174
 30
0.000000
  70
    32
  0
VERTEX
  8
0
  5
2F7DF
 10
221.830
 20
335.111
 30
0.000000
  70
    32
  0
VERTEX
  8
0
  5
2F7E0
 10
221.819
 20
335.047
 30
0.000000
  70
    32
  0
VERTEX
  8
0
  5
2F7E1
 10
221.807
 20
334.983
 30
0.000000
  70
    32
  0
VERTEX
  8
0
  5
2F7E2
 10
221.796
 20
334.920
 30
0.000000
  70
    32
  0
VERTEX
  8
0
  5
2F7E3
 10
221.784
 20
334.856
 30
0.000000
  70
    32
  0
VERTEX
  8
0
  5
2F7E4
 10
221.773
 20
334.792
 30
0.000000
  70
    32
  0
VERTEX
  8
0
  5
2F7E5
 10
221.762
 20
334.729
 30
0.000000
  70
    32
  0
VERTEX
  8
0
  5
2F7E6
 10
221.751
 20
334.665
 30
0.000000
  70
    32
  0
VERTEX
  8
0
  5
2F7E7
 10
221.740
 20
334.601
 30
0.000000
  70
    32
  0
VERTEX
  8
0
  5
2F7E8
 10
221.729
 20
334.537
 30
0.000000
  70
    32
  0
VERTEX
  8
0
  5
2F7E9
 10
221.718
 20
334.473
 30
0.000000
  70
    32
  0
VERTEX
  8
0
  5
2F7EA
 10
221.707
 20
334.409
 30
0.000000
  70
    32
  0
VERTEX
  8
0
  5
2F7EB
 10
221.697
 20
334.345
 30
0.000000
  70
    32
  0
VERTEX
  8
0
  5
2F7EC
 10
221.686
 20
334.281
 30
0.000000
  70
    32
  0
VERTEX
  8
0
  5
2F7ED
 10
221.676
 20
334.217
 30
0.000000
  70
    32
  0
VERTEX
  8
0
  5
2F7EE
 10
221.666
 20
334.153
 30
0.000000
  70
    32
  0
VERTEX
  8
0
  5
2F7EF
 10
221.655
 20
334.088
 30
0.000000
  70
    32
  0
VERTEX
  8
0
  5
2F7F0
 10
221.645
 20
334.024
 30
0.000000
  70
    32
  0
VERTEX
  8
0
  5
2F7F1
 10
221.635
 20
333.960
 30
0.000000
  70
    32
  0
VERTEX
  8
0
  5
2F7F2
 10
221.625
 20
333.895
 30
0.000000
  70
    32
  0
VERTEX
  8
0
  5
2F7F3
 10
221.615
 20
333.831
 30
0.000000
  70
    32
  0
VERTEX
  8
0
  5
2F7F4
 10
221.606
 20
333.767
 30
0.000000
  70
    32
  0
VERTEX
  8
0
  5
2F7F5
 10
221.596
 20
333.702
 30
0.000000
  70
    32
  0
VERTEX
  8
0
  5
2F7F6
 10
221.586
 20
333.638
 30
0.000000
  70
    32
  0
VERTEX
  8
0
  5
2F7F7
 10
221.577
 20
333.573
 30
0.000000
  70
    32
  0
VERTEX
  8
0
  5
2F7F8
 10
221.567
 20
333.508
 30
0.000000
  70
    32
  0
VERTEX
  8
0
  5
2F7F9
 10
221.558
 20
333.444
 30
0.000000
  70
    32
  0
VERTEX
  8
0
  5
2F7FA
 10
221.549
 20
333.379
 30
0.000000
  70
    32
  0
VERTEX
  8
0
  5
2F7FB
 10
221.540
 20
333.314
 30
0.000000
  70
    32
  0
VERTEX
  8
0
  5
2F7FC
 10
221.531
 20
333.250
 30
0.000000
  70
    32
  0
VERTEX
  8
0
  5
2F7FD
 10
221.522
 20
333.185
 30
0.000000
  70
    32
  0
VERTEX
  8
0
  5
2F7FE
 10
221.513
 20
333.120
 30
0.000000
  70
    32
  0
VERTEX
  8
0
  5
2F7FF
 10
221.504
 20
333.055
 30
0.000000
  70
    32
  0
VERTEX
  8
0
  5
2F800
 10
221.496
 20
332.990
 30
0.000000
  70
    32
  0
VERTEX
  8
0
  5
2F801
 10
221.487
 20
332.925
 30
0.000000
  70
    32
  0
VERTEX
  8
0
  5
2F802
 10
221.478
 20
332.860
 30
0.000000
  70
    32
  0
VERTEX
  8
0
  5
2F803
 10
221.470
 20
332.795
 30
0.000000
  70
    32
  0
VERTEX
  8
0
  5
2F804
 10
221.462
 20
332.730
 30
0.000000
  70
    32
  0
VERTEX
  8
0
  5
2F805
 10
221.454
 20
332.665
 30
0.000000
  70
    32
  0
VERTEX
  8
0
  5
2F806
 10
221.446
 20
332.600
 30
0.000000
  70
    32
  0
VERTEX
  8
0
  5
2F807
 10
221.438
 20
332.535
 30
0.000000
  70
    32
  0
VERTEX
  8
0
  5
2F808
 10
221.430
 20
332.469
 30
0.000000
  70
    32
  0
VERTEX
  8
0
  5
2F809
 10
221.422
 20
332.404
 30
0.000000
  70
    32
  0
VERTEX
  8
0
  5
2F80A
 10
221.414
 20
332.339
 30
0.000000
  70
    32
  0
VERTEX
  8
0
  5
2F80B
 10
221.406
 20
332.274
 30
0.000000
  70
    32
  0
VERTEX
  8
0
  5
2F80C
 10
221.399
 20
332.208
 30
0.000000
  70
    32
  0
VERTEX
  8
0
  5
2F80D
 10
221.391
 20
332.143
 30
0.000000
  70
    32
  0
VERTEX
  8
0
  5
2F80E
 10
221.384
 20
332.078
 30
0.000000
  70
    32
  0
VERTEX
  8
0
  5
2F80F
 10
221.377
 20
332.012
 30
0.000000
  70
    32
  0
VERTEX
  8
0
  5
2F810
 10
221.370
 20
331.947
 30
0.000000
  70
    32
  0
VERTEX
  8
0
  5
2F811
 10
221.363
 20
331.881
 30
0.000000
  70
    32
  0
VERTEX
  8
0
  5
2F812
 10
221.356
 20
331.816
 30
0.000000
  70
    32
  0
VERTEX
  8
0
  5
2F813
 10
221.349
 20
331.750
 30
0.000000
  70
    32
  0
VERTEX
  8
0
  5
2F814
 10
221.342
 20
331.684
 30
0.000000
  70
    32
  0
VERTEX
  8
0
  5
2F815
 10
221.335
 20
331.619
 30
0.000000
  70
    32
  0
VERTEX
  8
0
  5
2F816
 10
221.329
 20
331.553
 30
0.000000
  70
    32
  0
VERTEX
  8
0
  5
2F817
 10
221.322
 20
331.488
 30
0.000000
  70
    32
  0
VERTEX
  8
0
  5
2F818
 10
221.316
 20
331.422
 30
0.000000
  70
    32
  0
VERTEX
  8
0
  5
2F819
 10
221.309
 20
331.356
 30
0.000000
  70
    32
  0
VERTEX
  8
0
  5
2F81A
 10
221.303
 20
331.290
 30
0.000000
  70
    32
  0
VERTEX
  8
0
  5
2F81B
 10
221.297
 20
331.225
 30
0.000000
  70
    32
  0
VERTEX
  8
0
  5
2F81C
 10
221.291
 20
331.159
 30
0.000000
  70
    32
  0
VERTEX
  8
0
  5
2F81D
 10
221.285
 20
331.093
 30
0.000000
  70
    32
  0
VERTEX
  8
0
  5
2F81E
 10
221.279
 20
331.027
 30
0.000000
  70
    32
  0
VERTEX
  8
0
  5
2F81F
 10
221.273
 20
330.961
 30
0.000000
  70
    32
  0
VERTEX
  8
0
  5
2F820
 10
221.268
 20
330.895
 30
0.000000
  70
    32
  0
VERTEX
  8
0
  5
2F821
 10
221.262
 20
330.829
 30
0.000000
  70
    32
  0
VERTEX
  8
0
  5
2F822
 10
221.257
 20
330.763
 30
0.000000
  70
    32
  0
VERTEX
  8
0
  5
2F823
 10
221.251
 20
330.697
 30
0.000000
  70
    32
  0
VERTEX
  8
0
  5
2F824
 10
221.246
 20
330.631
 30
0.000000
  70
    32
  0
VERTEX
  8
0
  5
2F825
 10
221.241
 20
330.565
 30
0.000000
  70
    32
  0
VERTEX
  8
0
  5
2F826
 10
221.236
 20
330.499
 30
0.000000
  70
    32
  0
VERTEX
  8
0
  5
2F827
 10
221.231
 20
330.433
 30
0.000000
  70
    32
  0
VERTEX
  8
0
  5
2F828
 10
221.226
 20
330.367
 30
0.000000
  70
    32
  0
VERTEX
  8
0
  5
2F829
 10
221.221
 20
330.301
 30
0.000000
  70
    32
  0
VERTEX
  8
0
  5
2F82A
 10
221.216
 20
330.235
 30
0.000000
  70
    32
  0
VERTEX
  8
0
  5
2F82B
 10
221.212
 20
330.169
 30
0.000000
  70
    32
  0
VERTEX
  8
0
  5
2F82C
 10
221.207
 20
330.103
 30
0.000000
  70
    32
  0
VERTEX
  8
0
  5
2F82D
 10
221.203
 20
330.036
 30
0.000000
  70
    32
  0
VERTEX
  8
0
  5
2F82E
 10
221.198
 20
329.970
 30
0.000000
  70
    32
  0
VERTEX
  8
0
  5
2F82F
 10
221.194
 20
329.904
 30
0.000000
  70
    32
  0
VERTEX
  8
0
  5
2F830
 10
221.190
 20
329.838
 30
0.000000
  70
    32
  0
VERTEX
  8
0
  5
2F831
 10
221.186
 20
329.772
 30
0.000000
  70
    32
  0
VERTEX
  8
0
  5
2F832
 10
221.182
 20
329.705
 30
0.000000
  70
    32
  0
VERTEX
  8
0
  5
2F833
 10
221.178
 20
329.639
 30
0.000000
  70
    32
  0
VERTEX
  8
0
  5
2F834
 10
221.174
 20
329.573
 30
0.000000
  70
    32
  0
VERTEX
  8
0
  5
2F835
 10
221.171
 20
329.506
 30
0.000000
  70
    32
  0
VERTEX
  8
0
  5
2F836
 10
221.167
 20
329.440
 30
0.000000
  70
    32
  0
VERTEX
  8
0
  5
2F837
 10
221.164
 20
329.374
 30
0.000000
  70
    32
  0
VERTEX
  8
0
  5
2F838
 10
221.160
 20
329.307
 30
0.000000
  70
    32
  0
VERTEX
  8
0
  5
2F839
 10
221.157
 20
329.241
 30
0.000000
  70
    32
  0
VERTEX
  8
0
  5
2F83A
 10
221.154
 20
329.174
 30
0.000000
  70
    32
  0
VERTEX
  8
0
  5
2F83B
 10
221.151
 20
329.108
 30
0.000000
  70
    32
  0
VERTEX
  8
0
  5
2F83C
 10
221.148
 20
329.042
 30
0.000000
  70
    32
  0
VERTEX
  8
0
  5
2F83D
 10
221.145
 20
328.975
 30
0.000000
  70
    32
  0
VERTEX
  8
0
  5
2F83E
 10
221.142
 20
328.909
 30
0.000000
  70
    32
  0
VERTEX
  8
0
  5
2F83F
 10
221.139
 20
328.842
 30
0.000000
  70
    32
  0
VERTEX
  8
0
  5
2F840
 10
221.137
 20
328.776
 30
0.000000
  70
    32
  0
VERTEX
  8
0
  5
2F841
 10
221.134
 20
328.709
 30
0.000000
  70
    32
  0
VERTEX
  8
0
  5
2F842
 10
221.132
 20
328.643
 30
0.000000
  70
    32
  0
VERTEX
  8
0
  5
2F843
 10
221.129
 20
328.576
 30
0.000000
  70
    32
  0
VERTEX
  8
0
  5
2F844
 10
221.127
 20
328.510
 30
0.000000
  70
    32
  0
VERTEX
  8
0
  5
2F845
 10
221.125
 20
328.443
 30
0.000000
  70
    32
  0
VERTEX
  8
0
  5
2F846
 10
221.123
 20
328.377
 30
0.000000
  70
    32
  0
VERTEX
  8
0
  5
2F847
 10
221.121
 20
328.310
 30
0.000000
  70
    32
  0
VERTEX
  8
0
  5
2F848
 10
221.119
 20
328.244
 30
0.000000
  70
    32
  0
VERTEX
  8
0
  5
2F849
 10
221.117
 20
328.177
 30
0.000000
  70
    32
  0
VERTEX
  8
0
  5
2F84A
 10
221.116
 20
328.110
 30
0.000000
  70
    32
  0
VERTEX
  8
0
  5
2F84B
 10
221.114
 20
328.044
 30
0.000000
  70
    32
  0
VERTEX
  8
0
  5
2F84C
 10
221.113
 20
327.977
 30
0.000000
  70
    32
  0
VERTEX
  8
0
  5
2F84D
 10
221.111
 20
327.911
 30
0.000000
  70
    32
  0
VERTEX
  8
0
  5
2F84E
 10
221.110
 20
327.844
 30
0.000000
  70
    32
  0
VERTEX
  8
0
  5
2F84F
 10
221.109
 20
327.777
 30
0.000000
  70
    32
  0
VERTEX
  8
0
  5
2F850
 10
221.108
 20
327.711
 30
0.000000
  70
    32
  0
VERTEX
  8
0
  5
2F851
 10
221.107
 20
327.644
 30
0.000000
  70
    32
  0
VERTEX
  8
0
  5
2F852
 10
221.106
 20
327.578
 30
0.000000
  70
    32
  0
VERTEX
  8
0
  5
2F853
 10
221.105
 20
327.511
 30
0.000000
  70
    32
  0
VERTEX
  8
0
  5
2F854
 10
221.104
 20
327.444
 30
0.000000
  70
    32
  0
VERTEX
  8
0
  5
2F855
 10
221.104
 20
327.378
 30
0.000000
  70
    32
  0
VERTEX
  8
0
  5
2F856
 10
221.103
 20
327.311
 30
0.000000
  70
    32
  0
VERTEX
  8
0
  5
2F857
 10
221.103
 20
327.245
 30
0.000000
  70
    32
  0
VERTEX
  8
0
  5
2F858
 10
221.102
 20
327.178
 30
0.000000
  70
    32
  0
VERTEX
  8
0
  5
2F859
 10
221.102
 20
327.111
 30
0.000000
  70
    32
  0
VERTEX
  8
0
  5
2F85A
 10
221.102
 20
327.045
 30
0.000000
  70
    32
  0
VERTEX
  8
0
  5
2F85B
 10
221.102
 20
326.978
 30
0.000000
  70
    32
  0
SEQEND
  8
0
  5
2F85C
  0
LINE
  5
2F0D1
  8
0
 10
222.49893192490549
 20
337.43523431330141
 30
0.0
 11
221.8774938984773
 21
335.36416656424439
 31
0.0
  0
LINE
  5
2F0D2
  8
0
 10
198.0800591438076
 20
477.73668644803729
 30
0.0
 11
199.35162924518789
 21
480.46358404535022
 31
0.0
  0
LINE
  5
2F0D4
  8
0
 10
176.45213380744659
 20
480.46358404535022
 30
0.0
 11
177.72370390882699
 21
477.73668644803729
 31
0.0
  0
ARC
  5
2F0D5
  8
0
 10
194.90798200642101
 20
479.21585336104403
 30
0.0
 40
3.4999999999742388
 50
318.91766685974602
 51
334.99999999998983
  0
LINE
  5
2F0D6
  8
0
 10
178.25759947588651
 20
476.91585598367419
 30
0.0
 11
197.546163576748
 21
476.91585598367419
 31
0.0
  0
ARC
  5
2F0D7
  8
0
 10
180.8957810462127
 20
479.21585336104363
 30
0.0
 40
3.499999999974031
 50
204.9999999996767
 51
221.08233314025551
  0
LINE
  5
2F0DE
  8
0
 10
221.1018810077569
 20
325.91585358458718
 30
0.0
 11
217.90188085576511
 21
325.91585358458718
 31
0.0
  0
LINE
  5
2F0E2
  8
0
 10
154.70188204487769
 20
320.91585369634589
 30
0.0
 11
154.7018815263161
 21
326.9780311875611
 31
0.0
  0
LINE
  5
2F0E4
  8
0
 10
221.1018815263167
 20
326.9780311875611
 30
0.0
 11
221.1018810077569
 21
320.91585369634589
 31
0.0
  0
LINE
  5
2F0E6
  8
0
 10
228.95407588502189
 20
344.48618990742762
 30
0.0
 11
228.85188152631619
 21
344.42770438784828
 31
0.0
  0
LINE
  5
2F0FB
  8
0
 10
221.1018810077569
 20
326.41585366654363
 30
0.0
 11
228.31320483526201
 21
326.41585366654363
 31
0.0
  0
LINE
  5
2F0FC
  8
0
 10
222.04303089817969
 20
335.91585336106982
 30
0.0
 11
227.4646991892717
 21
335.91585336106982
 31
0.0
  0
ARC
  5
2F0FD
  8
0
 10
214.30430376595561
 20
331.16585351380672
 30
0.0
 40
13.99137256480037
 50
340.15389540795962
 51
19.846104592040369
  0
LINE
  5
2F0FE
  8
0
 10
228.6018813057801
 20
344.28022904175492
 30
0.0
 11
228.6018813057801
 21
326.91585374850001
 31
0.0
  0
ARC
  5
2F100
  8
0
 10
215.56656974538711
 20
340.52369704588642
 30
0.0
 40
12.759220496846179
 50
338.82987827658508
 51
14.63436407541942
  0
LINE
  5
2F101
  8
0
 10
144.70188040574999
 20
326.41585366654363
 30
0.0
 11
154.70188204487769
 21
326.41585366654363
 31
0.0
  0
LINE
  5
2F102
  8
0
 10
144.70188040574999
 20
335.91585336106982
 30
0.0
 11
153.7607321544549
 21
335.91585336106982
 31
0.0
  0
LINE
  5
2F103
  8
0
 10
144.70188040574999
 20
326.41585366654363
 30
0.0
 11
144.70188040574999
 21
345.41585305559602
 31
0.0
  0
LINE
  5
2F104
  8
0
 10
144.70188040574999
 20
345.41585305559602
 30
0.0
 11
145.24035621723141
 21
345.41585305559602
 31
0.0
  0
LINE
  5
2F107
  8
0
 10
162.9018811537882
 20
431.91585419553479
 30
0.0
 11
162.9018811537882
 21
239.91585252660479
 31
0.0
  0
LINE
  5
2F108
  8
0
 10
212.9018818988464
 20
431.91585419553479
 30
0.0
 11
212.9018818988464
 21
239.91585252660479
 31
0.0
  0
LINE
  5
2F109
  8
0
 10
228.95407770117731
 20
344.4861900978085
 30
0.0
 11
228.95407770117731
 21
344.48670605051478
 31
0.0
  0
LINE
  5
2F10D
  8
0
 10
165.9791348530909
 20
435.91585485118588
 30
0.0
 11
165.9791348530909
 21
235.9158518709537
 31
0.0
  0
LINE
  5
2F10E
  8
0
 10
209.8246281995437
 20
435.91585485118588
 30
0.0
 11
209.8246281995437
 21
235.9158518709537
 31
0.0
  0
LINE
  5
2F110
  8
0
 10
506.95073748785393
 20
617.46342660398852
 30
0.0
 11
508.92039253223078
 21
616.32624448748004
 31
0.0
  0
LINE
  5
2F111
  8
0
 10
526.92039175737045
 20
616.32624448748004
 30
0.0
 11
528.89004680174719
 21
617.46342660398852
 31
0.0
  0
ARC
  5
2F114
  8
0
 10
614.92039214480064
 20
678.94899176075614
 30
0.0
 40
2.999999999999118
 50
359.99999999999352
 51
86.000000000023107
  0
ARC
  5
2F115
  8
0
 10
420.92039214479883
 20
678.94899176075614
 30
0.0
 40
2.999999999999047
 50
93.999999999970385
 51
180.00000000000651
  0
LINE
  5
2F116
  8
0
 10
617.92039363491676
 20
635.1034975937165
 30
0.0
 11
617.92039363491676
 21
678.94899094016921
 31
0.0
  0
LINE
  5
2F117
  8
0
 10
417.92039065468441
 20
678.94899094016921
 30
0.0
 11
417.92039065468441
 21
635.1034975937165
 31
0.0
  0
ARC
  5
2F118
  8
0
 10
614.92039214480064
 20
635.10349677312945
 30
0.0
 40
2.999999999999118
 50
273.99999999998352
 51
0.0000000000065138
  0
ARC
  5
2F119
  8
0
 10
420.92039214479883
 20
635.10349677312945
 30
0.0
 40
2.9999999999990732
 50
179.99999999999349
 51
266.00000000002308
  0
LINE
  5
2F11A
  8
0
 10
615.12965946304939
 20
681.9416842749871
 30
0.0
 11
613.92039297926567
 21
682.02624463947188
 31
0.0
  0
LINE
  5
2F11B
  8
0
 10
421.9203913103355
 20
682.02624463947188
 30
0.0
 11
420.71112482655178
 21
681.9416842749871
 31
0.0
  0
LINE
  5
2F11C
  8
0
 10
420.71112482655178
 20
632.11080425889861
 30
0.0
 11
421.9203913103355
 21
632.02624389441382
 31
0.0
  0
LINE
  5
2F11D
  8
0
 10
613.92039297926567
 20
632.02624389441382
 30
0.0
 11
615.12965946304939
 21
632.11080425889861
 31
0.0
  0
LINE
  5
2F11E
  8
0
 10
542.92039251732956
 20
670.75598978908386
 30
0.0
 11
492.9203917722715
 21
670.75598978908386
 31
0.0
  0
ARC
  5
2F11F
  8
0
 10
492.92039214480059
 20
664.0262442669424
 30
0.0
 40
6.7297459128259609
 50
90.0
 51
180.0
  0
LINE
  5
2F120
  8
0
 10
486.19064553487431
 20
650.02624405087545
 30
0.0
 11
486.19064553487431
 21
664.02624448300924
 31
0.0
  0
ARC
  5
2F121
  8
0
 10
492.92039214480059
 20
650.02624426694229
 30
0.0
 40
6.7297459128104711
 50
180.0
 51
270.0
  0
LINE
  5
2F122
  8
0
 10
542.92039251732956
 20
643.29649874480094
 30
0.0
 11
492.9203917722715
 21
643.29649874480094
 31
0.0
  0
ARC
  5
2F123
  8
0
 10
542.92039214480064
 20
650.02624426694229
 30
0.0
 40
6.7297459128259609
 50
270.0
 51
0.0
  0
LINE
  5
2F124
  8
0
 10
549.65013875472675
 20
650.02624405087545
 30
0.0
 11
549.65013875472675
 21
664.02624448300924
 31
0.0
  0
ARC
  5
2F125
  8
0
 10
542.92039214480064
 20
664.0262442669424
 30
0.0
 40
6.7297459128259609
 50
0.0
 51
90.0
  0
LINE
  5
2F126
  8
0
 10
470.920393754126
 20
693.5262437305006
 30
0.0
 11
470.920393754126
 21
699.52624471397723
 31
0.0
  0
ARC
  5
2F127
  8
0
 10
465.42039214480059
 20
699.5262442669424
 30
0.0
 40
5.5000000000001128
 50
0.0
 51
180.0
  0
LINE
  5
2F128
  8
0
 10
459.92039381373058
 20
699.52624471397723
 30
0.0
 11
459.92039381373058
 21
693.5262437305006
 31
0.0
  0
ARC
  5
2F129
  8
0
 10
465.42039214480059
 20
693.5262442669424
 30
0.0
 40
5.5000000000001128
 50
180.0
 51
0.0
  0
LINE
  5
2F12A
  8
0
 10
575.92039047587048
 20
693.5262437305006
 30
0.0
 11
575.92039047587048
 21
699.52624471397723
 31
0.0
  0
ARC
  5
2F12B
  8
0
 10
570.42039214480064
 20
699.5262442669424
 30
0.0
 40
5.5000000000001128
 50
0.0
 51
180.0
  0
LINE
  5
2F12C
  8
0
 10
564.92039053547524
 20
699.52624471397723
 30
0.0
 11
564.92039053547524
 21
693.5262437305006
 31
0.0
  0
ARC
  5
2F12D
  8
0
 10
570.42039214480064
 20
693.5262442669424
 30
0.0
 40
5.5000000000001128
 50
180.0
 51
0.0
  0
LINE
  5
2F12E
  8
0
 10
575.92039047587048
 20
614.52624381990745
 30
0.0
 11
575.92039047587048
 21
620.5262448033842
 31
0.0
  0
ARC
  5
2F12F
  8
0
 10
570.42039214480064
 20
620.5262442669424
 30
0.0
 40
5.5000000000001128
 50
0.0
 51
180.0
  0
LINE
  5
2F130
  8
0
 10
564.92039053547524
 20
620.5262448033842
 30
0.0
 11
564.92039053547524
 21
614.52624381990745
 31
0.0
  0
ARC
  5
2F131
  8
0
 10
570.42039214480064
 20
614.5262442669424
 30
0.0
 40
5.5000000000001128
 50
180.0
 51
0.0
  0
LINE
  5
2F132
  8
0
 10
459.92039381373058
 20
620.5262448033842
 30
0.0
 11
459.92039381373058
 21
614.52624381990745
 31
0.0
  0
ARC
  5
2F133
  8
0
 10
465.42039214480059
 20
614.5262442669424
 30
0.0
 40
5.5000000000001128
 50
180.0
 51
0.0
  0
LINE
  5
2F134
  8
0
 10
470.920393754126
 20
614.52624381990745
 30
0.0
 11
470.920393754126
 21
620.5262448033842
 31
0.0
  0
ARC
  5
2F135
  8
0
 10
465.42039214480059
 20
620.5262442669424
 30
0.0
 40
5.5000000000001128
 50
0.0
 51
180.0
  0
LINE
  5
2F136
  8
0
 10
447.92039184677731
 20
682.02624463947097
 30
0.0
 11
447.92039184677731
 21
632.02624389441326
 31
0.0
  0
LINE
  5
2F137
  8
0
 10
456.494765866877
 20
714.02624429674472
 30
0.0
 11
447.92039184677731
 21
682.02624463947097
 31
0.0
  0
LINE
  5
2F138
  8
0
 10
471.9570228348984
 20
714.02624429674472
 30
0.0
 11
456.494765866877
 21
714.02624429674472
 31
0.0
  0
ARC
  5
2F139
  8
0
 10
471.9570238737515
 20
704.02624426694149
 30
0.0
 40
10.000000000000851
 50
30.000000000000341
 51
90.0
  0
LINE
  5
2F13A
  8
0
 10
486.99699765849249
 20
697.97624455304469
 30
0.0
 11
480.61727969753878
 21
709.026245339826
 31
0.0
  0
ARC
  5
2F13B
  8
0
 10
500.42039214480059
 20
705.72624426694176
 30
0.0
 40
15.49999999999954
 50
210.00000000000031
 51
270.0
  0
LINE
  5
2F13C
  8
0
 10
535.42039221930645
 20
690.22624374838199
 30
0.0
 11
500.42039207029478
 21
690.22624374838199
 31
0.0
  0
ARC
  5
2F13D
  8
0
 10
535.42039214480064
 20
705.72624426694176
 30
0.0
 40
15.49999999999954
 50
270.0
 51
330.43525128161752
  0
LINE
  5
2F13E
  8
0
 10
555.07308482039105
 20
708.95661221356715
 30
0.0
 11
548.90227182614944
 21
698.0784404418024
 31
0.0
  0
ARC
  5
2F13F
  8
0
 10
563.77107145475748
 20
704.02254457865922
 30
0.0
 40
10.000000000000959
 50
90.435251281619685
 51
150.4352512816175
  0
LINE
  5
2F140
  8
0
 10
579.3152922283424
 20
714.14091990800227
 30
0.0
 11
563.69510530340801
 21
714.02225451083495
 31
0.0
  0
LINE
  5
2F141
  8
0
 10
587.92039244282375
 20
682.02624463947097
 30
0.0
 11
579.3152922283424
 21
714.14091990800227
 31
0.0
  0
LINE
  5
2F142
  8
0
 10
587.92039244282375
 20
632.02624389441326
 30
0.0
 11
587.92039244282375
 21
682.02624463947097
 31
0.0
  0
LINE
  5
2F143
  8
0
 10
579.3152922283424
 20
599.91156862588252
 30
0.0
 11
587.92039244282375
 21
632.02624389441326
 31
0.0
  0
LINE
  5
2F144
  8
0
 10
563.69510530340801
 20
600.03023402304973
 30
0.0
 11
579.3152922283424
 21
599.91156862588252
 31
0.0
  0
ARC
  5
2F145
  8
0
 10
563.77107145475748
 20
610.02994395522546
 30
0.0
 40
10.000000000000959
 50
209.56474871838239
 51
269.56474871837378
  0
LINE
  5
2F146
  8
0
 10
548.90227182614944
 20
615.9740480920824
 30
0.0
 11
555.07308482039105
 21
605.09587632031764
 31
0.0
  0
ARC
  5
2F147
  8
0
 10
535.42039214480064
 20
608.32624426694247
 30
0.0
 40
15.49999999999954
 50
29.56474871838245
 51
90.0
  0
LINE
  5
2F148
  8
0
 10
500.42039207029478
 20
623.82624478550281
 30
0.0
 11
535.42039221930645
 21
623.82624478550281
 31
0.0
  0
ARC
  5
2F149
  8
0
 10
500.42039214480059
 20
608.32624426694304
 30
0.0
 40
15.49999999999948
 50
90.0
 51
149.9999999999996
  0
LINE
  5
2F14A
  8
0
 10
480.61727969753878
 20
605.02624319405879
 30
0.0
 11
486.99699765849249
 21
616.0762439808401
 31
0.0
  0
ARC
  5
2F14B
  8
0
 10
471.9570238737515
 20
610.02624426694331
 30
0.0
 40
10.00000000000092
 50
270.0
 51
329.9999999999996
  0
LINE
  5
2F14C
  8
0
 10
456.494765866877
 20
600.02624423713962
 30
0.0
 11
471.9570228348984
 21
600.02624423713962
 31
0.0
  0
LINE
  5
2F14D
  8
0
 10
447.92039184677731
 20
632.02624389441326
 30
0.0
 11
456.494765866877
 21
600.02624423713962
 31
0.0
  0
ARC
  5
2F160
  8
0
 10
542.92039214480064
 20
664.0262442669424
 30
0.0
 40
1.639702682258672
 50
0.0
 51
90.0
  0
LINE
  5
2F162
  8
0
 10
491.2806903462423
 20
650.02624405087545
 30
0.0
 11
491.2806903462423
 21
664.02624448300924
 31
0.0
  0
LINE
  5
2F165
  8
0
 10
544.56009394335877
 20
650.02624405087545
 30
0.0
 11
544.56009394335877
 21
664.02624448300924
 31
0.0
  0
ARC
  5
2F166
  8
0
 10
492.92039214480059
 20
664.0262442669424
 30
0.0
 40
1.639702682258672
 50
90.0
 51
180.0
  0
LINE
  5
2F168
  8
0
 10
542.92039251732956
 20
665.66594684036102
 30
0.0
 11
492.9203917722715
 21
665.66594684036102
 31
0.0
  0
LINE
  5
2F16A
  8
0
 10
542.92039251732956
 20
648.38654169352378
 30
0.0
 11
492.9203917722715
 21
648.38654169352378
 31
0.0
  0
ARC
  5
2F16C
  8
0
 10
542.92039214480064
 20
650.02624426694229
 30
0.0
 40
1.639702682258743
 50
270.0
 51
0.0
  0
ARC
  5
2F16D
  8
0
 10
492.92039214480059
 20
650.02624426694229
 30
0.0
 40
1.639702682258743
 50
180.0
 51
270.0
  0
LINE
  5
2F17E
  8
0
 10
512.4355648163272
 20
700.22624538751006
 30
0.0
 11
512.4355648163272
 21
690.22624374838244
 31
0.0
  0
LINE
  5
2F180
  8
0
 10
523.40521947327386
 20
700.22624538751006
 30
0.0
 11
523.40521947327386
 21
690.22624374838244
 31
0.0
  0
LINE
  5
2F181
  8
0
 10
506.95073748785393
 20
700.22624538751006
 30
0.0
 11
506.95073748785393
 21
690.22624374838244
 31
0.0
  0
LINE
  5
2F182
  8
0
 10
506.95073748785393
 20
700.22624538751006
 30
0.0
 11
528.89004680174719
 21
700.22624538751006
 31
0.0
  0
LINE
  5
2F183
  8
0
 10
528.89004680174719
 20
700.22624538751006
 30
0.0
 11
528.89004680174719
 21
690.22624374838244
 31
0.0
  0
LINE
  5
2F185
  8
0
 10
512.4355648163272
 20
623.82624478550315
 30
0.0
 11
512.4355648163272
 21
617.46342660398852
 31
0.0
  0
LINE
  5
2F186
  8
0
 10
523.40521947327386
 20
623.82624478550315
 30
0.0
 11
523.40521947327386
 21
617.46342660398852
 31
0.0
  0
ARC
  5
2F187
  8
0
 10
517.92039214480064
 20
635.37551496941398
 30
0.0
 40
18.73302539457989
 50
252.9749852416987
 51
287.02501475830132
  0
LINE
  5
2F188
  8
0
 10
506.95073748785393
 20
623.82624478550315
 30
0.0
 11
506.95073748785393
 21
617.46342660398852
 31
0.0
  0
ARC
  5
2F189
  8
0
 10
509.69315115209059
 20
621.60615405478086
 30
0.0
 40
4.9682012275409804
 50
236.4961323145188
 51
303.50386768548123
  0
LINE
  5
2F18A
  8
0
 10
528.89004680174719
 20
623.82624478550315
 30
0.0
 11
528.89004680174719
 21
617.46342660398852
 31
0.0
  0
ARC
  5
2F18B
  8
0
 10
526.14763313751064
 20
621.62808778205147
 30
0.0
 40
4.9865053327814213
 50
236.63524700592461
 51
303.3647529940838
  0
LINE
  5
2F18C
  8
0
 10
526.92039175737045
 20
616.32624448748004
 30
0.0
 11
508.92039253223078
 21
616.32624448748004
 31
0.0
  0
LINE
  5
2F18E
  8
0
 10
613.92039297926567
 20
682.02624463947188
 30
0.0
 11
587.92039244282375
 21
682.02624463947188
 31
0.0
  0
LINE
  5
2F18F
  8
0
 10
447.92039184677731
 20
682.02624463947188
 30
0.0
 11
421.9203913103355
 21
682.02624463947188
 31
0.0
  0
LINE
  5
2F190
  8
0
 10
613.92039297926567
 20
632.02624389441382
 30
0.0
 11
587.92039244282375
 21
632.02624389441382
 31
0.0
  0
LINE
  5
2F191
  8
0
 10
447.92039184677731
 20
632.02624389441382
 30
0.0
 11
421.9203913103355
 21
632.02624389441382
 31
0.0
  0
LINE
  5
2F194
  8
0
 10
617.92039363491676
 20
678.94899094016921
 30
0.0
 11
587.92039244282375
 21
678.94899094016921
 31
0.0
  0
LINE
  5
2F195
  8
0
 10
447.92039184677731
 20
678.94899094016921
 30
0.0
 11
417.92039065468441
 21
678.94899094016921
 31
0.0
  0
LINE
  5
2F196
  8
0
 10
617.92039363491676
 20
635.1034975937165
 30
0.0
 11
587.92039244282375
 21
635.1034975937165
 31
0.0
  0
LINE
  5
2F197
  8
0
 10
447.92039184677731
 20
635.1034975937165
 30
0.0
 11
417.92039065468441
 21
635.1034975937165
 31
0.0
  0
ARC
  5
2F19E
  8
0
 10
517.92039214480008
 20
335.91585336106982
 30
0.0
 40
100.0000000000001
 50
121.3322514975777
 51
58.667748502422249
  0
ARC
  5
2F19F
  8
0
 10
517.92039214480008
 20
335.91585336106982
 30
0.0
 40
88.875000000000014
 50
125.80944871534849
 51
54.190551284651413
  0
ARC
  5
2F1A0
  8
0
 10
517.92039214480008
 20
335.91585336106982
 30
0.0
 40
29.5
 50
167.4931274230388
 51
12.506872980157761
  0
ARC
  5
2F1A1
  8
0
 10
517.92039214480008
 20
335.91585336106982
 30
0.0
 40
26.015000000000001
 50
172.52894741713769
 51
7.4710537876660794
  0
ARC
  5
2F1A2
  8
0
 10
517.92039214480008
 20
335.91585336106982
 30
0.0
 40
85.750000000000085
 50
127.3306606160244
 51
52.669339383975597
  0
ARC
  5
2F1A3
  8
0
 10
517.92039214480008
 20
335.91585336106982
 30
0.0
 40
81.920121728121813
 50
266.99999999999437
 51
305.99999999997931
  0
ARC
  5
2F1A4
  8
0
 10
517.92039214480008
 20
335.91585336106982
 30
0.0
 40
81.920121728121686
 50
339.00000000001472
 51
18.000000000020631
  0
ARC
  5
2F1A5
  8
0
 10
517.92039214479985
 20
335.91585336106982
 30
0.0
 40
81.92012172812143
 50
194.9999999999944
 51
234.00000000002029
  0
ARC
  5
2F1A6
  8
0
 10
517.92039214480076
 20
335.91585336106891
 30
0.0
 40
81.920121728122638
 50
129.40253353912351
 51
161.99999999997931
  0
LINE
  5
2F1A7
  8
0
 10
513.4325838969678
 20
250.28337075586481
 30
0.0
 11
516.37648143563365
 21
306.45628208581002
 31
0.0
  0
LINE
  5
2F1A8
  8
0
 10
535.26005708742855
 20
312.04985202700942
 30
0.0
 11
568.32297752887928
 21
266.54264609341772
 31
0.0
  0
LINE
  5
2F1A9
  8
0
 10
551.11872843094193
 20
346.70264670260133
 30
0.0
 11
599.47348841710982
 21
362.41406062872102
 31
0.0
  0
LINE
  5
2F1AA
  8
0
 10
597.97491371693548
 20
305.18580168756131
 30
0.0
 11
545.46101472646774
 21
325.3439988494838
 31
0.0
  0
LINE
  5
2F1AB
  8
0
 10
435.09225254051262
 20
313.72212024352763
 30
0.0
 11
489.42558026927281
 21
328.28069153054548
 31
0.0
  0
LINE
  5
2F1AC
  8
0
 10
500.58072720217228
 20
312.04985202700851
 30
0.0
 11
467.51780676072121
 21
266.54264609341772
 31
0.0
  0
LINE
  5
2F1AD
  8
0
 10
484.72205595491198
 20
346.70264667132591
 30
0.0
 11
436.36729587249101
 21
362.41406062872289
 31
0.0
  0
LINE
  5
2F1B5
  8
1
 10
391.88262541670838
 20
335.9158593215343
 30
0.0
 11
643.95815887289382
 21
335.9158593215343
 31
0.0
  0
LINE
  5
2F1B6
  8
1
 10
517.9203921448011
 20
209.87809259344161
 30
0.0
 11
517.9203921448011
 21
511.95362604962691
 31
0.0
  0
LINE
  5
2F1B7
  8
1
 10
570.42039214480099
 20
605.58532012059004
 30
0.0
 11
570.42039214480099
 21
629.46718033422439
 31
0.0
  0
LINE
  5
2F1B8
  8
1
 10
579.36132225161816
 20
614.5262502274071
 30
0.0
 11
561.47946203798381
 21
614.5262502274071
 31
0.0
  0
LINE
  5
2F1B9
  8
1
 10
579.36132225161816
 20
620.52625022740722
 30
0.0
 11
561.47946203798381
 21
620.52625022740722
 31
0.0
  0
LINE
  5
2F1BA
  8
1
 10
570.42039214480099
 20
684.58532012059004
 30
0.0
 11
570.42039214480099
 21
708.46718033422439
 31
0.0
  0
LINE
  5
2F1BB
  8
1
 10
579.36132225161816
 20
693.5262502274071
 30
0.0
 11
561.47946203798381
 21
693.5262502274071
 31
0.0
  0
LINE
  5
2F1BC
  8
1
 10
579.36132225161816
 20
699.52625022740722
 30
0.0
 11
561.47946203798381
 21
699.52625022740722
 31
0.0
  0
LINE
  5
2F1BD
  8
1
 10
465.4203921448011
 20
605.58532012059004
 30
0.0
 11
465.4203921448011
 21
629.46718033422439
 31
0.0
  0
LINE
  5
2F1BE
  8
1
 10
474.36132225161828
 20
614.5262502274071
 30
0.0
 11
456.47946203798392
 21
614.5262502274071
 31
0.0
  0
LINE
  5
2F1BF
  8
1
 10
474.36132225161828
 20
620.52625022740722
 30
0.0
 11
456.47946203798392
 21
620.52625022740722
 31
0.0
  0
LINE
  5
2F1C0
  8
1
 10
465.4203921448011
 20
684.58532012059004
 30
0.0
 11
465.4203921448011
 21
708.46718033422439
 31
0.0
  0
LINE
  5
2F1C1
  8
1
 10
474.36132225161828
 20
693.5262502274071
 30
0.0
 11
456.47946203798392
 21
693.5262502274071
 31
0.0
  0
LINE
  5
2F1C2
  8
1
 10
474.36132225161828
 20
699.52625022740722
 30
0.0
 11
456.47946203798392
 21
699.52625022740722
 31
0.0
  0
LINE
  5
2F1C3
  8
1
 10
782.33454396647903
 20
335.9158593215343
 30
0.0
 11
913.54326156009063
 21
335.9158593215343
 31
0.0
  0
LINE
  5
2F1C4
  8
1
 10
847.93890276328477
 20
209.87809259344161
 30
0.0
 11
847.93890276328477
 21
511.95362604962691
 31
0.0
  0
LINE
  5
2F1C5
  8
1
 10
253.50624032312319
 20
335.9158593215343
 30
0.0
 11
122.2975227295114
 21
335.9158593215343
 31
0.0
  0
LINE
  5
2F1C6
  8
1
 10
187.90188152631731
 20
209.87809259344161
 30
0.0
 11
187.90188152631731
 21
511.95362604962691
 31
0.0
  0
LINE
  5
2F1C7
  8
1
 10
391.88262541670878
 20
657.02625022740722
 30
0.0
 11
643.95815887289405
 21
657.02625022740722
 31
0.0
  0
LINE
  5
2F1C8
  8
1
 10
517.92039214480155
 20
594.03348508678835
 30
0.0
 11
517.92039214480155
 21
720.01901536802586
 31
0.0
  0
LINE
  5
2F1E3
  8
0
 10
897.73890417591485
 20
341.91585485118588
 30
0.0
 11
897.73890417591485
 21
329.91585485118588
 31
0.0
  0
LINE
  5
2F1E4
  8
0
 10
899.73890417591485
 20
331.91585485118588
 30
0.0
 11
897.73890417591485
 21
329.91585485118588
 31
0.0
  0
LINE
  5
2F1E5
  8
0
 10
899.73890417591485
 20
339.91585485118588
 30
0.0
 11
897.73890417591485
 21
341.91585485118588
 31
0.0
  0
LINE
  5
2F1E6
  8
0
 10
891.13890388385209
 20
341.91585485118588
 30
0.0
 11
897.73890417591485
 21
341.91585485118588
 31
0.0
  0
LINE
  5
2F1E7
  8
3
 10
891.13890388385209
 20
340.96885485118588
 30
0.0
 11
898.68590417591508
 21
340.96885485118588
 31
0.0
  0
LINE
  5
2F1E8
  8
3
 10
891.13890388385209
 20
330.86285485118589
 30
0.0
 11
898.68590417591463
 21
330.86285485118589
 31
0.0
  0
LINE
  5
2F1E9
  8
0
 10
891.13890388385209
 20
329.91585485118588
 30
0.0
 11
897.73890417591485
 21
329.91585485118588
 31
0.0
  0
LINE
  5
2F1EA
  8
0
 10
899.73890417591485
 20
339.91585485118588
 30
0.0
 11
899.73890417591485
 21
331.91585485118588
 31
0.0
  0
LINE
  5
2F1F4
  8
0
 10
512.4355648163272
 20
345.41585305559602
 30
0.0
 11
506.95073748785393
 21
335.91585336106982
 31
0.0
  0
LINE
  5
2F1F5
  8
0
 10
506.95073748785393
 20
335.91585336106982
 30
0.0
 11
512.4355648163272
 21
326.41585366654363
 31
0.0
  0
LINE
  5
2F1F6
  8
0
 10
523.40521947327386
 20
345.41585305559602
 30
0.0
 11
528.89004680174719
 21
335.91585336106982
 31
0.0
  0
LINE
  5
2F1F7
  8
0
 10
528.89004680174719
 20
335.91585336106982
 30
0.0
 11
523.40521947327386
 21
326.41585366654363
 31
0.0
  0
LINE
  5
2F1F8
  8
0
 10
138.1018801136872
 20
341.91585485118588
 30
0.0
 11
138.1018801136872
 21
329.91585485118588
 31
0.0
  0
LINE
  5
2F1F9
  8
0
 10
136.1018801136872
 20
331.91585485118588
 30
0.0
 11
138.1018801136872
 21
329.91585485118588
 31
0.0
  0
LINE
  5
2F1FA
  8
0
 10
136.1018801136872
 20
339.91585485118588
 30
0.0
 11
138.1018801136872
 21
341.91585485118588
 31
0.0
  0
LINE
  5
2F1FB
  8
0
 10
144.70188040574999
 20
341.91585485118588
 30
0.0
 11
138.1018801136872
 21
341.91585485118588
 31
0.0
  0
LINE
  5
2F1FC
  8
3
 10
144.70188040574999
 20
340.96885485118588
 30
0.0
 11
137.15488011368711
 21
340.96885485118588
 31
0.0
  0
LINE
  5
2F1FD
  8
3
 10
144.70188040574999
 20
330.86285485118589
 30
0.0
 11
137.15488011368751
 21
330.86285485118589
 31
0.0
  0
LINE
  5
2F1FE
  8
0
 10
144.70188040574999
 20
329.91585485118588
 30
0.0
 11
138.1018801136872
 21
329.91585485118588
 31
0.0
  0
LINE
  5
2F1FF
  8
0
 10
136.1018801136872
 20
339.91585485118588
 30
0.0
 11
136.1018801136872
 21
331.91585485118588
 31
0.0
  0
LINE
  5
2F23F
  8
0
 10
523.92039214480064
 20
706.82624567957293
 30
0.0
 11
511.9203921448003
 21
706.82624567957293
 31
0.0
  0
LINE
  5
2F240
  8
0
 10
513.92039214480064
 20
708.82624567957293
 30
0.0
 11
511.92039214480059
 21
706.82624567957293
 31
0.0
  0
LINE
  5
2F241
  8
0
 10
521.92039214480064
 20
708.82624567957293
 30
0.0
 11
523.92039214480064
 21
706.82624567957293
 31
0.0
  0
LINE
  5
2F242
  8
0
 10
523.92039214480064
 20
700.22624538751006
 30
0.0
 11
523.92039214480064
 21
706.82624567957293
 31
0.0
  0
LINE
  5
2F243
  8
3
 10
522.97339214480053
 20
700.22624538751006
 30
0.0
 11
522.97339214480053
 21
707.77324567957305
 31
0.0
  0
LINE
  5
2F244
  8
3
 10
512.86739214480053
 20
700.22624538751006
 30
0.0
 11
512.86739214480053
 21
707.77324567957248
 31
0.0
  0
LINE
  5
2F245
  8
0
 10
511.92039214480059
 20
700.22624538751006
 30
0.0
 11
511.92039214480059
 21
706.82624567957293
 31
0.0
  0
LINE
  5
2F246
  8
0
 10
521.92039214480064
 20
708.82624567957293
 30
0.0
 11
513.92039214480064
 21
708.82624567957293
 31
0.0
  0
TEXT
  5
2F2A2
  8
0
 62
     3
 10
0.0
 20
0.0
 30
0.0
 40
10.0
  1
CAF5-200PSL-H
  7
STANDARD1
  0
ENDSEC
  0
EOF
