  0
SECTION
  2
HEADER
  9
$ACADVER
  1
AC1009
  9
$INSBASE
 10
0.0
 20
0.0
 30
0.0
  9
$EXTMIN
 10
0.0
 20
-2.960436562073669
 30
0.0
  9
$EXTMAX
 10
1002.676624997282
 20
760.37886016340963
 30
0.0
  9
$LIMMIN
 10
0.0
 20
0.0
  9
$LIMMAX
 10
375.0
 20
270.0
  9
$ORTHOMODE
 70
     1
  9
$REGENMODE
 70
     1
  9
$FILLMODE
 70
     1
  9
$QTEXTMODE
 70
     0
  9
$MIRRTEXT
 70
     1
  9
$DRAGMODE
 70
     2
  9
$LTSCALE
 40
10.0
  9
$OSMODE
 70
  3071
  9
$ATTMODE
 70
     1
  9
$TEXTSIZE
 40
5.0
  9
$TRACEWID
 40
0.05
  9
$TEXTSTYLE
  7
STANDARD
  9
$CLAYER
  8
0
  9
$CELTYPE
  6
BYLAYER
  9
$CECOLOR
 62
     6
  9
$DIMSCALE
 40
2.0
  9
$DIMASZ
 40
3.0
  9
$DIMEXO
 40
2.0
  9
$DIMDLI
 40
0.38
  9
$DIMRND
 40
0.0
  9
$DIMDLE
 40
0.0
  9
$DIMEXE
 40
2.0
  9
$DIMTP
 40
0.0
  9
$DIMTM
 40
0.0
  9
$DIMTXT
 40
3.2000000000000002
  9
$DIMCEN
 40
0.0
  9
$DIMTSZ
 40
0.0
  9
$DIMTOL
 70
     0
  9
$DIMLIM
 70
     0
  9
$DIMTIH
 70
     0
  9
$DIMTOH
 70
     0
  9
$DIMSE1
 70
     0
  9
$DIMSE2
 70
     0
  9
$DIMTAD
 70
     1
  9
$DIMZIN
 70
     8
  9
$DIMBLK
  1

  9
$DIMASO
 70
     0
  9
$DIMSHO
 70
     0
  9
$DIMPOST
  1

  9
$DIMAPOST
  1

  9
$DIMALT
 70
     0
  9
$DIMALTD
 70
     2
  9
$DIMALTF
 40
25.399999999999999
  9
$DIMLFAC
 40
1.0
  9
$DIMTOFL
 70
     0
  9
$DIMTVP
 40
1.6000000000000001
  9
$DIMTIX
 70
     1
  9
$DIMSOXD
 70
     0
  9
$DIMSAH
 70
     0
  9
$DIMBLK1
  1

  9
$DIMBLK2
  1

  9
$DIMSTYLE
  2
STANDARD
  9
$DIMCLRD
 70
     0
  9
$DIMCLRE
 70
     0
  9
$DIMCLRT
 70
     0
  9
$DIMTFAC
 40
1.0
  9
$DIMGAP
 40
1.1999999999999991
  9
$LUNITS
 70
     2
  9
$LUPREC
 70
     4
  9
$SKETCHINC
 40
0.1
  9
$FILLETRAD
 40
0.0
  9
$AUNITS
 70
     0
  9
$AUPREC
 70
     4
  9
$MENU
  1
ACAD
  9
$ELEVATION
 40
0.0
  9
$PELEVATION
 40
0.0
  9
$THICKNESS
 40
0.0
  9
$LIMCHECK
 70
     0
  9
$BLIPMODE
 70
     0
  9
$CHAMFERA
 40
0.0
  9
$CHAMFERB
 40
0.0
  9
$SKPOLY
 70
     0
  9
$TDCREATE
 40
2448055.7149187499
  9
$TDUPDATE
 40
2456598.5602449421
  9
$TDINDWG
 40
3.1847854977000001
  9
$TDUSRTIMER
 40
3.1847854977000001
  9
$USRTIMER
 70
     1
  9
$ANGBASE
 50
0.0
  9
$ANGDIR
 70
     0
  9
$PDMODE
 70
     0
  9
$PDSIZE
 40
0.0
  9
$PLINEWID
 40
0.0
  9
$COORDS
 70
     1
  9
$SPLFRAME
 70
     0
  9
$SPLINETYPE
 70
     6
  9
$SPLINESEGS
 70
     8
  9
$ATTDIA
 70
     0
  9
$ATTREQ
 70
     1
  9
$HANDLING
 70
     1
  9
$HANDSEED
  5
32B9F
  9
$SURFTAB1
 70
     6
  9
$SURFTAB2
 70
     6
  9
$SURFTYPE
 70
     6
  9
$SURFU
 70
     6
  9
$SURFV
 70
     6
  9
$UCSNAME
  2

  9
$UCSORG
 10
0.0
 20
0.0
 30
0.0
  9
$UCSXDIR
 10
1.0
 20
0.0
 30
0.0
  9
$UCSYDIR
 10
0.0
 20
1.0
 30
0.0
  9
$PUCSNAME
  2

  9
$PUCSORG
 10
0.0
 20
0.0
 30
0.0
  9
$PUCSXDIR
 10
1.0
 20
0.0
 30
0.0
  9
$PUCSYDIR
 10
0.0
 20
1.0
 30
0.0
  9
$USERI1
 70
     0
  9
$USERI2
 70
     0
  9
$USERI3
 70
     0
  9
$USERI4
 70
     0
  9
$USERI5
 70
     0
  9
$USERR1
 40
0.0
  9
$USERR2
 40
0.0
  9
$USERR3
 40
0.0
  9
$USERR4
 40
0.0
  9
$USERR5
 40
0.0
  9
$WORLDVIEW
 70
     1
  9
$SHADEDGE
 70
     3
  9
$SHADEDIF
 70
    70
  9
$TILEMODE
 70
     1
  9
$MAXACTVP
 70
    16
  9
$PLIMCHECK
 70
     0
  9
$PEXTMIN
 10
1.0000000000000000E+020
 20
1.0000000000000000E+020
 30
1.0000000000000000E+020
  9
$PEXTMAX
 10
-1.0000000000000000E+020
 20
-1.0000000000000000E+020
 30
-1.0000000000000000E+020
  9
$PLIMMIN
 10
0.0
 20
0.0
  9
$PLIMMAX
 10
12.0
 20
9.0
  9
$UNITMODE
 70
     0
  9
$VISRETAIN
 70
     0
  9
$PLINEGEN
 70
     1
  9
$PSLTSCALE
 70
     0
  0
ENDSEC
  0
SECTION
  2
TABLES
  0
TABLE
  2
VPORT
 70
     1
  0
VPORT
  2
*ACTIVE
 70
     0
 10
0.0
 20
0.0
 11
1.0
 21
1.0
 12
522.49085828033822
 22
378.71011811943828
 13
0.0
 23
0.0
 14
5.0
 24
5.0
 15
10.0
 25
10.0
 16
0.0
 26
0.0
 36
1.0
 17
0.0
 27
0.0
 37
0.0
 40
770.23038982532853
 41
1.831871345029239
 42
50.0
 43
0.0
 44
0.0
 50
0.0
 51
0.0
 71
     0
 72
   500
 73
     1
 74
     1
 75
     0
 76
     0
 77
     0
 78
     2
  0
ENDTAB
  0
TABLE
  2
LTYPE
 70
     3
  0
LTYPE
  2
CONTINUOUS
 70
     0
  3
実線
 72
    65
 73
     0
 40
0.0
  0
LTYPE
  2
CENTER
 70
     0
  3
____ _ ____ _ ____ _ ____ _ ____ _ ____ _ ____
 72
    65
 73
     4
 40
2.0
 49
1.25
 49
-0.25
 49
0.25
 49
-0.25
  0
LTYPE
  2
PHANTOM2
 70
     0
  3
___ _ _ ___ _ _ ___ _ _ ___ _ _
 72
    65
 73
     6
 40
1.25
 49
0.625
 49
-0.125
 49
0.125
 49
-0.125
 49
0.125
 49
-0.125
  0
ENDTAB
  0
TABLE
  2
LAYER
 70
     4
  0
LAYER
  2
0
 70
     0
 62
     7
  6
CONTINUOUS
  0
LAYER
  2
1
 70
     0
 62
     1
  6
CENTER
  0
LAYER
  2
DEFPOINTS
 70
     0
 62
     7
  6
CONTINUOUS
  0
LAYER
  2
3
 70
     0
 62
     3
  6
CONTINUOUS
  0
ENDTAB
  0
TABLE
  2
STYLE
 70
     3
  0
STYLE
  2
STANDARD
 70
     0
 40
0.0
 41
1.0
 50
0.0
 71
     0
 42
5.0
  3
simplex.shx
  4
bigfont.shx
  0
STYLE
  2
07500
 70
     0
 40
0.0
 41
0.75
 50
0.0
 71
     0
 42
0.2
  3
simplex.shx
  4
bigfont.shx
  0
STYLE
  2
STANDARD1
 70
     0
 40
0.0
 41
1.0
 50
0.0
 71
     0
 42
3.0
  3
txt
  4

  0
ENDTAB
  0
TABLE
  2
VIEW
 70
     2
  0
VIEW
  2
ALL
 70
     0
 40
270.0
 10
220.99159663865549
 20
135.0
 41
0.0
 11
0.0
 21
0.0
 31
1.0
 12
0.0
 22
0.0
 32
0.0
 42
0.0
 43
0.0
 44
0.0
 50
0.0
 71
     0
  0
VIEW
  2
OLE1
 70
     0
 40
168.2487151179721
 10
2892.3009567448912
 20
702.51600084347126
 41
162.5749581879237
 11
0.0
 21
0.0
 31
1.0
 12
0.0
 22
0.0
 32
0.0
 42
50.0
 43
0.0
 44
0.0
 50
0.0
 71
     0
  0
ENDTAB
  0
TABLE
  2
UCS
 70
     0
  0
ENDTAB
  0
TABLE
  2
APPID
 70
    48
  0
APPID
  2
ACAD
 70
     0
  0
APPID
  2
DCO15
 70
     0
  0
APPID
  2
GENIUS_GENOREF_13
 70
     0
  0
APPID
  2
GENIUS_GENOENT_13
 70
     0
  0
APPID
  2
GENIUS_GENBH_13
 70
     0
  0
APPID
  2
GENIUS_GENOBJ_13
 70
     0
  0
APPID
  2
GENIUS_GENODEF_13
 70
     0
  0
APPID
  2
GENIUS_GENOLIS_13
 70
     0
  0
APPID
  2
GENIUS_GENOBJ-NBEHI-BHF_13
 70
     0
  0
APPID
  2
GENIUS_GENOBJ-NBEHI-BHB_13
 70
     0
  0
APPID
  2
GENIUS_GENOBJ-F-PART_13
 70
     0
  0
APPID
  2
GENIUS_GEFSTDP_13
 70
     0
  0
APPID
  2
GENIUS_GENOBJ-N-RSSYM_13
 70
     0
  0
APPID
  2
GENIUS_GENSYMENT_13
 70
     0
  0
APPID
  2
GENIUS_GENOBJ-N-TIT_13
 70
     0
  0
APPID
  2
GENIUS_GENTITLE_13
 70
     0
  0
APPID
  2
GENIUS_GENZVEED_13
 70
     0
  0
APPID
  2
GENIUS_GENOBJ-N-LEADER_13
 70
     0
  0
APPID
  2
GENIUS_GENOBJ-N-FIL_13
 70
     0
  0
APPID
  2
GENIUS_GENOBJ-N-SEC_13
 70
     0
  0
APPID
  2
GENIUS_GENOBJ-N-CRS_13
 70
     0
  0
APPID
  2
GENIUS_GENOBJ-N-ZOO_13
 70
     0
  0
APPID
  2
GENIUS_GENZOO_13
 70
     0
  0
APPID
  2
GENIUS_GENOBJ-F-TOL_13
 70
     0
  0
APPID
  2
GENIUS_GENFIL_13
 70
     0
  0
APPID
  2
GENIUS_GENOBJ-N-CHA_13
 70
     0
  0
APPID
  2
_CALL_MAC$
 70
     0
  0
APPID
  2
ASM_BASE
 70
     0
  0
APPID
  2
ASM_EXPLO_VER_2_00
 70
     0
  0
APPID
  2
ASM_CADM_VER_12_00
 70
     0
  0
APPID
  2
ASM_BASEFORO
 70
     0
  0
APPID
  2
ASM_BASETRAVI
 70
     0
  0
APPID
  2
ASM_BASETRAVI1
 70
     0
  0
APPID
  2
ASM_GRUPPI
 70
     0
  0
APPID
  2
ASM_CADM_ALBERO
 70
     0
  0
APPID
  2
ASM_GOLE
 70
     0
  0
APPID
  2
ACAD_MLEADERVER
 70
     0
  0
APPID
  2
ACAD_DSTYLE_DIMJAG
 70
     0
  0
APPID
  2
ACAD_DSTYLE_DIMTALN
 70
     0
  0
APPID
  2
ACAD_EXEMPT_FROM_CAD_STANDARDS
 70
     0
  0
APPID
  2
ACAD_DSTYLE_DIMRADIAL_EXTENSION
 70
     0
  0
APPID
  2
ACAD_PSEXT
 70
     0
  0
APPID
  2
ACAD_DSTYLE_DIMBREAK
 70
     0
  0
APPID
  2
ACAECLAYERSTANDARD
 70
     0
  0
APPID
  2
ACCMTRANSPARENCY
 70
     0
  0
APPID
  2
GRADIENTCOLOR1ACI
 70
     0
  0
APPID
  2
GRADIENTCOLOR2ACI
 70
     0
  0
APPID
  2
ACAD_NAV_VCDISPLAY
 70
     0
  0
ENDTAB
  0
TABLE
  2
DIMSTYLE
 70
     1
  0
DIMSTYLE
  2
STANDARD
 70
     0
  3

  4

  5

  6

  7

 40
1.0
 41
0.18
 42
0.0625
 43
0.38
 44
0.18
 45
0.0
 46
0.0
 47
0.0
 48
0.0
140
0.18
141
0.09
142
0.0
143
25.399999999999999
144
1.0
145
0.0
146
1.0
147
0.09
 71
     0
 72
     0
 73
     1
 74
     1
 75
     0
 76
     0
 77
     0
 78
     0
170
     0
171
     2
172
     0
173
     0
174
     0
175
     0
176
     0
177
     0
178
     0
  0
ENDTAB
  0
ENDSEC
  0
SECTION
  2
BLOCKS
  0
BLOCK
  8
0
  2
$MODEL_SPACE
 70
     0
 10
0.0
 20
0.0
 30
0.0
  3
$MODEL_SPACE
  1

  0
ENDBLK
  5
36
  8
0
  0
BLOCK
 67
     1
  8
0
  2
$PAPER_SPACE
 70
     0
 10
0.0
 20
0.0
 30
0.0
  3
$PAPER_SPACE
  1

  0
ENDBLK
  5
34
 67
     1
  8
0
  0
ENDSEC
  0
SECTION
  2
ENTITIES
  0
LINE
  5
32226
  8
0
 10
536.92039153385406
 20
470.1158600844737
 30
0.0
 11
536.92039153385406
 21
460.11585472005572
 31
0.0
  0
LINE
  5
32227
  8
0
 10
638.92039148914876
 20
460.11585472005572
 30
0.0
 11
638.92039148914876
 21
470.1158600844737
 31
0.0
  0
LINE
  5
32228
  8
0
 10
537.39647432077174
 20
479.91584716218682
 30
0.0
 11
539.12448002803569
 21
470.1158600844737
 31
0.0
  0
LINE
  5
32229
  8
0
 10
636.71630858290439
 20
470.1158600844737
 30
0.0
 11
638.44430683958603
 21
479.91584716218682
 31
0.0
  0
LINE
  5
3222A
  8
0
 10
657.92039274084823
 20
479.91584716218682
 30
0.0
 11
657.92039274084823
 21
485.9158593215343
 31
0.0
  0
LINE
  5
3222F
  8
0
 10
517.92039214479985
 20
479.91584716218682
 30
0.0
 11
517.92039214479985
 21
485.9158593215343
 31
0.0
  0
LINE
  5
32230
  8
0
 10
517.92039214479985
 20
485.9158593215343
 30
0.0
 11
657.92039274084823
 21
485.9158593215343
 31
0.0
  0
LINE
  5
32231
  8
0
 10
517.92039214479985
 20
479.91584716218682
 30
0.0
 11
657.92039274084823
 21
479.91584716218682
 31
0.0
  0
LINE
  5
32234
  8
0
 10
628.02961706030442
 20
448.69545576947888
 30
0.0
 11
628.02961706030442
 21
444.2039030589458
 31
0.0
  0
POLYLINE
  5
32235
  8
0
 66
     1
 10
0.0
 20
0.0
 30
0.0
 70
   128
  0
VERTEX
  5
325A8
  8
0
 10
628.02961706030442
 20
444.2039030589458
 30
0.0
  0
VERTEX
  5
325A9
  8
0
 10
626.19266896355396
 20
441.52002511399951
 30
0.0
  0
VERTEX
  5
325AA
  8
0
 10
624.23432110655563
 20
438.65879354852399
 30
0.0
  0
VERTEX
  5
325AB
  8
0
 10
622.16079472410752
 20
435.62926826852532
 30
0.0
  0
VERTEX
  5
325AC
  8
0
 10
619.97866122830158
 20
432.4410679735538
 30
0.0
  0
VERTEX
  5
325AD
  8
0
 10
617.694849659086
 20
429.10430310147967
 30
0.0
  0
VERTEX
  5
325AE
  8
0
 10
615.31659453022735
 20
425.62956092733111
 30
0.0
  0
VERTEX
  5
325AF
  8
0
 10
612.85144327986313
 20
422.02786085981103
 30
0.0
  0
VERTEX
  5
325B0
  8
0
 10
610.30721901762558
 20
418.31062463897428
 30
0.0
  0
VERTEX
  5
325B1
  8
0
 10
607.69198327172046
 20
414.48963908332553
 30
0.0
  0
VERTEX
  5
325B2
  8
0
 10
605.01404343951003
 20
410.5770337380763
 30
0.0
  0
VERTEX
  5
325B3
  8
0
 10
602.28187828171497
 20
406.58520636934009
 30
0.0
  0
VERTEX
  5
325B4
  8
0
 10
599.50416027415054
 20
402.52683041471209
 30
0.0
  0
VERTEX
  5
325B5
  8
0
 10
596.68970345366245
 20
398.41477302688332
 30
0.0
  0
VERTEX
  5
325B6
  8
0
 10
593.84743361580445
 20
394.26207644718852
 30
0.0
  0
VERTEX
  5
325B7
  8
0
 10
590.98636596310394
 20
390.08191330212321
 30
0.0
  0
VERTEX
  5
325B8
  8
0
 10
588.11556785214202
 20
385.88754189985963
 30
0.0
  0
VERTEX
  5
325B9
  8
0
 10
585.24415134299045
 20
381.6922652520534
 30
0.0
  0
VERTEX
  5
325BA
  8
0
 10
582.38122849571948
 20
377.50939009565082
 30
0.0
  0
VERTEX
  5
325BB
  8
0
 10
579.53587039220577
 20
373.35218591469493
 30
0.0
  0
VERTEX
  5
325BC
  8
0
 10
576.71710713613277
 20
369.233836511552
 30
0.0
  0
VERTEX
  5
325BD
  8
0
 10
573.9338794242168
 20
365.16740647929868
 30
0.0
  0
VERTEX
  5
325BE
  8
0
 10
571.19501246917321
 20
361.1657909103032
 30
0.0
  0
VERTEX
  5
325BF
  8
0
 10
568.50919737327354
 20
357.24168373125758
 30
0.0
  0
VERTEX
  5
325C0
  8
0
 10
565.88495015013473
 20
353.40753299969401
 30
0.0
  0
VERTEX
  5
325C1
  8
0
 10
563.33059682357555
 20
349.67549806314668
 30
0.0
  0
VERTEX
  5
325C2
  8
0
 10
560.85423617470508
 20
346.05741696286168
 30
0.0
  0
VERTEX
  5
325C3
  8
0
 10
558.46372484076267
 20
342.56476498994198
 30
0.0
  0
VERTEX
  5
325C4
  8
0
 10
556.16664751279598
 20
339.20862069207402
 30
0.0
  0
VERTEX
  5
325C5
  8
0
 10
553.97028340804832
 20
335.99962921725268
 30
0.0
  0
VERTEX
  5
325C6
  8
0
 10
551.88160626995807
 20
332.94796882982519
 30
0.0
  0
VERTEX
  5
325C7
  8
0
 10
549.90723593938606
 20
330.06331892538037
 30
0.0
  0
SEQEND
  5
325C8
  8
0
  0
LINE
  5
32236
  8
0
 10
549.90723593938606
 20
460.11585472005572
 30
0.0
 11
549.90723593938606
 21
330.06331892538037
 31
0.0
  0
POLYLINE
  5
32237
  8
0
 66
     1
 10
0.0
 20
0.0
 30
0.0
 70
   128
  0
VERTEX
  5
325C9
  8
0
 10
638.92039148914876
 20
460.11585472005572
 30
0.0
  0
VERTEX
  5
325CA
  8
0
 10
638.83666931498306
 20
459.99353108781543
 30
0.0
  0
VERTEX
  5
325CB
  8
0
 10
638.58578591454102
 20
459.62697742360803
 30
0.0
  0
VERTEX
  5
325CC
  8
0
 10
638.16856085169388
 20
459.0173858203288
 30
0.0
  0
VERTEX
  5
325CD
  8
0
 10
637.58635758269077
 20
458.1667679347392
 30
0.0
  0
VERTEX
  5
325CE
  8
0
 10
636.84109835732227
 20
457.07790283340182
 30
0.0
  0
VERTEX
  5
325CF
  8
0
 10
635.93521951544528
 20
455.75437424558368
 30
0.0
  0
VERTEX
  5
325D0
  8
0
 10
634.87170873987748
 20
454.20053331035342
 30
0.0
  0
VERTEX
  5
325D1
  8
0
 10
633.65404545176284
 20
452.4214687742587
 30
0.0
  0
VERTEX
  5
325D2
  8
0
 10
632.28623061287647
 20
450.42302189248772
 30
0.0
  0
VERTEX
  5
325D3
  8
0
 10
630.77275692332034
 20
448.21177152770719
 30
0.0
  0
SEQEND
  5
325D4
  8
0
  0
LINE
  5
32238
  8
0
 10
536.92039153385406
 20
470.1158600844737
 30
0.0
 11
638.92039148914876
 21
470.1158600844737
 31
0.0
  0
ARC
  5
3223A
  8
0
 10
499.42039214480178
 20
331.91585336107028
 30
0.0
 40
10.000000000000281
 50
162.57520180765431
 51
270.0
  0
LINE
  5
3223B
  8
0
 10
527.92039192128254
 20
456.11585406440457
 30
0.0
 11
489.87928456473418
 21
334.91039110667219
 31
0.0
  0
LINE
  5
3223C
  8
0
 10
549.90723593938606
 20
460.11585472005572
 30
0.0
 11
527.92039192128254
 21
460.11585472005572
 31
0.0
  0
ARC
  5
3223D
  8
0
 10
536.42039214479985
 20
336.91585336106982
 30
0.0
 40
15.0
 50
270.0
 51
325.61070110019159
  0
LINE
  5
3223E
  8
0
 10
499.42039190638138
 20
321.91585292893609
 30
0.0
 11
536.42039238322025
 21
321.91585292893609
 31
0.0
  0
LINE
  5
3223F
  8
0
 10
527.92039192128254
 20
460.11585472005572
 30
0.0
 11
527.92039192128254
 21
456.11585406440457
 31
0.0
  0
LINE
  5
32240
  8
0
 10
548.79867709088569
 20
328.44366002681818
 30
0.0
 11
549.90723593938606
 21
330.06331892538037
 31
0.0
  0
LINE
  5
32241
  8
0
 10
663.24056922304885
 20
415.07030008214679
 30
0.0
 11
705.26442169058384
 21
423.04863510507312
 31
0.0
  0
LINE
  5
32242
  8
0
 10
614.02857540953414
 20
423.74770073074069
 30
0.0
 11
663.24056922304885
 21
415.07030008214679
 31
0.0
  0
LINE
  5
32243
  8
0
 10
705.26442169058384
 20
423.04863510507312
 30
0.0
 11
707.32137798178269
 21
434.71418050903048
 31
0.0
  0
LINE
  5
32244
  8
0
 10
707.32137798178269
 20
434.71418050903048
 30
0.0
 11
628.02961706030442
 21
448.69545576947888
 31
0.0
  0
LINE
  5
32245
  8
0
 10
668.34724186766221
 20
388.49766282218661
 30
0.0
 11
673.16814004290165
 21
394.2429955102798
 31
0.0
  0
LINE
  5
32246
  8
0
 10
614.84058438647037
 20
423.6045229234096
 30
0.0
 11
659.69610451567416
 21
385.96626845973702
 31
0.0
  0
LINE
  5
32247
  8
0
 10
644.38481866228835
 20
418.39507697004052
 30
0.0
 11
673.16814004290165
 21
394.2429955102798
 31
0.0
  0
LINE
  5
32248
  8
0
 10
668.34724186766221
 20
388.49766282218661
 30
0.0
 11
659.69610451567416
 21
385.96626845973702
 31
0.0
  0
LINE
  5
32249
  8
0
 10
717.16945110666825
 20
432.97769604104718
 30
0.0
 11
716.83424948561265
 21
435.83155898231229
 31
0.0
  0
LINE
  5
3224A
  8
0
 10
706.80043338644577
 20
431.7597570814487
 30
0.0
 11
717.16945110666825
 21
432.97769604104718
 31
0.0
  0
LINE
  5
3224B
  8
0
 10
716.83424948561265
 20
435.83155898231229
 30
0.0
 11
707.32137798178269
 21
434.71418050903048
 31
0.0
  0
CIRCLE
  5
3224C
  8
0
 10
517.92039214479985
 20
335.91585336106982
 30
0.0
 40
8.9999999999999147
  0
LINE
  5
3224D
  8
0
 10
512.43556481632845
 20
326.41585366654363
 30
0.0
 11
523.40521947327329
 21
326.41585366654363
 31
0.0
  0
LINE
  5
32250
  8
0
 10
523.40521947327329
 20
345.41585305559602
 30
0.0
 11
512.43556481632845
 21
345.41585305559602
 31
0.0
  0
LINE
  5
322A0
  8
0
 10
136.90188247998799
 20
470.1158615745897
 30
0.0
 11
136.90188247998799
 21
385.6023835934991
 31
0.0
  0
LINE
  5
322A1
  8
0
 10
238.90188057263941
 20
385.6023835934991
 30
0.0
 11
238.90188057263941
 21
470.1158615745897
 31
0.0
  0
LINE
  5
322A2
  8
0
 10
137.3779634042605
 20
479.91584865230271
 30
0.0
 11
139.1059691115245
 21
470.1158615745897
 31
0.0
  0
LINE
  5
322A3
  8
0
 10
236.6977939411029
 20
470.1158615745897
 30
0.0
 11
238.42579964836679
 21
479.91584865230271
 31
0.0
  0
LINE
  5
322A4
  8
0
 10
159.40188151141251
 20
433.91585228818599
 30
0.0
 11
163.1507063313349
 21
433.91585228818599
 31
0.0
  0
LINE
  5
322A5
  8
0
 10
212.65305672129239
 20
433.91585228818599
 30
0.0
 11
216.40188154121481
 21
433.91585228818599
 31
0.0
  0
LINE
  5
322A6
  8
0
 10
216.40188154121481
 20
441.91585359948817
 30
0.0
 11
159.40188151141251
 21
441.91585359948817
 31
0.0
  0
LINE
  5
322A7
  8
0
 10
159.40188151141251
 20
422.91585234779069
 30
0.0
 11
162.90188115378459
 21
422.91585234779069
 31
0.0
  0
LINE
  5
322A8
  8
0
 10
162.90188115378459
 20
428.91585705655763
 30
0.0
 11
159.40188151141251
 21
428.91585705655763
 31
0.0
  0
LINE
  5
322A9
  8
0
 10
212.9018818988427
 20
422.91585234779069
 30
0.0
 11
216.40188154121481
 21
422.91585234779069
 31
0.0
  0
LINE
  5
322AA
  8
0
 10
216.40188154121481
 20
428.91585705655763
 30
0.0
 11
212.9018818988427
 21
428.91585705655763
 31
0.0
  0
LINE
  5
322AB
  8
0
 10
162.90188115378641
 20
350.91585451590959
 30
0.0
 11
157.90188219686769
 21
350.91585451590959
 31
0.0
  0
LINE
  5
322AC
  8
0
 10
157.90188219686769
 20
320.9158551864619
 30
0.0
 11
162.90188115378641
 21
320.9158551864619
 31
0.0
  0
LINE
  5
322AD
  8
0
 10
217.90188085576321
 20
350.91585451590959
 30
0.0
 11
212.90188189884449
 21
350.91585451590959
 31
0.0
  0
LINE
  5
322AE
  8
0
 10
212.90188189884449
 20
320.9158551864619
 30
0.0
 11
217.90188085576321
 21
320.9158551864619
 31
0.0
  0
LINE
  5
322AF
  8
0
 10
144.0358543797376
 20
345.41585454571191
 30
0.0
 11
143.90188176473399
 21
344.91585446375558
 31
0.0
  0
LINE
  5
322B0
  8
0
 10
143.90188176473399
 20
326.9158552386159
 30
0.0
 11
144.0358543797376
 21
326.41585515665957
 31
0.0
  0
LINE
  5
322B1
  8
0
 10
153.76790706356789
 20
326.41585515665957
 30
0.0
 11
153.9018796785715
 21
326.9158552386159
 31
0.0
  0
LINE
  5
322B2
  8
0
 10
153.9018796785715
 20
344.91585446375558
 30
0.0
 11
153.76790706356789
 21
345.41585454571191
 31
0.0
  0
LINE
  5
322B3
  8
0
 10
229.26790733178879
 20
326.41585515665957
 30
0.0
 11
229.40187994679241
 21
326.9158552386159
 31
0.0
  0
LINE
  5
322B4
  8
0
 10
229.40187994679241
 20
344.91585446375558
 30
0.0
 11
229.26790733178879
 21
345.41585454571191
 31
0.0
  0
ARC
  5
322B7
  8
0
 10
165.979134032503
 20
432.91585485118662
 30
0.0
 40
2.999999999999118
 50
90.0
 51
176.00000000002601
  0
ARC
  5
322B8
  8
0
 10
165.979134032503
 20
238.91585485118441
 30
0.0
 40
2.9999999999989981
 50
183.99999999997391
 51
270.0
  0
LINE
  5
322B9
  8
0
 10
209.82462819954191
 20
435.91585634130189
 30
0.0
 11
165.97913485308911
 21
435.91585634130189
 31
0.0
  0
LINE
  5
322BA
  8
0
 10
165.97913485308911
 20
235.91585336106971
 30
0.0
 11
209.82462819954191
 21
235.91585336106971
 31
0.0
  0
ARC
  5
322BB
  8
0
 10
209.82462902012799
 20
432.91585485118662
 30
0.0
 40
2.999999999999118
 50
3.999999999973896
 51
90.000000000006509
  0
ARC
  5
322BC
  8
0
 10
209.82462902012799
 20
238.91585485118441
 30
0.0
 40
2.9999999999989981
 50
269.99999999998698
 51
356.00000000002598
  0
LINE
  5
322BD
  8
0
 10
162.98644151827119
 20
433.12512216943452
 30
0.0
 11
162.90188115378641
 21
431.9158556856508
 31
0.0
  0
LINE
  5
322BE
  8
0
 10
162.90188115378641
 20
239.9158540167208
 30
0.0
 11
162.98644151827119
 21
238.70658753293699
 31
0.0
  0
LINE
  5
322BF
  8
0
 10
212.81732153435971
 20
238.70658753293699
 30
0.0
 11
212.90188189884449
 21
239.9158540167208
 31
0.0
  0
LINE
  5
322C0
  8
0
 10
212.90188189884449
 20
431.9158556856508
 30
0.0
 11
212.81732153435971
 21
433.12512216943452
 31
0.0
  0
LINE
  5
322C2
  8
0
 10
157.90188219686769
 20
334.9103925967882
 30
0.0
 11
153.9018796785715
 21
334.9103925967882
 31
0.0
  0
LINE
  5
322C4
  8
0
 10
157.90188219686769
 20
321.9158544190521
 30
0.0
 11
153.9018796785715
 21
321.9158544190521
 31
0.0
  0
LINE
  5
322C5
  8
0
 10
221.90188337405951
 20
334.9103925967882
 30
0.0
 11
217.90188085576321
 21
334.9103925967882
 31
0.0
  0
LINE
  5
322C7
  8
0
 10
221.90188337405951
 20
321.9158544190521
 30
0.0
 11
217.90188085576321
 21
321.9158544190521
 31
0.0
  0
LINE
  5
322CA
  8
0
 10
157.90188219686769
 20
320.9158551864619
 30
0.0
 11
157.9018821968659
 21
456.11585555452058
 31
0.0
  0
LINE
  5
322CB
  8
0
 10
153.9018796785715
 20
460.11585621017173
 30
0.0
 11
153.9018796785715
 21
321.9158544190521
 31
0.0
  0
LINE
  5
322CD
  8
0
 10
221.90188337405951
 20
460.11585621017173
 30
0.0
 11
221.90188337405951
 21
321.9158544190521
 31
0.0
  0
LINE
  5
322CE
  8
0
 10
217.90188085576321
 20
320.9158551864619
 30
0.0
 11
217.90188085576321
 21
456.11585555452058
 31
0.0
  0
LINE
  5
322D0
  8
0
 10
132.90188182433869
 20
479.91584865230271
 30
0.0
 11
242.9018812282923
 21
479.91584865230271
 31
0.0
  0
LINE
  5
322D1
  8
0
 10
132.90188182433869
 20
479.91584865230271
 30
0.0
 11
132.90188182433869
 21
485.91586081165019
 31
0.0
  0
LINE
  5
322D2
  8
0
 10
132.90188182433869
 20
485.91586081165019
 30
0.0
 11
242.9018812282923
 21
485.91586081165019
 31
0.0
  0
LINE
  5
322D6
  8
0
 10
242.9018812282923
 20
479.91584865230271
 30
0.0
 11
242.9018812282923
 21
485.91586081165019
 31
0.0
  0
LINE
  5
322D9
  8
0
 10
153.9018796785715
 20
456.11585555452058
 30
0.0
 11
221.90188337405951
 21
456.11585555452058
 31
0.0
  0
LINE
  5
322DA
  8
0
 10
221.90188337405951
 20
460.11585621017173
 30
0.0
 11
153.90187967856971
 21
460.11585621017173
 31
0.0
  0
POLYLINE
  5
322DD
  8
0
 10
229.40188152631418
 20
342.29147486763372
 30
0.0
 66
     1
 70
     8
  0
VERTEX
  8
0
  5
32609
 10
229.402
 20
342.291
 30
0.000000
  70
    32
  0
VERTEX
  8
0
  5
3260A
 10
229.545
 20
342.586
 30
0.000000
  70
    32
  0
VERTEX
  8
0
  5
3260B
 10
229.687
 20
342.881
 30
0.000000
  70
    32
  0
VERTEX
  8
0
  5
3260C
 10
229.828
 20
343.177
 30
0.000000
  70
    32
  0
VERTEX
  8
0
  5
3260D
 10
229.969
 20
343.475
 30
0.000000
  70
    32
  0
VERTEX
  8
0
  5
3260E
 10
230.108
 20
343.773
 30
0.000000
  70
    32
  0
VERTEX
  8
0
  5
3260F
 10
230.246
 20
344.072
 30
0.000000
  70
    32
  0
VERTEX
  8
0
  5
32610
 10
230.383
 20
344.373
 30
0.000000
  70
    32
  0
VERTEX
  8
0
  5
32611
 10
230.520
 20
344.674
 30
0.000000
  70
    32
  0
VERTEX
  8
0
  5
32612
 10
230.655
 20
344.976
 30
0.000000
  70
    32
  0
VERTEX
  8
0
  5
32613
 10
230.789
 20
345.279
 30
0.000000
  70
    32
  0
VERTEX
  8
0
  5
32614
 10
230.922
 20
345.583
 30
0.000000
  70
    32
  0
VERTEX
  8
0
  5
32615
 10
231.055
 20
345.889
 30
0.000000
  70
    32
  0
VERTEX
  8
0
  5
32616
 10
231.186
 20
346.194
 30
0.000000
  70
    32
  0
VERTEX
  8
0
  5
32617
 10
231.316
 20
346.501
 30
0.000000
  70
    32
  0
VERTEX
  8
0
  5
32618
 10
231.445
 20
346.809
 30
0.000000
  70
    32
  0
VERTEX
  8
0
  5
32619
 10
231.573
 20
347.118
 30
0.000000
  70
    32
  0
VERTEX
  8
0
  5
3261A
 10
231.700
 20
347.428
 30
0.000000
  70
    32
  0
VERTEX
  8
0
  5
3261B
 10
231.826
 20
347.738
 30
0.000000
  70
    32
  0
VERTEX
  8
0
  5
3261C
 10
231.952
 20
348.050
 30
0.000000
  70
    32
  0
VERTEX
  8
0
  5
3261D
 10
232.076
 20
348.362
 30
0.000000
  70
    32
  0
VERTEX
  8
0
  5
3261E
 10
232.199
 20
348.675
 30
0.000000
  70
    32
  0
VERTEX
  8
0
  5
3261F
 10
232.321
 20
348.989
 30
0.000000
  70
    32
  0
VERTEX
  8
0
  5
32620
 10
232.441
 20
349.304
 30
0.000000
  70
    32
  0
VERTEX
  8
0
  5
32621
 10
232.561
 20
349.620
 30
0.000000
  70
    32
  0
VERTEX
  8
0
  5
32622
 10
232.680
 20
349.936
 30
0.000000
  70
    32
  0
VERTEX
  8
0
  5
32623
 10
232.798
 20
350.254
 30
0.000000
  70
    32
  0
VERTEX
  8
0
  5
32624
 10
232.915
 20
350.572
 30
0.000000
  70
    32
  0
VERTEX
  8
0
  5
32625
 10
233.030
 20
350.891
 30
0.000000
  70
    32
  0
VERTEX
  8
0
  5
32626
 10
233.145
 20
351.211
 30
0.000000
  70
    32
  0
VERTEX
  8
0
  5
32627
 10
233.258
 20
351.532
 30
0.000000
  70
    32
  0
VERTEX
  8
0
  5
32628
 10
233.371
 20
351.853
 30
0.000000
  70
    32
  0
VERTEX
  8
0
  5
32629
 10
233.482
 20
352.176
 30
0.000000
  70
    32
  0
VERTEX
  8
0
  5
3262A
 10
233.593
 20
352.499
 30
0.000000
  70
    32
  0
VERTEX
  8
0
  5
3262B
 10
233.702
 20
352.823
 30
0.000000
  70
    32
  0
VERTEX
  8
0
  5
3262C
 10
233.810
 20
353.147
 30
0.000000
  70
    32
  0
VERTEX
  8
0
  5
3262D
 10
233.917
 20
353.473
 30
0.000000
  70
    32
  0
VERTEX
  8
0
  5
3262E
 10
234.023
 20
353.799
 30
0.000000
  70
    32
  0
VERTEX
  8
0
  5
3262F
 10
234.128
 20
354.126
 30
0.000000
  70
    32
  0
VERTEX
  8
0
  5
32630
 10
234.232
 20
354.453
 30
0.000000
  70
    32
  0
VERTEX
  8
0
  5
32631
 10
234.335
 20
354.782
 30
0.000000
  70
    32
  0
VERTEX
  8
0
  5
32632
 10
234.436
 20
355.111
 30
0.000000
  70
    32
  0
VERTEX
  8
0
  5
32633
 10
234.537
 20
355.441
 30
0.000000
  70
    32
  0
VERTEX
  8
0
  5
32634
 10
234.636
 20
355.771
 30
0.000000
  70
    32
  0
VERTEX
  8
0
  5
32635
 10
234.735
 20
356.102
 30
0.000000
  70
    32
  0
VERTEX
  8
0
  5
32636
 10
234.832
 20
356.434
 30
0.000000
  70
    32
  0
VERTEX
  8
0
  5
32637
 10
234.928
 20
356.767
 30
0.000000
  70
    32
  0
VERTEX
  8
0
  5
32638
 10
235.023
 20
357.100
 30
0.000000
  70
    32
  0
VERTEX
  8
0
  5
32639
 10
235.117
 20
357.434
 30
0.000000
  70
    32
  0
VERTEX
  8
0
  5
3263A
 10
235.210
 20
357.769
 30
0.000000
  70
    32
  0
VERTEX
  8
0
  5
3263B
 10
235.302
 20
358.104
 30
0.000000
  70
    32
  0
VERTEX
  8
0
  5
3263C
 10
235.393
 20
358.440
 30
0.000000
  70
    32
  0
VERTEX
  8
0
  5
3263D
 10
235.482
 20
358.777
 30
0.000000
  70
    32
  0
VERTEX
  8
0
  5
3263E
 10
235.571
 20
359.114
 30
0.000000
  70
    32
  0
VERTEX
  8
0
  5
3263F
 10
235.658
 20
359.452
 30
0.000000
  70
    32
  0
VERTEX
  8
0
  5
32640
 10
235.744
 20
359.790
 30
0.000000
  70
    32
  0
VERTEX
  8
0
  5
32641
 10
235.829
 20
360.129
 30
0.000000
  70
    32
  0
VERTEX
  8
0
  5
32642
 10
235.913
 20
360.469
 30
0.000000
  70
    32
  0
VERTEX
  8
0
  5
32643
 10
235.996
 20
360.809
 30
0.000000
  70
    32
  0
VERTEX
  8
0
  5
32644
 10
236.078
 20
361.150
 30
0.000000
  70
    32
  0
VERTEX
  8
0
  5
32645
 10
236.158
 20
361.491
 30
0.000000
  70
    32
  0
VERTEX
  8
0
  5
32646
 10
236.237
 20
361.833
 30
0.000000
  70
    32
  0
VERTEX
  8
0
  5
32647
 10
236.316
 20
362.175
 30
0.000000
  70
    32
  0
VERTEX
  8
0
  5
32648
 10
236.393
 20
362.518
 30
0.000000
  70
    32
  0
VERTEX
  8
0
  5
32649
 10
236.469
 20
362.862
 30
0.000000
  70
    32
  0
VERTEX
  8
0
  5
3264A
 10
236.544
 20
363.206
 30
0.000000
  70
    32
  0
VERTEX
  8
0
  5
3264B
 10
236.617
 20
363.551
 30
0.000000
  70
    32
  0
VERTEX
  8
0
  5
3264C
 10
236.690
 20
363.896
 30
0.000000
  70
    32
  0
VERTEX
  8
0
  5
3264D
 10
236.761
 20
364.242
 30
0.000000
  70
    32
  0
VERTEX
  8
0
  5
3264E
 10
236.832
 20
364.588
 30
0.000000
  70
    32
  0
VERTEX
  8
0
  5
3264F
 10
236.901
 20
364.934
 30
0.000000
  70
    32
  0
VERTEX
  8
0
  5
32650
 10
236.969
 20
365.282
 30
0.000000
  70
    32
  0
VERTEX
  8
0
  5
32651
 10
237.036
 20
365.629
 30
0.000000
  70
    32
  0
VERTEX
  8
0
  5
32652
 10
237.101
 20
365.977
 30
0.000000
  70
    32
  0
VERTEX
  8
0
  5
32653
 10
237.166
 20
366.326
 30
0.000000
  70
    32
  0
VERTEX
  8
0
  5
32654
 10
237.229
 20
366.675
 30
0.000000
  70
    32
  0
VERTEX
  8
0
  5
32655
 10
237.291
 20
367.024
 30
0.000000
  70
    32
  0
VERTEX
  8
0
  5
32656
 10
237.352
 20
367.374
 30
0.000000
  70
    32
  0
VERTEX
  8
0
  5
32657
 10
237.412
 20
367.725
 30
0.000000
  70
    32
  0
VERTEX
  8
0
  5
32658
 10
237.471
 20
368.075
 30
0.000000
  70
    32
  0
VERTEX
  8
0
  5
32659
 10
237.528
 20
368.427
 30
0.000000
  70
    32
  0
VERTEX
  8
0
  5
3265A
 10
237.585
 20
368.778
 30
0.000000
  70
    32
  0
VERTEX
  8
0
  5
3265B
 10
237.640
 20
369.130
 30
0.000000
  70
    32
  0
VERTEX
  8
0
  5
3265C
 10
237.694
 20
369.482
 30
0.000000
  70
    32
  0
VERTEX
  8
0
  5
3265D
 10
237.747
 20
369.835
 30
0.000000
  70
    32
  0
VERTEX
  8
0
  5
3265E
 10
237.799
 20
370.188
 30
0.000000
  70
    32
  0
VERTEX
  8
0
  5
3265F
 10
237.849
 20
370.542
 30
0.000000
  70
    32
  0
VERTEX
  8
0
  5
32660
 10
237.899
 20
370.895
 30
0.000000
  70
    32
  0
VERTEX
  8
0
  5
32661
 10
237.947
 20
371.250
 30
0.000000
  70
    32
  0
VERTEX
  8
0
  5
32662
 10
237.994
 20
371.604
 30
0.000000
  70
    32
  0
VERTEX
  8
0
  5
32663
 10
238.040
 20
371.959
 30
0.000000
  70
    32
  0
VERTEX
  8
0
  5
32664
 10
238.084
 20
372.314
 30
0.000000
  70
    32
  0
VERTEX
  8
0
  5
32665
 10
238.128
 20
372.669
 30
0.000000
  70
    32
  0
VERTEX
  8
0
  5
32666
 10
238.170
 20
373.025
 30
0.000000
  70
    32
  0
VERTEX
  8
0
  5
32667
 10
238.211
 20
373.381
 30
0.000000
  70
    32
  0
VERTEX
  8
0
  5
32668
 10
238.251
 20
373.738
 30
0.000000
  70
    32
  0
VERTEX
  8
0
  5
32669
 10
238.290
 20
374.094
 30
0.000000
  70
    32
  0
VERTEX
  8
0
  5
3266A
 10
238.328
 20
374.451
 30
0.000000
  70
    32
  0
VERTEX
  8
0
  5
3266B
 10
238.364
 20
374.808
 30
0.000000
  70
    32
  0
VERTEX
  8
0
  5
3266C
 10
238.399
 20
375.166
 30
0.000000
  70
    32
  0
VERTEX
  8
0
  5
3266D
 10
238.433
 20
375.523
 30
0.000000
  70
    32
  0
VERTEX
  8
0
  5
3266E
 10
238.466
 20
375.881
 30
0.000000
  70
    32
  0
VERTEX
  8
0
  5
3266F
 10
238.498
 20
376.239
 30
0.000000
  70
    32
  0
VERTEX
  8
0
  5
32670
 10
238.528
 20
376.598
 30
0.000000
  70
    32
  0
VERTEX
  8
0
  5
32671
 10
238.557
 20
376.956
 30
0.000000
  70
    32
  0
VERTEX
  8
0
  5
32672
 10
238.585
 20
377.315
 30
0.000000
  70
    32
  0
VERTEX
  8
0
  5
32673
 10
238.612
 20
377.674
 30
0.000000
  70
    32
  0
VERTEX
  8
0
  5
32674
 10
238.638
 20
378.033
 30
0.000000
  70
    32
  0
VERTEX
  8
0
  5
32675
 10
238.663
 20
378.392
 30
0.000000
  70
    32
  0
VERTEX
  8
0
  5
32676
 10
238.686
 20
378.752
 30
0.000000
  70
    32
  0
VERTEX
  8
0
  5
32677
 10
238.708
 20
379.111
 30
0.000000
  70
    32
  0
VERTEX
  8
0
  5
32678
 10
238.729
 20
379.471
 30
0.000000
  70
    32
  0
VERTEX
  8
0
  5
32679
 10
238.749
 20
379.831
 30
0.000000
  70
    32
  0
VERTEX
  8
0
  5
3267A
 10
238.767
 20
380.191
 30
0.000000
  70
    32
  0
VERTEX
  8
0
  5
3267B
 10
238.785
 20
380.551
 30
0.000000
  70
    32
  0
VERTEX
  8
0
  5
3267C
 10
238.801
 20
380.911
 30
0.000000
  70
    32
  0
VERTEX
  8
0
  5
3267D
 10
238.816
 20
381.272
 30
0.000000
  70
    32
  0
VERTEX
  8
0
  5
3267E
 10
238.829
 20
381.632
 30
0.000000
  70
    32
  0
VERTEX
  8
0
  5
3267F
 10
238.842
 20
381.993
 30
0.000000
  70
    32
  0
VERTEX
  8
0
  5
32680
 10
238.853
 20
382.354
 30
0.000000
  70
    32
  0
VERTEX
  8
0
  5
32681
 10
238.864
 20
382.714
 30
0.000000
  70
    32
  0
VERTEX
  8
0
  5
32682
 10
238.873
 20
383.075
 30
0.000000
  70
    32
  0
VERTEX
  8
0
  5
32683
 10
238.880
 20
383.436
 30
0.000000
  70
    32
  0
VERTEX
  8
0
  5
32684
 10
238.887
 20
383.797
 30
0.000000
  70
    32
  0
VERTEX
  8
0
  5
32685
 10
238.892
 20
384.158
 30
0.000000
  70
    32
  0
VERTEX
  8
0
  5
32686
 10
238.896
 20
384.519
 30
0.000000
  70
    32
  0
VERTEX
  8
0
  5
32687
 10
238.899
 20
384.880
 30
0.000000
  70
    32
  0
VERTEX
  8
0
  5
32688
 10
238.901
 20
385.241
 30
0.000000
  70
    32
  0
VERTEX
  8
0
  5
32689
 10
238.902
 20
385.602
 30
0.000000
  70
    32
  0
SEQEND
  8
0
  5
3268A
  0
POLYLINE
  5
322DE
  8
0
 10
136.90188152631379
 20
385.60238313407638
 30
0.0
 66
     1
 70
     8
  0
VERTEX
  8
0
  5
3268B
 10
136.902
 20
385.602
 30
0.000000
  70
    32
  0
VERTEX
  8
0
  5
3268C
 10
136.902
 20
385.271
 30
0.000000
  70
    32
  0
VERTEX
  8
0
  5
3268D
 10
136.904
 20
384.939
 30
0.000000
  70
    32
  0
VERTEX
  8
0
  5
3268E
 10
136.906
 20
384.608
 30
0.000000
  70
    32
  0
VERTEX
  8
0
  5
3268F
 10
136.910
 20
384.276
 30
0.000000
  70
    32
  0
VERTEX
  8
0
  5
32690
 10
136.915
 20
383.945
 30
0.000000
  70
    32
  0
VERTEX
  8
0
  5
32691
 10
136.920
 20
383.613
 30
0.000000
  70
    32
  0
VERTEX
  8
0
  5
32692
 10
136.927
 20
383.282
 30
0.000000
  70
    32
  0
VERTEX
  8
0
  5
32693
 10
136.934
 20
382.950
 30
0.000000
  70
    32
  0
VERTEX
  8
0
  5
32694
 10
136.943
 20
382.619
 30
0.000000
  70
    32
  0
VERTEX
  8
0
  5
32695
 10
136.952
 20
382.287
 30
0.000000
  70
    32
  0
VERTEX
  8
0
  5
32696
 10
136.963
 20
381.956
 30
0.000000
  70
    32
  0
VERTEX
  8
0
  5
32697
 10
136.975
 20
381.625
 30
0.000000
  70
    32
  0
VERTEX
  8
0
  5
32698
 10
136.987
 20
381.294
 30
0.000000
  70
    32
  0
VERTEX
  8
0
  5
32699
 10
137.001
 20
380.963
 30
0.000000
  70
    32
  0
VERTEX
  8
0
  5
3269A
 10
137.015
 20
380.632
 30
0.000000
  70
    32
  0
VERTEX
  8
0
  5
3269B
 10
137.031
 20
380.301
 30
0.000000
  70
    32
  0
VERTEX
  8
0
  5
3269C
 10
137.048
 20
379.971
 30
0.000000
  70
    32
  0
VERTEX
  8
0
  5
3269D
 10
137.065
 20
379.640
 30
0.000000
  70
    32
  0
VERTEX
  8
0
  5
3269E
 10
137.084
 20
379.309
 30
0.000000
  70
    32
  0
VERTEX
  8
0
  5
3269F
 10
137.104
 20
378.979
 30
0.000000
  70
    32
  0
VERTEX
  8
0
  5
326A0
 10
137.124
 20
378.649
 30
0.000000
  70
    32
  0
VERTEX
  8
0
  5
326A1
 10
137.146
 20
378.319
 30
0.000000
  70
    32
  0
VERTEX
  8
0
  5
326A2
 10
137.169
 20
377.989
 30
0.000000
  70
    32
  0
VERTEX
  8
0
  5
326A3
 10
137.192
 20
377.659
 30
0.000000
  70
    32
  0
VERTEX
  8
0
  5
326A4
 10
137.217
 20
377.329
 30
0.000000
  70
    32
  0
VERTEX
  8
0
  5
326A5
 10
137.243
 20
377.000
 30
0.000000
  70
    32
  0
VERTEX
  8
0
  5
326A6
 10
137.270
 20
376.671
 30
0.000000
  70
    32
  0
VERTEX
  8
0
  5
326A7
 10
137.297
 20
376.342
 30
0.000000
  70
    32
  0
VERTEX
  8
0
  5
326A8
 10
137.326
 20
376.013
 30
0.000000
  70
    32
  0
VERTEX
  8
0
  5
326A9
 10
137.356
 20
375.684
 30
0.000000
  70
    32
  0
VERTEX
  8
0
  5
326AA
 10
137.386
 20
375.355
 30
0.000000
  70
    32
  0
VERTEX
  8
0
  5
326AB
 10
137.418
 20
375.027
 30
0.000000
  70
    32
  0
VERTEX
  8
0
  5
326AC
 10
137.451
 20
374.699
 30
0.000000
  70
    32
  0
VERTEX
  8
0
  5
326AD
 10
137.485
 20
374.371
 30
0.000000
  70
    32
  0
VERTEX
  8
0
  5
326AE
 10
137.519
 20
374.043
 30
0.000000
  70
    32
  0
VERTEX
  8
0
  5
326AF
 10
137.555
 20
373.716
 30
0.000000
  70
    32
  0
VERTEX
  8
0
  5
326B0
 10
137.592
 20
373.388
 30
0.000000
  70
    32
  0
VERTEX
  8
0
  5
326B1
 10
137.629
 20
373.062
 30
0.000000
  70
    32
  0
VERTEX
  8
0
  5
326B2
 10
137.668
 20
372.735
 30
0.000000
  70
    32
  0
VERTEX
  8
0
  5
326B3
 10
137.708
 20
372.408
 30
0.000000
  70
    32
  0
VERTEX
  8
0
  5
326B4
 10
137.748
 20
372.082
 30
0.000000
  70
    32
  0
VERTEX
  8
0
  5
326B5
 10
137.790
 20
371.756
 30
0.000000
  70
    32
  0
VERTEX
  8
0
  5
326B6
 10
137.833
 20
371.430
 30
0.000000
  70
    32
  0
VERTEX
  8
0
  5
326B7
 10
137.876
 20
371.105
 30
0.000000
  70
    32
  0
VERTEX
  8
0
  5
326B8
 10
137.921
 20
370.780
 30
0.000000
  70
    32
  0
VERTEX
  8
0
  5
326B9
 10
137.967
 20
370.455
 30
0.000000
  70
    32
  0
VERTEX
  8
0
  5
326BA
 10
138.013
 20
370.131
 30
0.000000
  70
    32
  0
VERTEX
  8
0
  5
326BB
 10
138.061
 20
369.806
 30
0.000000
  70
    32
  0
VERTEX
  8
0
  5
326BC
 10
138.110
 20
369.482
 30
0.000000
  70
    32
  0
VERTEX
  8
0
  5
326BD
 10
138.159
 20
369.159
 30
0.000000
  70
    32
  0
VERTEX
  8
0
  5
326BE
 10
138.210
 20
368.836
 30
0.000000
  70
    32
  0
VERTEX
  8
0
  5
326BF
 10
138.261
 20
368.513
 30
0.000000
  70
    32
  0
VERTEX
  8
0
  5
326C0
 10
138.314
 20
368.190
 30
0.000000
  70
    32
  0
VERTEX
  8
0
  5
326C1
 10
138.367
 20
367.868
 30
0.000000
  70
    32
  0
VERTEX
  8
0
  5
326C2
 10
138.422
 20
367.546
 30
0.000000
  70
    32
  0
VERTEX
  8
0
  5
326C3
 10
138.477
 20
367.224
 30
0.000000
  70
    32
  0
VERTEX
  8
0
  5
326C4
 10
138.534
 20
366.903
 30
0.000000
  70
    32
  0
VERTEX
  8
0
  5
326C5
 10
138.591
 20
366.582
 30
0.000000
  70
    32
  0
VERTEX
  8
0
  5
326C6
 10
138.650
 20
366.262
 30
0.000000
  70
    32
  0
VERTEX
  8
0
  5
326C7
 10
138.709
 20
365.942
 30
0.000000
  70
    32
  0
VERTEX
  8
0
  5
326C8
 10
138.770
 20
365.622
 30
0.000000
  70
    32
  0
VERTEX
  8
0
  5
326C9
 10
138.831
 20
365.303
 30
0.000000
  70
    32
  0
VERTEX
  8
0
  5
326CA
 10
138.893
 20
364.984
 30
0.000000
  70
    32
  0
VERTEX
  8
0
  5
326CB
 10
138.956
 20
364.666
 30
0.000000
  70
    32
  0
VERTEX
  8
0
  5
326CC
 10
139.021
 20
364.348
 30
0.000000
  70
    32
  0
VERTEX
  8
0
  5
326CD
 10
139.086
 20
364.030
 30
0.000000
  70
    32
  0
VERTEX
  8
0
  5
326CE
 10
139.152
 20
363.713
 30
0.000000
  70
    32
  0
VERTEX
  8
0
  5
326CF
 10
139.219
 20
363.396
 30
0.000000
  70
    32
  0
VERTEX
  8
0
  5
326D0
 10
139.287
 20
363.080
 30
0.000000
  70
    32
  0
VERTEX
  8
0
  5
326D1
 10
139.357
 20
362.764
 30
0.000000
  70
    32
  0
VERTEX
  8
0
  5
326D2
 10
139.427
 20
362.448
 30
0.000000
  70
    32
  0
VERTEX
  8
0
  5
326D3
 10
139.498
 20
362.134
 30
0.000000
  70
    32
  0
VERTEX
  8
0
  5
326D4
 10
139.570
 20
361.819
 30
0.000000
  70
    32
  0
VERTEX
  8
0
  5
326D5
 10
139.642
 20
361.505
 30
0.000000
  70
    32
  0
VERTEX
  8
0
  5
326D6
 10
139.716
 20
361.191
 30
0.000000
  70
    32
  0
VERTEX
  8
0
  5
326D7
 10
139.791
 20
360.878
 30
0.000000
  70
    32
  0
VERTEX
  8
0
  5
326D8
 10
139.867
 20
360.566
 30
0.000000
  70
    32
  0
VERTEX
  8
0
  5
326D9
 10
139.944
 20
360.254
 30
0.000000
  70
    32
  0
VERTEX
  8
0
  5
326DA
 10
140.021
 20
359.942
 30
0.000000
  70
    32
  0
VERTEX
  8
0
  5
326DB
 10
140.100
 20
359.631
 30
0.000000
  70
    32
  0
VERTEX
  8
0
  5
326DC
 10
140.180
 20
359.321
 30
0.000000
  70
    32
  0
VERTEX
  8
0
  5
326DD
 10
140.260
 20
359.011
 30
0.000000
  70
    32
  0
VERTEX
  8
0
  5
326DE
 10
140.342
 20
358.701
 30
0.000000
  70
    32
  0
VERTEX
  8
0
  5
326DF
 10
140.424
 20
358.392
 30
0.000000
  70
    32
  0
VERTEX
  8
0
  5
326E0
 10
140.507
 20
358.084
 30
0.000000
  70
    32
  0
VERTEX
  8
0
  5
326E1
 10
140.592
 20
357.776
 30
0.000000
  70
    32
  0
VERTEX
  8
0
  5
326E2
 10
140.677
 20
357.468
 30
0.000000
  70
    32
  0
VERTEX
  8
0
  5
326E3
 10
140.763
 20
357.162
 30
0.000000
  70
    32
  0
VERTEX
  8
0
  5
326E4
 10
140.850
 20
356.855
 30
0.000000
  70
    32
  0
VERTEX
  8
0
  5
326E5
 10
140.938
 20
356.550
 30
0.000000
  70
    32
  0
VERTEX
  8
0
  5
326E6
 10
141.027
 20
356.245
 30
0.000000
  70
    32
  0
VERTEX
  8
0
  5
326E7
 10
141.117
 20
355.940
 30
0.000000
  70
    32
  0
VERTEX
  8
0
  5
326E8
 10
141.208
 20
355.636
 30
0.000000
  70
    32
  0
VERTEX
  8
0
  5
326E9
 10
141.299
 20
355.333
 30
0.000000
  70
    32
  0
VERTEX
  8
0
  5
326EA
 10
141.392
 20
355.030
 30
0.000000
  70
    32
  0
VERTEX
  8
0
  5
326EB
 10
141.486
 20
354.728
 30
0.000000
  70
    32
  0
VERTEX
  8
0
  5
326EC
 10
141.580
 20
354.427
 30
0.000000
  70
    32
  0
VERTEX
  8
0
  5
326ED
 10
141.676
 20
354.126
 30
0.000000
  70
    32
  0
VERTEX
  8
0
  5
326EE
 10
141.772
 20
353.826
 30
0.000000
  70
    32
  0
VERTEX
  8
0
  5
326EF
 10
141.869
 20
353.526
 30
0.000000
  70
    32
  0
VERTEX
  8
0
  5
326F0
 10
141.967
 20
353.227
 30
0.000000
  70
    32
  0
VERTEX
  8
0
  5
326F1
 10
142.066
 20
352.929
 30
0.000000
  70
    32
  0
VERTEX
  8
0
  5
326F2
 10
142.166
 20
352.631
 30
0.000000
  70
    32
  0
VERTEX
  8
0
  5
326F3
 10
142.267
 20
352.334
 30
0.000000
  70
    32
  0
VERTEX
  8
0
  5
326F4
 10
142.369
 20
352.038
 30
0.000000
  70
    32
  0
VERTEX
  8
0
  5
326F5
 10
142.472
 20
351.742
 30
0.000000
  70
    32
  0
VERTEX
  8
0
  5
326F6
 10
142.575
 20
351.447
 30
0.000000
  70
    32
  0
VERTEX
  8
0
  5
326F7
 10
142.680
 20
351.152
 30
0.000000
  70
    32
  0
VERTEX
  8
0
  5
326F8
 10
142.785
 20
350.859
 30
0.000000
  70
    32
  0
VERTEX
  8
0
  5
326F9
 10
142.891
 20
350.566
 30
0.000000
  70
    32
  0
VERTEX
  8
0
  5
326FA
 10
142.999
 20
350.273
 30
0.000000
  70
    32
  0
VERTEX
  8
0
  5
326FB
 10
143.107
 20
349.982
 30
0.000000
  70
    32
  0
VERTEX
  8
0
  5
326FC
 10
143.216
 20
349.691
 30
0.000000
  70
    32
  0
VERTEX
  8
0
  5
326FD
 10
143.325
 20
349.401
 30
0.000000
  70
    32
  0
VERTEX
  8
0
  5
326FE
 10
143.436
 20
349.111
 30
0.000000
  70
    32
  0
VERTEX
  8
0
  5
326FF
 10
143.548
 20
348.822
 30
0.000000
  70
    32
  0
VERTEX
  8
0
  5
32700
 10
143.660
 20
348.534
 30
0.000000
  70
    32
  0
VERTEX
  8
0
  5
32701
 10
143.774
 20
348.247
 30
0.000000
  70
    32
  0
VERTEX
  8
0
  5
32702
 10
143.888
 20
347.961
 30
0.000000
  70
    32
  0
VERTEX
  8
0
  5
32703
 10
144.003
 20
347.675
 30
0.000000
  70
    32
  0
VERTEX
  8
0
  5
32704
 10
144.119
 20
347.390
 30
0.000000
  70
    32
  0
VERTEX
  8
0
  5
32705
 10
144.236
 20
347.105
 30
0.000000
  70
    32
  0
VERTEX
  8
0
  5
32706
 10
144.353
 20
346.822
 30
0.000000
  70
    32
  0
VERTEX
  8
0
  5
32707
 10
144.472
 20
346.539
 30
0.000000
  70
    32
  0
VERTEX
  8
0
  5
32708
 10
144.591
 20
346.257
 30
0.000000
  70
    32
  0
VERTEX
  8
0
  5
32709
 10
144.712
 20
345.976
 30
0.000000
  70
    32
  0
VERTEX
  8
0
  5
3270A
 10
144.833
 20
345.695
 30
0.000000
  70
    32
  0
VERTEX
  8
0
  5
3270B
 10
144.955
 20
345.416
 30
0.000000
  70
    32
  0
SEQEND
  8
0
  5
3270C
  0
LINE
  5
322DF
  8
0
 10
136.90188247998799
 20
470.1158615745897
 30
0.0
 11
238.90188057263941
 21
470.1158615745897
 31
0.0
  0
POLYLINE
  5
322E0
  8
0
 10
194.6743879238827
 20
453.55500991535439
 30
0.0
 66
     1
 70
     8
  0
VERTEX
  8
0
  5
3270D
 10
194.674
 20
453.555
 30
0.000000
  70
    32
  0
VERTEX
  8
0
  5
3270E
 10
194.569
 20
453.577
 30
0.000000
  70
    32
  0
VERTEX
  8
0
  5
3270F
 10
194.464
 20
453.599
 30
0.000000
  70
    32
  0
VERTEX
  8
0
  5
32710
 10
194.359
 20
453.621
 30
0.000000
  70
    32
  0
VERTEX
  8
0
  5
32711
 10
194.254
 20
453.642
 30
0.000000
  70
    32
  0
VERTEX
  8
0
  5
32712
 10
194.149
 20
453.662
 30
0.000000
  70
    32
  0
VERTEX
  8
0
  5
32713
 10
194.043
 20
453.683
 30
0.000000
  70
    32
  0
VERTEX
  8
0
  5
32714
 10
193.938
 20
453.703
 30
0.000000
  70
    32
  0
VERTEX
  8
0
  5
32715
 10
193.833
 20
453.723
 30
0.000000
  70
    32
  0
VERTEX
  8
0
  5
32716
 10
193.727
 20
453.742
 30
0.000000
  70
    32
  0
VERTEX
  8
0
  5
32717
 10
193.622
 20
453.761
 30
0.000000
  70
    32
  0
VERTEX
  8
0
  5
32718
 10
193.517
 20
453.780
 30
0.000000
  70
    32
  0
VERTEX
  8
0
  5
32719
 10
193.411
 20
453.798
 30
0.000000
  70
    32
  0
VERTEX
  8
0
  5
3271A
 10
193.306
 20
453.816
 30
0.000000
  70
    32
  0
VERTEX
  8
0
  5
3271B
 10
193.200
 20
453.834
 30
0.000000
  70
    32
  0
VERTEX
  8
0
  5
3271C
 10
193.095
 20
453.851
 30
0.000000
  70
    32
  0
VERTEX
  8
0
  5
3271D
 10
192.989
 20
453.868
 30
0.000000
  70
    32
  0
VERTEX
  8
0
  5
3271E
 10
192.883
 20
453.885
 30
0.000000
  70
    32
  0
VERTEX
  8
0
  5
3271F
 10
192.778
 20
453.901
 30
0.000000
  70
    32
  0
VERTEX
  8
0
  5
32720
 10
192.672
 20
453.917
 30
0.000000
  70
    32
  0
VERTEX
  8
0
  5
32721
 10
192.567
 20
453.933
 30
0.000000
  70
    32
  0
VERTEX
  8
0
  5
32722
 10
192.461
 20
453.948
 30
0.000000
  70
    32
  0
VERTEX
  8
0
  5
32723
 10
192.355
 20
453.963
 30
0.000000
  70
    32
  0
VERTEX
  8
0
  5
32724
 10
192.249
 20
453.977
 30
0.000000
  70
    32
  0
VERTEX
  8
0
  5
32725
 10
192.144
 20
453.991
 30
0.000000
  70
    32
  0
VERTEX
  8
0
  5
32726
 10
192.038
 20
454.005
 30
0.000000
  70
    32
  0
VERTEX
  8
0
  5
32727
 10
191.932
 20
454.019
 30
0.000000
  70
    32
  0
VERTEX
  8
0
  5
32728
 10
191.826
 20
454.032
 30
0.000000
  70
    32
  0
VERTEX
  8
0
  5
32729
 10
191.721
 20
454.045
 30
0.000000
  70
    32
  0
VERTEX
  8
0
  5
3272A
 10
191.615
 20
454.057
 30
0.000000
  70
    32
  0
VERTEX
  8
0
  5
3272B
 10
191.509
 20
454.069
 30
0.000000
  70
    32
  0
VERTEX
  8
0
  5
3272C
 10
191.403
 20
454.081
 30
0.000000
  70
    32
  0
VERTEX
  8
0
  5
3272D
 10
191.297
 20
454.092
 30
0.000000
  70
    32
  0
VERTEX
  8
0
  5
3272E
 10
191.191
 20
454.103
 30
0.000000
  70
    32
  0
VERTEX
  8
0
  5
3272F
 10
191.085
 20
454.114
 30
0.000000
  70
    32
  0
VERTEX
  8
0
  5
32730
 10
190.979
 20
454.124
 30
0.000000
  70
    32
  0
VERTEX
  8
0
  5
32731
 10
190.873
 20
454.134
 30
0.000000
  70
    32
  0
VERTEX
  8
0
  5
32732
 10
190.767
 20
454.144
 30
0.000000
  70
    32
  0
VERTEX
  8
0
  5
32733
 10
190.661
 20
454.153
 30
0.000000
  70
    32
  0
VERTEX
  8
0
  5
32734
 10
190.555
 20
454.162
 30
0.000000
  70
    32
  0
VERTEX
  8
0
  5
32735
 10
190.449
 20
454.171
 30
0.000000
  70
    32
  0
VERTEX
  8
0
  5
32736
 10
190.343
 20
454.179
 30
0.000000
  70
    32
  0
VERTEX
  8
0
  5
32737
 10
190.237
 20
454.187
 30
0.000000
  70
    32
  0
VERTEX
  8
0
  5
32738
 10
190.131
 20
454.194
 30
0.000000
  70
    32
  0
VERTEX
  8
0
  5
32739
 10
190.025
 20
454.202
 30
0.000000
  70
    32
  0
VERTEX
  8
0
  5
3273A
 10
189.919
 20
454.208
 30
0.000000
  70
    32
  0
VERTEX
  8
0
  5
3273B
 10
189.813
 20
454.215
 30
0.000000
  70
    32
  0
VERTEX
  8
0
  5
3273C
 10
189.707
 20
454.221
 30
0.000000
  70
    32
  0
VERTEX
  8
0
  5
3273D
 10
189.601
 20
454.227
 30
0.000000
  70
    32
  0
VERTEX
  8
0
  5
3273E
 10
189.494
 20
454.232
 30
0.000000
  70
    32
  0
VERTEX
  8
0
  5
3273F
 10
189.388
 20
454.237
 30
0.000000
  70
    32
  0
VERTEX
  8
0
  5
32740
 10
189.282
 20
454.242
 30
0.000000
  70
    32
  0
VERTEX
  8
0
  5
32741
 10
189.176
 20
454.246
 30
0.000000
  70
    32
  0
VERTEX
  8
0
  5
32742
 10
189.070
 20
454.250
 30
0.000000
  70
    32
  0
VERTEX
  8
0
  5
32743
 10
188.964
 20
454.254
 30
0.000000
  70
    32
  0
VERTEX
  8
0
  5
32744
 10
188.858
 20
454.257
 30
0.000000
  70
    32
  0
VERTEX
  8
0
  5
32745
 10
188.751
 20
454.260
 30
0.000000
  70
    32
  0
VERTEX
  8
0
  5
32746
 10
188.645
 20
454.263
 30
0.000000
  70
    32
  0
VERTEX
  8
0
  5
32747
 10
188.539
 20
454.265
 30
0.000000
  70
    32
  0
VERTEX
  8
0
  5
32748
 10
188.433
 20
454.267
 30
0.000000
  70
    32
  0
VERTEX
  8
0
  5
32749
 10
188.327
 20
454.269
 30
0.000000
  70
    32
  0
VERTEX
  8
0
  5
3274A
 10
188.220
 20
454.270
 30
0.000000
  70
    32
  0
VERTEX
  8
0
  5
3274B
 10
188.114
 20
454.271
 30
0.000000
  70
    32
  0
VERTEX
  8
0
  5
3274C
 10
188.008
 20
454.271
 30
0.000000
  70
    32
  0
VERTEX
  8
0
  5
3274D
 10
187.902
 20
454.272
 30
0.000000
  70
    32
  0
VERTEX
  8
0
  5
3274E
 10
187.796
 20
454.271
 30
0.000000
  70
    32
  0
VERTEX
  8
0
  5
3274F
 10
187.690
 20
454.271
 30
0.000000
  70
    32
  0
VERTEX
  8
0
  5
32750
 10
187.583
 20
454.270
 30
0.000000
  70
    32
  0
VERTEX
  8
0
  5
32751
 10
187.477
 20
454.269
 30
0.000000
  70
    32
  0
VERTEX
  8
0
  5
32752
 10
187.371
 20
454.267
 30
0.000000
  70
    32
  0
VERTEX
  8
0
  5
32753
 10
187.265
 20
454.265
 30
0.000000
  70
    32
  0
VERTEX
  8
0
  5
32754
 10
187.159
 20
454.263
 30
0.000000
  70
    32
  0
VERTEX
  8
0
  5
32755
 10
187.052
 20
454.260
 30
0.000000
  70
    32
  0
VERTEX
  8
0
  5
32756
 10
186.946
 20
454.257
 30
0.000000
  70
    32
  0
VERTEX
  8
0
  5
32757
 10
186.840
 20
454.254
 30
0.000000
  70
    32
  0
VERTEX
  8
0
  5
32758
 10
186.734
 20
454.250
 30
0.000000
  70
    32
  0
VERTEX
  8
0
  5
32759
 10
186.628
 20
454.246
 30
0.000000
  70
    32
  0
VERTEX
  8
0
  5
3275A
 10
186.522
 20
454.242
 30
0.000000
  70
    32
  0
VERTEX
  8
0
  5
3275B
 10
186.415
 20
454.237
 30
0.000000
  70
    32
  0
VERTEX
  8
0
  5
3275C
 10
186.309
 20
454.232
 30
0.000000
  70
    32
  0
VERTEX
  8
0
  5
3275D
 10
186.203
 20
454.227
 30
0.000000
  70
    32
  0
VERTEX
  8
0
  5
3275E
 10
186.097
 20
454.221
 30
0.000000
  70
    32
  0
VERTEX
  8
0
  5
3275F
 10
185.991
 20
454.215
 30
0.000000
  70
    32
  0
VERTEX
  8
0
  5
32760
 10
185.885
 20
454.208
 30
0.000000
  70
    32
  0
VERTEX
  8
0
  5
32761
 10
185.779
 20
454.202
 30
0.000000
  70
    32
  0
VERTEX
  8
0
  5
32762
 10
185.673
 20
454.194
 30
0.000000
  70
    32
  0
VERTEX
  8
0
  5
32763
 10
185.567
 20
454.187
 30
0.000000
  70
    32
  0
VERTEX
  8
0
  5
32764
 10
185.461
 20
454.179
 30
0.000000
  70
    32
  0
VERTEX
  8
0
  5
32765
 10
185.355
 20
454.171
 30
0.000000
  70
    32
  0
VERTEX
  8
0
  5
32766
 10
185.249
 20
454.162
 30
0.000000
  70
    32
  0
VERTEX
  8
0
  5
32767
 10
185.143
 20
454.153
 30
0.000000
  70
    32
  0
VERTEX
  8
0
  5
32768
 10
185.037
 20
454.144
 30
0.000000
  70
    32
  0
VERTEX
  8
0
  5
32769
 10
184.931
 20
454.134
 30
0.000000
  70
    32
  0
VERTEX
  8
0
  5
3276A
 10
184.825
 20
454.124
 30
0.000000
  70
    32
  0
VERTEX
  8
0
  5
3276B
 10
184.719
 20
454.114
 30
0.000000
  70
    32
  0
VERTEX
  8
0
  5
3276C
 10
184.613
 20
454.103
 30
0.000000
  70
    32
  0
VERTEX
  8
0
  5
3276D
 10
184.507
 20
454.092
 30
0.000000
  70
    32
  0
VERTEX
  8
0
  5
3276E
 10
184.401
 20
454.081
 30
0.000000
  70
    32
  0
VERTEX
  8
0
  5
3276F
 10
184.295
 20
454.069
 30
0.000000
  70
    32
  0
VERTEX
  8
0
  5
32770
 10
184.189
 20
454.057
 30
0.000000
  70
    32
  0
VERTEX
  8
0
  5
32771
 10
184.083
 20
454.045
 30
0.000000
  70
    32
  0
VERTEX
  8
0
  5
32772
 10
183.977
 20
454.032
 30
0.000000
  70
    32
  0
VERTEX
  8
0
  5
32773
 10
183.872
 20
454.019
 30
0.000000
  70
    32
  0
VERTEX
  8
0
  5
32774
 10
183.766
 20
454.005
 30
0.000000
  70
    32
  0
VERTEX
  8
0
  5
32775
 10
183.660
 20
453.991
 30
0.000000
  70
    32
  0
VERTEX
  8
0
  5
32776
 10
183.554
 20
453.977
 30
0.000000
  70
    32
  0
VERTEX
  8
0
  5
32777
 10
183.449
 20
453.963
 30
0.000000
  70
    32
  0
VERTEX
  8
0
  5
32778
 10
183.343
 20
453.948
 30
0.000000
  70
    32
  0
VERTEX
  8
0
  5
32779
 10
183.237
 20
453.933
 30
0.000000
  70
    32
  0
VERTEX
  8
0
  5
3277A
 10
183.132
 20
453.917
 30
0.000000
  70
    32
  0
VERTEX
  8
0
  5
3277B
 10
183.026
 20
453.901
 30
0.000000
  70
    32
  0
VERTEX
  8
0
  5
3277C
 10
182.920
 20
453.885
 30
0.000000
  70
    32
  0
VERTEX
  8
0
  5
3277D
 10
182.815
 20
453.868
 30
0.000000
  70
    32
  0
VERTEX
  8
0
  5
3277E
 10
182.709
 20
453.851
 30
0.000000
  70
    32
  0
VERTEX
  8
0
  5
3277F
 10
182.604
 20
453.834
 30
0.000000
  70
    32
  0
VERTEX
  8
0
  5
32780
 10
182.498
 20
453.816
 30
0.000000
  70
    32
  0
VERTEX
  8
0
  5
32781
 10
182.393
 20
453.798
 30
0.000000
  70
    32
  0
VERTEX
  8
0
  5
32782
 10
182.287
 20
453.780
 30
0.000000
  70
    32
  0
VERTEX
  8
0
  5
32783
 10
182.182
 20
453.761
 30
0.000000
  70
    32
  0
VERTEX
  8
0
  5
32784
 10
182.076
 20
453.742
 30
0.000000
  70
    32
  0
VERTEX
  8
0
  5
32785
 10
181.971
 20
453.723
 30
0.000000
  70
    32
  0
VERTEX
  8
0
  5
32786
 10
181.866
 20
453.703
 30
0.000000
  70
    32
  0
VERTEX
  8
0
  5
32787
 10
181.760
 20
453.683
 30
0.000000
  70
    32
  0
VERTEX
  8
0
  5
32788
 10
181.655
 20
453.662
 30
0.000000
  70
    32
  0
VERTEX
  8
0
  5
32789
 10
181.550
 20
453.642
 30
0.000000
  70
    32
  0
VERTEX
  8
0
  5
3278A
 10
181.445
 20
453.621
 30
0.000000
  70
    32
  0
VERTEX
  8
0
  5
3278B
 10
181.340
 20
453.599
 30
0.000000
  70
    32
  0
VERTEX
  8
0
  5
3278C
 10
181.234
 20
453.577
 30
0.000000
  70
    32
  0
VERTEX
  8
0
  5
3278D
 10
181.129
 20
453.555
 30
0.000000
  70
    32
  0
SEQEND
  8
0
  5
3278E
  0
LINE
  5
322E1
  8
0
 10
159.40188151141251
 20
426.96519819873521
 30
0.0
 11
157.9018821968659
 21
426.96519819873521
 31
0.0
  0
LINE
  5
322E3
  8
0
 10
159.40188151141251
 20
415.07030157226268
 30
0.0
 11
157.9018821968659
 21
415.07030157226268
 31
0.0
  0
LINE
  5
322E4
  8
0
 10
216.40188154121481
 20
450.60058561938951
 30
0.0
 11
159.40188151141251
 21
450.60058561938951
 31
0.0
  0
LINE
  5
322E5
  8
0
 10
159.40188151141251
 20
450.60058561938951
 30
0.0
 11
159.40188151141251
 21
415.07030157226268
 31
0.0
  0
LINE
  5
322E6
  8
0
 10
217.90188085576139
 20
453.55500904697129
 30
0.0
 11
157.9018821968659
 21
453.55500904697129
 31
0.0
  0
LINE
  5
322E7
  8
0
 10
217.90188085576139
 20
426.96519819873521
 30
0.0
 11
216.40188154121481
 21
426.96519819873521
 31
0.0
  0
LINE
  5
322E8
  8
0
 10
216.40188154121481
 20
450.60058561938951
 30
0.0
 11
216.40188154121481
 21
415.07030157226268
 31
0.0
  0
LINE
  5
322E9
  8
0
 10
217.90188085576139
 20
415.07030157226268
 30
0.0
 11
216.40188154121481
 21
415.07030157226268
 31
0.0
  0
LINE
  5
322EB
  8
0
 10
162.90188115378459
 20
431.75975857156459
 30
0.0
 11
159.40188151141251
 21
431.75975857156459
 31
0.0
  0
LINE
  5
322EC
  8
0
 10
216.40188154121481
 20
431.75975857156459
 30
0.0
 11
212.9018818988427
 21
431.75975857156459
 31
0.0
  0
POLYLINE
  5
322F0
  8
0
 66
     1
 10
0.0
 20
0.0
 30
0.0
 70
   128
  0
VERTEX
  5
325D5
  8
0
 10
144.42964736660741
 20
345.41585454571191
 30
0.0
  0
VERTEX
  5
325D6
  8
0
 10
144.03752330979131
 20
340.9636623211498
 30
0.0
  0
VERTEX
  5
325D7
  8
0
 10
144.42964736660741
 20
335.91585485118583
 30
0.0
  0
SEQEND
  5
325D8
  8
0
  0
ARC
  5
322F1
  8
0
 10
173.45941562608479
 20
331.16585500392267
 30
0.0
 40
29.415811118308291
 50
170.70731779141789
 51
189.29268220858199
  0
LINE
  5
322F3
  8
0
 10
143.90188176473399
 20
344.91585446375558
 30
0.0
 11
143.90188176473399
 21
326.9158552386159
 31
0.0
  0
LINE
  5
322F4
  8
0
 10
144.0358543797376
 20
326.41585515665957
 30
0.0
 11
153.76790706356789
 21
326.41585515665957
 31
0.0
  0
LINE
  5
322F5
  8
0
 10
144.42964736660741
 20
335.91585485118583
 30
0.0
 11
153.37411407669811
 21
335.91585485118583
 31
0.0
  0
ARC
  5
322F6
  8
0
 10
124.33974029361541
 20
331.16585500392267
 30
0.0
 40
29.420356210023769
 50
350.70876611794921
 51
9.2912338820507205
  0
LINE
  5
322F7
  8
0
 10
144.0358543797376
 20
345.41585454571191
 30
0.0
 11
153.76790706356789
 21
345.41585454571191
 31
0.0
  0
POLYLINE
  5
322F8
  8
0
 66
     1
 10
0.0
 20
0.0
 30
0.0
 70
   128
  0
VERTEX
  5
325D9
  8
0
 10
153.37411407669811
 20
335.91585485118583
 30
0.0
  0
VERTEX
  5
325DA
  8
0
 10
153.76623813351421
 20
340.9636623211498
 30
0.0
  0
VERTEX
  5
325DB
  8
0
 10
153.37411407669811
 20
345.41585454571191
 30
0.0
  0
SEQEND
  5
325DC
  8
0
  0
POLYLINE
  5
322FB
  8
0
 66
     1
 10
0.0
 20
0.0
 30
0.0
 70
   128
  0
VERTEX
  5
325DD
  8
0
 10
228.87411434491901
 20
345.41585454571191
 30
0.0
  0
VERTEX
  5
325DE
  8
0
 10
229.26623840173511
 20
340.9636623211498
 30
0.0
  0
VERTEX
  5
325DF
  8
0
 10
228.87411434491901
 20
335.91585485118583
 30
0.0
  0
SEQEND
  5
325E0
  8
0
  0
LINE
  5
322FC
  8
0
 10
221.90188337405951
 20
335.91585485118583
 30
0.0
 11
228.87411434491901
 21
335.91585485118583
 31
0.0
  0
LINE
  5
322FD
  8
0
 10
221.90188337405951
 20
345.41585454571191
 30
0.0
 11
229.26790733178879
 21
345.41585454571191
 31
0.0
  0
ARC
  5
322FE
  8
0
 10
199.84434608543981
 20
331.16585500392267
 30
0.0
 40
29.41581111830892
 50
350.70731779141778
 51
9.2926822085785634
  0
LINE
  5
322FF
  8
0
 10
221.90188337405951
 20
326.41585515665957
 30
0.0
 11
229.26790733178879
 21
326.41585515665957
 31
0.0
  0
LINE
  5
32300
  8
0
 10
229.40187994679241
 20
344.91585446375558
 30
0.0
 11
229.40187994679241
 21
326.9158552386159
 31
0.0
  0
LINE
  5
32304
  8
0
 10
162.90188115378641
 20
431.9158556856508
 30
0.0
 11
162.90188115378641
 21
239.9158540167208
 31
0.0
  0
LINE
  5
32305
  8
0
 10
212.90188189884449
 20
431.9158556856508
 30
0.0
 11
212.90188189884449
 21
239.9158540167208
 31
0.0
  0
LINE
  5
32307
  8
0
 10
165.97913485308911
 20
435.91585634130189
 30
0.0
 11
165.97913485308911
 21
235.91585336106971
 31
0.0
  0
LINE
  5
32308
  8
0
 10
209.82462819954191
 20
435.91585634130189
 30
0.0
 11
209.82462819954191
 21
235.91585336106971
 31
0.0
  0
LINE
  5
3230A
  8
0
 10
894.72856339318184
 20
470.1158615745897
 30
0.0
 11
894.72856339318184
 21
385.6023835934991
 31
0.0
  0
LINE
  5
3230B
  8
0
 10
996.7285614858331
 20
385.6023835934991
 30
0.0
 11
996.7285614858331
 21
470.1158615745897
 31
0.0
  0
LINE
  5
3230C
  8
0
 10
895.20464431745427
 20
479.91584865230271
 30
0.0
 11
896.93265002471821
 21
470.1158615745897
 31
0.0
  0
LINE
  5
3230D
  8
0
 10
994.52447485429661
 20
470.1158615745897
 30
0.0
 11
996.25248056156056
 21
479.91584865230271
 31
0.0
  0
LINE
  5
3230E
  8
0
 10
974.22856245440857
 20
428.91585705655763
 30
0.0
 11
965.22856284183877
 21
428.91585705655763
 31
0.0
  0
LINE
  5
3230F
  8
0
 10
965.22856284183877
 20
422.91585234779069
 30
0.0
 11
974.22856245440857
 21
422.91585234779069
 31
0.0
  0
LINE
  5
32310
  8
0
 10
926.22856203717606
 20
428.91585705655763
 30
0.0
 11
917.22856242460625
 21
428.91585705655763
 31
0.0
  0
LINE
  5
32311
  8
0
 10
917.22856242460625
 20
422.91585234779069
 30
0.0
 11
926.22856203717606
 21
422.91585234779069
 31
0.0
  0
LINE
  5
32312
  8
0
 10
977.22856294614689
 20
433.91585228818599
 30
0.0
 11
979.12809964520352
 21
433.91585228818599
 31
0.0
  0
LINE
  5
32313
  8
0
 10
912.32902523381131
 20
433.91585228818599
 30
0.0
 11
914.22856193286805
 21
433.91585228818599
 31
0.0
  0
LINE
  5
32314
  8
0
 10
970.72856281203815
 20
320.9158551864619
 30
0.0
 11
975.72856176895698
 21
320.9158551864619
 31
0.0
  0
LINE
  5
32315
  8
0
 10
975.72856176895698
 20
350.91585451590959
 30
0.0
 11
970.72856281203815
 21
350.91585451590959
 31
0.0
  0
LINE
  5
32316
  8
0
 10
915.72856311006149
 20
320.9158551864619
 30
0.0
 11
920.7285620669802
 21
320.9158551864619
 31
0.0
  0
LINE
  5
32317
  8
0
 10
920.7285620669802
 20
350.91585451590959
 30
0.0
 11
915.72856311006149
 21
350.91585451590959
 31
0.0
  0
LINE
  5
32318
  8
0
 10
989.59458958608707
 20
326.41585515665957
 30
0.0
 11
989.72856220109065
 21
326.9158552386159
 31
0.0
  0
LINE
  5
32319
  8
0
 10
989.72856220109065
 20
344.91585446375558
 30
0.0
 11
989.59458958608707
 21
345.41585454571191
 31
0.0
  0
LINE
  5
3231A
  8
0
 10
979.72856428725322
 20
326.9158552386159
 30
0.0
 11
979.86253690225681
 21
326.41585515665957
 31
0.0
  0
LINE
  5
3231B
  8
0
 10
904.22856401903232
 20
326.9158552386159
 30
0.0
 11
904.36253663403591
 21
326.41585515665957
 31
0.0
  0
LINE
  5
3231E
  8
0
 10
923.80581576628288
 20
235.91585336106971
 30
0.0
 11
967.65130911273559
 21
235.91585336106971
 31
0.0
  0
ARC
  5
3231F
  8
0
 10
967.65130993332173
 20
238.91585485118441
 30
0.0
 40
2.9999999999990692
 50
269.99999999998698
 51
356.0000000000262
  0
ARC
  5
32320
  8
0
 10
923.80581494569481
 20
238.91585485118441
 30
0.0
 40
2.9999999999990332
 50
183.9999999999738
 51
270.00000000000648
  0
LINE
  5
32321
  8
0
 10
970.64400244755348
 20
238.70658753293699
 30
0.0
 11
970.72856281203815
 21
239.9158540167208
 31
0.0
  0
LINE
  5
32322
  8
0
 10
920.7285620669802
 20
239.9158540167208
 30
0.0
 11
920.81312243146499
 21
238.70658753293699
 31
0.0
  0
LINE
  5
32324
  8
0
 10
930.72856277478365
 20
432.97769753116319
 30
0.0
 11
960.72856210423129
 21
432.97769753116319
 31
0.0
  0
LINE
  5
32327
  8
0
 10
930.72856277478365
 20
435.83156047242829
 30
0.0
 11
960.72856210423129
 21
435.83156047242829
 31
0.0
  0
LINE
  5
32328
  8
0
 10
930.72856277478365
 20
431.75975857156448
 30
0.0
 11
930.72856277478365
 21
435.83156047242829
 31
0.0
  0
LINE
  5
32329
  8
0
 10
960.72856210423129
 20
431.75975857156448
 30
0.0
 11
960.72856210423129
 21
435.83156047242829
 31
0.0
  0
LINE
  5
3232B
  8
0
 10
974.22856245440857
 20
423.04863659518901
 30
0.0
 11
977.22856294614689
 21
423.04863659518901
 31
0.0
  0
LINE
  5
3232C
  8
0
 10
974.22856245440857
 20
415.07030157226268
 30
0.0
 11
974.22856245440857
 21
431.75975857156459
 31
0.0
  0
LINE
  5
3232E
  8
0
 10
960.72856210423129
 20
434.71418199914638
 30
0.0
 11
977.22856294614689
 21
434.71418199914638
 31
0.0
  0
LINE
  5
3232F
  8
0
 10
914.22856193286805
 20
434.71418199914638
 30
0.0
 11
930.72856277478365
 21
434.71418199914638
 31
0.0
  0
POLYLINE
  5
32331
  8
0
 10
914.22856243950878
 20
448.6954594618403
 30
0.0
 66
     1
 70
     8
  0
VERTEX
  8
0
  5
3278F
 10
914.229
 20
448.695
 30
0.000000
  70
    32
  0
VERTEX
  8
0
  5
32790
 10
914.258
 20
448.691
 30
0.000000
  70
    32
  0
VERTEX
  8
0
  5
32791
 10
914.287
 20
448.687
 30
0.000000
  70
    32
  0
VERTEX
  8
0
  5
32792
 10
914.316
 20
448.683
 30
0.000000
  70
    32
  0
VERTEX
  8
0
  5
32793
 10
914.345
 20
448.679
 30
0.000000
  70
    32
  0
VERTEX
  8
0
  5
32794
 10
914.374
 20
448.675
 30
0.000000
  70
    32
  0
VERTEX
  8
0
  5
32795
 10
914.403
 20
448.671
 30
0.000000
  70
    32
  0
VERTEX
  8
0
  5
32796
 10
914.432
 20
448.667
 30
0.000000
  70
    32
  0
VERTEX
  8
0
  5
32797
 10
914.461
 20
448.663
 30
0.000000
  70
    32
  0
VERTEX
  8
0
  5
32798
 10
914.491
 20
448.659
 30
0.000000
  70
    32
  0
VERTEX
  8
0
  5
32799
 10
914.520
 20
448.655
 30
0.000000
  70
    32
  0
VERTEX
  8
0
  5
3279A
 10
914.549
 20
448.651
 30
0.000000
  70
    32
  0
VERTEX
  8
0
  5
3279B
 10
914.578
 20
448.647
 30
0.000000
  70
    32
  0
VERTEX
  8
0
  5
3279C
 10
914.607
 20
448.643
 30
0.000000
  70
    32
  0
VERTEX
  8
0
  5
3279D
 10
914.637
 20
448.640
 30
0.000000
  70
    32
  0
VERTEX
  8
0
  5
3279E
 10
914.666
 20
448.636
 30
0.000000
  70
    32
  0
VERTEX
  8
0
  5
3279F
 10
914.695
 20
448.632
 30
0.000000
  70
    32
  0
VERTEX
  8
0
  5
327A0
 10
914.725
 20
448.628
 30
0.000000
  70
    32
  0
VERTEX
  8
0
  5
327A1
 10
914.754
 20
448.624
 30
0.000000
  70
    32
  0
VERTEX
  8
0
  5
327A2
 10
914.783
 20
448.620
 30
0.000000
  70
    32
  0
VERTEX
  8
0
  5
327A3
 10
914.813
 20
448.616
 30
0.000000
  70
    32
  0
VERTEX
  8
0
  5
327A4
 10
914.842
 20
448.612
 30
0.000000
  70
    32
  0
VERTEX
  8
0
  5
327A5
 10
914.871
 20
448.608
 30
0.000000
  70
    32
  0
VERTEX
  8
0
  5
327A6
 10
914.901
 20
448.604
 30
0.000000
  70
    32
  0
VERTEX
  8
0
  5
327A7
 10
914.930
 20
448.600
 30
0.000000
  70
    32
  0
VERTEX
  8
0
  5
327A8
 10
914.960
 20
448.596
 30
0.000000
  70
    32
  0
VERTEX
  8
0
  5
327A9
 10
914.989
 20
448.592
 30
0.000000
  70
    32
  0
VERTEX
  8
0
  5
327AA
 10
915.019
 20
448.588
 30
0.000000
  70
    32
  0
VERTEX
  8
0
  5
327AB
 10
915.048
 20
448.584
 30
0.000000
  70
    32
  0
VERTEX
  8
0
  5
327AC
 10
915.078
 20
448.580
 30
0.000000
  70
    32
  0
VERTEX
  8
0
  5
327AD
 10
915.107
 20
448.576
 30
0.000000
  70
    32
  0
VERTEX
  8
0
  5
327AE
 10
915.137
 20
448.573
 30
0.000000
  70
    32
  0
VERTEX
  8
0
  5
327AF
 10
915.166
 20
448.569
 30
0.000000
  70
    32
  0
VERTEX
  8
0
  5
327B0
 10
915.196
 20
448.565
 30
0.000000
  70
    32
  0
VERTEX
  8
0
  5
327B1
 10
915.225
 20
448.561
 30
0.000000
  70
    32
  0
VERTEX
  8
0
  5
327B2
 10
915.255
 20
448.557
 30
0.000000
  70
    32
  0
VERTEX
  8
0
  5
327B3
 10
915.285
 20
448.553
 30
0.000000
  70
    32
  0
VERTEX
  8
0
  5
327B4
 10
915.314
 20
448.549
 30
0.000000
  70
    32
  0
VERTEX
  8
0
  5
327B5
 10
915.344
 20
448.545
 30
0.000000
  70
    32
  0
VERTEX
  8
0
  5
327B6
 10
915.374
 20
448.541
 30
0.000000
  70
    32
  0
VERTEX
  8
0
  5
327B7
 10
915.403
 20
448.538
 30
0.000000
  70
    32
  0
VERTEX
  8
0
  5
327B8
 10
915.433
 20
448.534
 30
0.000000
  70
    32
  0
VERTEX
  8
0
  5
327B9
 10
915.463
 20
448.530
 30
0.000000
  70
    32
  0
VERTEX
  8
0
  5
327BA
 10
915.492
 20
448.526
 30
0.000000
  70
    32
  0
VERTEX
  8
0
  5
327BB
 10
915.522
 20
448.522
 30
0.000000
  70
    32
  0
VERTEX
  8
0
  5
327BC
 10
915.552
 20
448.518
 30
0.000000
  70
    32
  0
VERTEX
  8
0
  5
327BD
 10
915.582
 20
448.514
 30
0.000000
  70
    32
  0
VERTEX
  8
0
  5
327BE
 10
915.612
 20
448.511
 30
0.000000
  70
    32
  0
VERTEX
  8
0
  5
327BF
 10
915.641
 20
448.507
 30
0.000000
  70
    32
  0
VERTEX
  8
0
  5
327C0
 10
915.671
 20
448.503
 30
0.000000
  70
    32
  0
VERTEX
  8
0
  5
327C1
 10
915.701
 20
448.499
 30
0.000000
  70
    32
  0
VERTEX
  8
0
  5
327C2
 10
915.731
 20
448.495
 30
0.000000
  70
    32
  0
VERTEX
  8
0
  5
327C3
 10
915.761
 20
448.491
 30
0.000000
  70
    32
  0
VERTEX
  8
0
  5
327C4
 10
915.791
 20
448.488
 30
0.000000
  70
    32
  0
VERTEX
  8
0
  5
327C5
 10
915.821
 20
448.484
 30
0.000000
  70
    32
  0
VERTEX
  8
0
  5
327C6
 10
915.850
 20
448.480
 30
0.000000
  70
    32
  0
VERTEX
  8
0
  5
327C7
 10
915.880
 20
448.476
 30
0.000000
  70
    32
  0
VERTEX
  8
0
  5
327C8
 10
915.910
 20
448.472
 30
0.000000
  70
    32
  0
VERTEX
  8
0
  5
327C9
 10
915.940
 20
448.469
 30
0.000000
  70
    32
  0
VERTEX
  8
0
  5
327CA
 10
915.970
 20
448.465
 30
0.000000
  70
    32
  0
VERTEX
  8
0
  5
327CB
 10
916.000
 20
448.461
 30
0.000000
  70
    32
  0
VERTEX
  8
0
  5
327CC
 10
916.030
 20
448.457
 30
0.000000
  70
    32
  0
VERTEX
  8
0
  5
327CD
 10
916.060
 20
448.453
 30
0.000000
  70
    32
  0
VERTEX
  8
0
  5
327CE
 10
916.090
 20
448.450
 30
0.000000
  70
    32
  0
VERTEX
  8
0
  5
327CF
 10
916.120
 20
448.446
 30
0.000000
  70
    32
  0
VERTEX
  8
0
  5
327D0
 10
916.150
 20
448.442
 30
0.000000
  70
    32
  0
VERTEX
  8
0
  5
327D1
 10
916.181
 20
448.438
 30
0.000000
  70
    32
  0
VERTEX
  8
0
  5
327D2
 10
916.211
 20
448.434
 30
0.000000
  70
    32
  0
VERTEX
  8
0
  5
327D3
 10
916.241
 20
448.431
 30
0.000000
  70
    32
  0
VERTEX
  8
0
  5
327D4
 10
916.271
 20
448.427
 30
0.000000
  70
    32
  0
VERTEX
  8
0
  5
327D5
 10
916.301
 20
448.423
 30
0.000000
  70
    32
  0
VERTEX
  8
0
  5
327D6
 10
916.331
 20
448.419
 30
0.000000
  70
    32
  0
VERTEX
  8
0
  5
327D7
 10
916.361
 20
448.416
 30
0.000000
  70
    32
  0
VERTEX
  8
0
  5
327D8
 10
916.392
 20
448.412
 30
0.000000
  70
    32
  0
VERTEX
  8
0
  5
327D9
 10
916.422
 20
448.408
 30
0.000000
  70
    32
  0
VERTEX
  8
0
  5
327DA
 10
916.452
 20
448.404
 30
0.000000
  70
    32
  0
VERTEX
  8
0
  5
327DB
 10
916.482
 20
448.401
 30
0.000000
  70
    32
  0
VERTEX
  8
0
  5
327DC
 10
916.513
 20
448.397
 30
0.000000
  70
    32
  0
VERTEX
  8
0
  5
327DD
 10
916.543
 20
448.393
 30
0.000000
  70
    32
  0
VERTEX
  8
0
  5
327DE
 10
916.573
 20
448.389
 30
0.000000
  70
    32
  0
VERTEX
  8
0
  5
327DF
 10
916.603
 20
448.386
 30
0.000000
  70
    32
  0
VERTEX
  8
0
  5
327E0
 10
916.634
 20
448.382
 30
0.000000
  70
    32
  0
VERTEX
  8
0
  5
327E1
 10
916.664
 20
448.378
 30
0.000000
  70
    32
  0
VERTEX
  8
0
  5
327E2
 10
916.694
 20
448.375
 30
0.000000
  70
    32
  0
VERTEX
  8
0
  5
327E3
 10
916.725
 20
448.371
 30
0.000000
  70
    32
  0
VERTEX
  8
0
  5
327E4
 10
916.755
 20
448.367
 30
0.000000
  70
    32
  0
VERTEX
  8
0
  5
327E5
 10
916.786
 20
448.364
 30
0.000000
  70
    32
  0
VERTEX
  8
0
  5
327E6
 10
916.816
 20
448.360
 30
0.000000
  70
    32
  0
VERTEX
  8
0
  5
327E7
 10
916.846
 20
448.356
 30
0.000000
  70
    32
  0
VERTEX
  8
0
  5
327E8
 10
916.877
 20
448.352
 30
0.000000
  70
    32
  0
VERTEX
  8
0
  5
327E9
 10
916.907
 20
448.349
 30
0.000000
  70
    32
  0
VERTEX
  8
0
  5
327EA
 10
916.938
 20
448.345
 30
0.000000
  70
    32
  0
VERTEX
  8
0
  5
327EB
 10
916.968
 20
448.341
 30
0.000000
  70
    32
  0
VERTEX
  8
0
  5
327EC
 10
916.999
 20
448.338
 30
0.000000
  70
    32
  0
VERTEX
  8
0
  5
327ED
 10
917.029
 20
448.334
 30
0.000000
  70
    32
  0
VERTEX
  8
0
  5
327EE
 10
917.060
 20
448.330
 30
0.000000
  70
    32
  0
VERTEX
  8
0
  5
327EF
 10
917.090
 20
448.327
 30
0.000000
  70
    32
  0
VERTEX
  8
0
  5
327F0
 10
917.121
 20
448.323
 30
0.000000
  70
    32
  0
VERTEX
  8
0
  5
327F1
 10
917.152
 20
448.319
 30
0.000000
  70
    32
  0
VERTEX
  8
0
  5
327F2
 10
917.182
 20
448.316
 30
0.000000
  70
    32
  0
VERTEX
  8
0
  5
327F3
 10
917.213
 20
448.312
 30
0.000000
  70
    32
  0
VERTEX
  8
0
  5
327F4
 10
917.243
 20
448.309
 30
0.000000
  70
    32
  0
VERTEX
  8
0
  5
327F5
 10
917.274
 20
448.305
 30
0.000000
  70
    32
  0
VERTEX
  8
0
  5
327F6
 10
917.305
 20
448.301
 30
0.000000
  70
    32
  0
VERTEX
  8
0
  5
327F7
 10
917.335
 20
448.298
 30
0.000000
  70
    32
  0
VERTEX
  8
0
  5
327F8
 10
917.366
 20
448.294
 30
0.000000
  70
    32
  0
VERTEX
  8
0
  5
327F9
 10
917.397
 20
448.290
 30
0.000000
  70
    32
  0
VERTEX
  8
0
  5
327FA
 10
917.427
 20
448.287
 30
0.000000
  70
    32
  0
VERTEX
  8
0
  5
327FB
 10
917.458
 20
448.283
 30
0.000000
  70
    32
  0
VERTEX
  8
0
  5
327FC
 10
917.489
 20
448.280
 30
0.000000
  70
    32
  0
VERTEX
  8
0
  5
327FD
 10
917.520
 20
448.276
 30
0.000000
  70
    32
  0
VERTEX
  8
0
  5
327FE
 10
917.550
 20
448.272
 30
0.000000
  70
    32
  0
VERTEX
  8
0
  5
327FF
 10
917.581
 20
448.269
 30
0.000000
  70
    32
  0
VERTEX
  8
0
  5
32800
 10
917.612
 20
448.265
 30
0.000000
  70
    32
  0
VERTEX
  8
0
  5
32801
 10
917.643
 20
448.262
 30
0.000000
  70
    32
  0
VERTEX
  8
0
  5
32802
 10
917.674
 20
448.258
 30
0.000000
  70
    32
  0
VERTEX
  8
0
  5
32803
 10
917.705
 20
448.254
 30
0.000000
  70
    32
  0
VERTEX
  8
0
  5
32804
 10
917.735
 20
448.251
 30
0.000000
  70
    32
  0
VERTEX
  8
0
  5
32805
 10
917.766
 20
448.247
 30
0.000000
  70
    32
  0
VERTEX
  8
0
  5
32806
 10
917.797
 20
448.244
 30
0.000000
  70
    32
  0
VERTEX
  8
0
  5
32807
 10
917.828
 20
448.240
 30
0.000000
  70
    32
  0
VERTEX
  8
0
  5
32808
 10
917.859
 20
448.237
 30
0.000000
  70
    32
  0
VERTEX
  8
0
  5
32809
 10
917.890
 20
448.233
 30
0.000000
  70
    32
  0
VERTEX
  8
0
  5
3280A
 10
917.921
 20
448.229
 30
0.000000
  70
    32
  0
VERTEX
  8
0
  5
3280B
 10
917.952
 20
448.226
 30
0.000000
  70
    32
  0
VERTEX
  8
0
  5
3280C
 10
917.983
 20
448.222
 30
0.000000
  70
    32
  0
VERTEX
  8
0
  5
3280D
 10
918.014
 20
448.219
 30
0.000000
  70
    32
  0
VERTEX
  8
0
  5
3280E
 10
918.045
 20
448.215
 30
0.000000
  70
    32
  0
VERTEX
  8
0
  5
3280F
 10
918.076
 20
448.212
 30
0.000000
  70
    32
  0
SEQEND
  8
0
  5
32810
  0
LINE
  5
32332
  8
0
 10
918.07581264776616
 20
448.21177301782319
 30
0.0
 11
926.42378214997666
 21
448.21177301782319
 31
0.0
  0
LINE
  5
32333
  8
0
 10
938.95605592308061
 20
453.55500904697129
 30
0.0
 11
952.50106895593422
 21
453.55500904697129
 31
0.0
  0
LINE
  5
32334
  8
0
 10
965.03334272903817
 20
448.21177301782319
 30
0.0
 11
973.38131223124878
 21
448.21177301782319
 31
0.0
  0
POLYLINE
  5
32335
  8
0
 10
973.38131209774269
 20
448.21176950677471
 30
0.0
 66
     1
 70
     8
  0
VERTEX
  8
0
  5
32811
 10
973.381
 20
448.212
 30
0.000000
  70
    32
  0
VERTEX
  8
0
  5
32812
 10
973.412
 20
448.215
 30
0.000000
  70
    32
  0
VERTEX
  8
0
  5
32813
 10
973.443
 20
448.219
 30
0.000000
  70
    32
  0
VERTEX
  8
0
  5
32814
 10
973.474
 20
448.222
 30
0.000000
  70
    32
  0
VERTEX
  8
0
  5
32815
 10
973.505
 20
448.226
 30
0.000000
  70
    32
  0
VERTEX
  8
0
  5
32816
 10
973.536
 20
448.229
 30
0.000000
  70
    32
  0
VERTEX
  8
0
  5
32817
 10
973.567
 20
448.233
 30
0.000000
  70
    32
  0
VERTEX
  8
0
  5
32818
 10
973.598
 20
448.237
 30
0.000000
  70
    32
  0
VERTEX
  8
0
  5
32819
 10
973.629
 20
448.240
 30
0.000000
  70
    32
  0
VERTEX
  8
0
  5
3281A
 10
973.660
 20
448.244
 30
0.000000
  70
    32
  0
VERTEX
  8
0
  5
3281B
 10
973.691
 20
448.247
 30
0.000000
  70
    32
  0
VERTEX
  8
0
  5
3281C
 10
973.722
 20
448.251
 30
0.000000
  70
    32
  0
VERTEX
  8
0
  5
3281D
 10
973.753
 20
448.254
 30
0.000000
  70
    32
  0
VERTEX
  8
0
  5
3281E
 10
973.783
 20
448.258
 30
0.000000
  70
    32
  0
VERTEX
  8
0
  5
3281F
 10
973.814
 20
448.262
 30
0.000000
  70
    32
  0
VERTEX
  8
0
  5
32820
 10
973.845
 20
448.265
 30
0.000000
  70
    32
  0
VERTEX
  8
0
  5
32821
 10
973.876
 20
448.269
 30
0.000000
  70
    32
  0
VERTEX
  8
0
  5
32822
 10
973.907
 20
448.272
 30
0.000000
  70
    32
  0
VERTEX
  8
0
  5
32823
 10
973.937
 20
448.276
 30
0.000000
  70
    32
  0
VERTEX
  8
0
  5
32824
 10
973.968
 20
448.280
 30
0.000000
  70
    32
  0
VERTEX
  8
0
  5
32825
 10
973.999
 20
448.283
 30
0.000000
  70
    32
  0
VERTEX
  8
0
  5
32826
 10
974.030
 20
448.287
 30
0.000000
  70
    32
  0
VERTEX
  8
0
  5
32827
 10
974.060
 20
448.290
 30
0.000000
  70
    32
  0
VERTEX
  8
0
  5
32828
 10
974.091
 20
448.294
 30
0.000000
  70
    32
  0
VERTEX
  8
0
  5
32829
 10
974.122
 20
448.298
 30
0.000000
  70
    32
  0
VERTEX
  8
0
  5
3282A
 10
974.152
 20
448.301
 30
0.000000
  70
    32
  0
VERTEX
  8
0
  5
3282B
 10
974.183
 20
448.305
 30
0.000000
  70
    32
  0
VERTEX
  8
0
  5
3282C
 10
974.214
 20
448.309
 30
0.000000
  70
    32
  0
VERTEX
  8
0
  5
3282D
 10
974.244
 20
448.312
 30
0.000000
  70
    32
  0
VERTEX
  8
0
  5
3282E
 10
974.275
 20
448.316
 30
0.000000
  70
    32
  0
VERTEX
  8
0
  5
3282F
 10
974.306
 20
448.319
 30
0.000000
  70
    32
  0
VERTEX
  8
0
  5
32830
 10
974.336
 20
448.323
 30
0.000000
  70
    32
  0
VERTEX
  8
0
  5
32831
 10
974.367
 20
448.327
 30
0.000000
  70
    32
  0
VERTEX
  8
0
  5
32832
 10
974.397
 20
448.330
 30
0.000000
  70
    32
  0
VERTEX
  8
0
  5
32833
 10
974.428
 20
448.334
 30
0.000000
  70
    32
  0
VERTEX
  8
0
  5
32834
 10
974.458
 20
448.338
 30
0.000000
  70
    32
  0
VERTEX
  8
0
  5
32835
 10
974.489
 20
448.341
 30
0.000000
  70
    32
  0
VERTEX
  8
0
  5
32836
 10
974.519
 20
448.345
 30
0.000000
  70
    32
  0
VERTEX
  8
0
  5
32837
 10
974.550
 20
448.349
 30
0.000000
  70
    32
  0
VERTEX
  8
0
  5
32838
 10
974.580
 20
448.352
 30
0.000000
  70
    32
  0
VERTEX
  8
0
  5
32839
 10
974.611
 20
448.356
 30
0.000000
  70
    32
  0
VERTEX
  8
0
  5
3283A
 10
974.641
 20
448.360
 30
0.000000
  70
    32
  0
VERTEX
  8
0
  5
3283B
 10
974.672
 20
448.364
 30
0.000000
  70
    32
  0
VERTEX
  8
0
  5
3283C
 10
974.702
 20
448.367
 30
0.000000
  70
    32
  0
VERTEX
  8
0
  5
3283D
 10
974.732
 20
448.371
 30
0.000000
  70
    32
  0
VERTEX
  8
0
  5
3283E
 10
974.763
 20
448.375
 30
0.000000
  70
    32
  0
VERTEX
  8
0
  5
3283F
 10
974.793
 20
448.378
 30
0.000000
  70
    32
  0
VERTEX
  8
0
  5
32840
 10
974.823
 20
448.382
 30
0.000000
  70
    32
  0
VERTEX
  8
0
  5
32841
 10
974.854
 20
448.386
 30
0.000000
  70
    32
  0
VERTEX
  8
0
  5
32842
 10
974.884
 20
448.389
 30
0.000000
  70
    32
  0
VERTEX
  8
0
  5
32843
 10
974.914
 20
448.393
 30
0.000000
  70
    32
  0
VERTEX
  8
0
  5
32844
 10
974.945
 20
448.397
 30
0.000000
  70
    32
  0
VERTEX
  8
0
  5
32845
 10
974.975
 20
448.401
 30
0.000000
  70
    32
  0
VERTEX
  8
0
  5
32846
 10
975.005
 20
448.404
 30
0.000000
  70
    32
  0
VERTEX
  8
0
  5
32847
 10
975.035
 20
448.408
 30
0.000000
  70
    32
  0
VERTEX
  8
0
  5
32848
 10
975.065
 20
448.412
 30
0.000000
  70
    32
  0
VERTEX
  8
0
  5
32849
 10
975.096
 20
448.416
 30
0.000000
  70
    32
  0
VERTEX
  8
0
  5
3284A
 10
975.126
 20
448.419
 30
0.000000
  70
    32
  0
VERTEX
  8
0
  5
3284B
 10
975.156
 20
448.423
 30
0.000000
  70
    32
  0
VERTEX
  8
0
  5
3284C
 10
975.186
 20
448.427
 30
0.000000
  70
    32
  0
VERTEX
  8
0
  5
3284D
 10
975.216
 20
448.431
 30
0.000000
  70
    32
  0
VERTEX
  8
0
  5
3284E
 10
975.246
 20
448.434
 30
0.000000
  70
    32
  0
VERTEX
  8
0
  5
3284F
 10
975.277
 20
448.438
 30
0.000000
  70
    32
  0
VERTEX
  8
0
  5
32850
 10
975.307
 20
448.442
 30
0.000000
  70
    32
  0
VERTEX
  8
0
  5
32851
 10
975.337
 20
448.446
 30
0.000000
  70
    32
  0
VERTEX
  8
0
  5
32852
 10
975.367
 20
448.450
 30
0.000000
  70
    32
  0
VERTEX
  8
0
  5
32853
 10
975.397
 20
448.453
 30
0.000000
  70
    32
  0
VERTEX
  8
0
  5
32854
 10
975.427
 20
448.457
 30
0.000000
  70
    32
  0
VERTEX
  8
0
  5
32855
 10
975.457
 20
448.461
 30
0.000000
  70
    32
  0
VERTEX
  8
0
  5
32856
 10
975.487
 20
448.465
 30
0.000000
  70
    32
  0
VERTEX
  8
0
  5
32857
 10
975.517
 20
448.469
 30
0.000000
  70
    32
  0
VERTEX
  8
0
  5
32858
 10
975.547
 20
448.472
 30
0.000000
  70
    32
  0
VERTEX
  8
0
  5
32859
 10
975.577
 20
448.476
 30
0.000000
  70
    32
  0
VERTEX
  8
0
  5
3285A
 10
975.607
 20
448.480
 30
0.000000
  70
    32
  0
VERTEX
  8
0
  5
3285B
 10
975.637
 20
448.484
 30
0.000000
  70
    32
  0
VERTEX
  8
0
  5
3285C
 10
975.667
 20
448.488
 30
0.000000
  70
    32
  0
VERTEX
  8
0
  5
3285D
 10
975.696
 20
448.491
 30
0.000000
  70
    32
  0
VERTEX
  8
0
  5
3285E
 10
975.726
 20
448.495
 30
0.000000
  70
    32
  0
VERTEX
  8
0
  5
3285F
 10
975.756
 20
448.499
 30
0.000000
  70
    32
  0
VERTEX
  8
0
  5
32860
 10
975.786
 20
448.503
 30
0.000000
  70
    32
  0
VERTEX
  8
0
  5
32861
 10
975.816
 20
448.507
 30
0.000000
  70
    32
  0
VERTEX
  8
0
  5
32862
 10
975.846
 20
448.511
 30
0.000000
  70
    32
  0
VERTEX
  8
0
  5
32863
 10
975.875
 20
448.514
 30
0.000000
  70
    32
  0
VERTEX
  8
0
  5
32864
 10
975.905
 20
448.518
 30
0.000000
  70
    32
  0
VERTEX
  8
0
  5
32865
 10
975.935
 20
448.522
 30
0.000000
  70
    32
  0
VERTEX
  8
0
  5
32866
 10
975.965
 20
448.526
 30
0.000000
  70
    32
  0
VERTEX
  8
0
  5
32867
 10
975.994
 20
448.530
 30
0.000000
  70
    32
  0
VERTEX
  8
0
  5
32868
 10
976.024
 20
448.534
 30
0.000000
  70
    32
  0
VERTEX
  8
0
  5
32869
 10
976.054
 20
448.538
 30
0.000000
  70
    32
  0
VERTEX
  8
0
  5
3286A
 10
976.084
 20
448.541
 30
0.000000
  70
    32
  0
VERTEX
  8
0
  5
3286B
 10
976.113
 20
448.545
 30
0.000000
  70
    32
  0
VERTEX
  8
0
  5
3286C
 10
976.143
 20
448.549
 30
0.000000
  70
    32
  0
VERTEX
  8
0
  5
3286D
 10
976.172
 20
448.553
 30
0.000000
  70
    32
  0
VERTEX
  8
0
  5
3286E
 10
976.202
 20
448.557
 30
0.000000
  70
    32
  0
VERTEX
  8
0
  5
3286F
 10
976.232
 20
448.561
 30
0.000000
  70
    32
  0
VERTEX
  8
0
  5
32870
 10
976.261
 20
448.565
 30
0.000000
  70
    32
  0
VERTEX
  8
0
  5
32871
 10
976.291
 20
448.569
 30
0.000000
  70
    32
  0
VERTEX
  8
0
  5
32872
 10
976.320
 20
448.573
 30
0.000000
  70
    32
  0
VERTEX
  8
0
  5
32873
 10
976.350
 20
448.576
 30
0.000000
  70
    32
  0
VERTEX
  8
0
  5
32874
 10
976.379
 20
448.580
 30
0.000000
  70
    32
  0
VERTEX
  8
0
  5
32875
 10
976.409
 20
448.584
 30
0.000000
  70
    32
  0
VERTEX
  8
0
  5
32876
 10
976.438
 20
448.588
 30
0.000000
  70
    32
  0
VERTEX
  8
0
  5
32877
 10
976.468
 20
448.592
 30
0.000000
  70
    32
  0
VERTEX
  8
0
  5
32878
 10
976.497
 20
448.596
 30
0.000000
  70
    32
  0
VERTEX
  8
0
  5
32879
 10
976.527
 20
448.600
 30
0.000000
  70
    32
  0
VERTEX
  8
0
  5
3287A
 10
976.556
 20
448.604
 30
0.000000
  70
    32
  0
VERTEX
  8
0
  5
3287B
 10
976.586
 20
448.608
 30
0.000000
  70
    32
  0
VERTEX
  8
0
  5
3287C
 10
976.615
 20
448.612
 30
0.000000
  70
    32
  0
VERTEX
  8
0
  5
3287D
 10
976.644
 20
448.616
 30
0.000000
  70
    32
  0
VERTEX
  8
0
  5
3287E
 10
976.674
 20
448.620
 30
0.000000
  70
    32
  0
VERTEX
  8
0
  5
3287F
 10
976.703
 20
448.624
 30
0.000000
  70
    32
  0
VERTEX
  8
0
  5
32880
 10
976.732
 20
448.628
 30
0.000000
  70
    32
  0
VERTEX
  8
0
  5
32881
 10
976.762
 20
448.632
 30
0.000000
  70
    32
  0
VERTEX
  8
0
  5
32882
 10
976.791
 20
448.636
 30
0.000000
  70
    32
  0
VERTEX
  8
0
  5
32883
 10
976.820
 20
448.640
 30
0.000000
  70
    32
  0
VERTEX
  8
0
  5
32884
 10
976.850
 20
448.643
 30
0.000000
  70
    32
  0
VERTEX
  8
0
  5
32885
 10
976.879
 20
448.647
 30
0.000000
  70
    32
  0
VERTEX
  8
0
  5
32886
 10
976.908
 20
448.651
 30
0.000000
  70
    32
  0
VERTEX
  8
0
  5
32887
 10
976.937
 20
448.655
 30
0.000000
  70
    32
  0
VERTEX
  8
0
  5
32888
 10
976.967
 20
448.659
 30
0.000000
  70
    32
  0
VERTEX
  8
0
  5
32889
 10
976.996
 20
448.663
 30
0.000000
  70
    32
  0
VERTEX
  8
0
  5
3288A
 10
977.025
 20
448.667
 30
0.000000
  70
    32
  0
VERTEX
  8
0
  5
3288B
 10
977.054
 20
448.671
 30
0.000000
  70
    32
  0
VERTEX
  8
0
  5
3288C
 10
977.083
 20
448.675
 30
0.000000
  70
    32
  0
VERTEX
  8
0
  5
3288D
 10
977.112
 20
448.679
 30
0.000000
  70
    32
  0
VERTEX
  8
0
  5
3288E
 10
977.141
 20
448.683
 30
0.000000
  70
    32
  0
VERTEX
  8
0
  5
3288F
 10
977.170
 20
448.687
 30
0.000000
  70
    32
  0
VERTEX
  8
0
  5
32890
 10
977.200
 20
448.691
 30
0.000000
  70
    32
  0
VERTEX
  8
0
  5
32891
 10
977.229
 20
448.695
 30
0.000000
  70
    32
  0
SEQEND
  8
0
  5
32892
  0
LINE
  5
32337
  8
0
 10
917.22856242460625
 20
431.75975857156459
 30
0.0
 11
974.22856245440857
 21
431.75975857156459
 31
0.0
  0
LINE
  5
32338
  8
0
 10
917.22856242460625
 20
415.07030157226268
 30
0.0
 11
917.22856242460625
 21
431.75975857156459
 31
0.0
  0
LINE
  5
32339
  8
0
 10
914.22856193286805
 20
423.04863659518901
 30
0.0
 11
917.22856242460625
 21
423.04863659518901
 31
0.0
  0
LINE
  5
3233B
  8
0
 10
974.22856245440857
 20
415.07030157226268
 30
0.0
 11
977.22856294614689
 21
415.07030157226268
 31
0.0
  0
LINE
  5
3233D
  8
0
 10
977.22856294614689
 20
415.07030157226268
 30
0.0
 11
977.22856243950832
 21
448.69545946184058
 31
0.0
  0
LINE
  5
3233E
  8
0
 10
914.22856193286805
 20
415.07030157226268
 30
0.0
 11
917.22856242460625
 21
415.07030157226268
 31
0.0
  0
LINE
  5
32340
  8
0
 10
914.22856193286805
 20
415.07030157226268
 30
0.0
 11
914.22856193286805
 21
448.6954594618403
 31
0.0
  0
LINE
  5
32341
  8
0
 10
926.22856203717606
 20
394.24299700039569
 30
0.0
 11
965.22856284183877
 21
394.24299700039569
 31
0.0
  0
LINE
  5
32342
  8
0
 10
926.22856203717606
 20
431.75975857156459
 30
0.0
 11
926.22856203717606
 21
385.96626994985292
 31
0.0
  0
LINE
  5
32343
  8
0
 10
965.22856284183877
 20
431.75975857156459
 30
0.0
 11
965.22856284183899
 21
385.96626994985292
 31
0.0
  0
LINE
  5
32344
  8
0
 10
962.22856235010045
 20
391.94486541527459
 30
0.0
 11
929.22856252891438
 21
391.94486541527459
 31
0.0
  0
LINE
  5
32345
  8
0
 10
929.22856252891438
 20
385.96626994985292
 30
0.0
 11
929.22856252891438
 21
391.94486541527459
 31
0.0
  0
LINE
  5
32346
  8
0
 10
926.22856203717606
 20
388.4976643123025
 30
0.0
 11
929.22856252891438
 21
388.4976643123025
 31
0.0
  0
LINE
  5
32348
  8
0
 10
962.22856235010045
 20
388.4976643123025
 30
0.0
 11
965.22856284183877
 21
388.4976643123025
 31
0.0
  0
LINE
  5
32349
  8
0
 10
962.22856235010045
 20
385.96626994985292
 30
0.0
 11
962.22856235010045
 21
391.94486541527459
 31
0.0
  0
LINE
  5
3234B
  8
0
 10
962.22856235010045
 20
385.96626994985292
 30
0.0
 11
965.22856284183877
 21
385.96626994985292
 31
0.0
  0
LINE
  5
3234E
  8
0
 10
926.22856203717606
 20
385.96626994985292
 30
0.0
 11
929.22856252891438
 21
385.96626994985292
 31
0.0
  0
LINE
  5
32351
  8
0
 10
1000.728562141484
 20
479.91584865230271
 30
0.0
 11
1000.728562141484
 21
485.91586081165019
 31
0.0
  0
LINE
  5
32358
  8
0
 10
890.72856273753075
 20
479.91584865230271
 30
0.0
 11
890.72856273753075
 21
485.91586081165019
 31
0.0
  0
LINE
  5
32359
  8
0
 10
890.72856273753075
 20
479.91584865230271
 30
0.0
 11
1000.728562141484
 21
479.91584865230271
 31
0.0
  0
LINE
  5
3235A
  8
0
 10
890.72856273753075
 20
485.91586081165019
 30
0.0
 11
1000.728562141484
 21
485.91586081165019
 31
0.0
  0
POLYLINE
  5
3235B
  8
0
 10
914.2285624395073
 20
444.20390602742816
 30
0.0
 66
     1
 70
     8
  0
VERTEX
  8
0
  5
32893
 10
914.229
 20
444.204
 30
0.000000
  70
    32
  0
VERTEX
  8
0
  5
32894
 10
913.684
 20
443.571
 30
0.000000
  70
    32
  0
VERTEX
  8
0
  5
32895
 10
913.146
 20
442.927
 30
0.000000
  70
    32
  0
VERTEX
  8
0
  5
32896
 10
912.614
 20
442.272
 30
0.000000
  70
    32
  0
VERTEX
  8
0
  5
32897
 10
912.088
 20
441.607
 30
0.000000
  70
    32
  0
VERTEX
  8
0
  5
32898
 10
911.568
 20
440.931
 30
0.000000
  70
    32
  0
VERTEX
  8
0
  5
32899
 10
911.055
 20
440.245
 30
0.000000
  70
    32
  0
VERTEX
  8
0
  5
3289A
 10
910.548
 20
439.549
 30
0.000000
  70
    32
  0
VERTEX
  8
0
  5
3289B
 10
910.047
 20
438.843
 30
0.000000
  70
    32
  0
VERTEX
  8
0
  5
3289C
 10
909.554
 20
438.127
 30
0.000000
  70
    32
  0
VERTEX
  8
0
  5
3289D
 10
909.067
 20
437.401
 30
0.000000
  70
    32
  0
VERTEX
  8
0
  5
3289E
 10
908.586
 20
436.665
 30
0.000000
  70
    32
  0
VERTEX
  8
0
  5
3289F
 10
908.113
 20
435.920
 30
0.000000
  70
    32
  0
VERTEX
  8
0
  5
328A0
 10
907.647
 20
435.166
 30
0.000000
  70
    32
  0
VERTEX
  8
0
  5
328A1
 10
907.188
 20
434.402
 30
0.000000
  70
    32
  0
VERTEX
  8
0
  5
328A2
 10
906.736
 20
433.630
 30
0.000000
  70
    32
  0
VERTEX
  8
0
  5
328A3
 10
906.291
 20
432.848
 30
0.000000
  70
    32
  0
VERTEX
  8
0
  5
328A4
 10
905.853
 20
432.058
 30
0.000000
  70
    32
  0
VERTEX
  8
0
  5
328A5
 10
905.423
 20
431.258
 30
0.000000
  70
    32
  0
VERTEX
  8
0
  5
328A6
 10
905.001
 20
430.451
 30
0.000000
  70
    32
  0
VERTEX
  8
0
  5
328A7
 10
904.586
 20
429.635
 30
0.000000
  70
    32
  0
VERTEX
  8
0
  5
328A8
 10
904.179
 20
428.811
 30
0.000000
  70
    32
  0
VERTEX
  8
0
  5
328A9
 10
903.779
 20
427.979
 30
0.000000
  70
    32
  0
VERTEX
  8
0
  5
328AA
 10
903.387
 20
427.139
 30
0.000000
  70
    32
  0
VERTEX
  8
0
  5
328AB
 10
903.003
 20
426.291
 30
0.000000
  70
    32
  0
VERTEX
  8
0
  5
328AC
 10
902.628
 20
425.436
 30
0.000000
  70
    32
  0
VERTEX
  8
0
  5
328AD
 10
902.260
 20
424.573
 30
0.000000
  70
    32
  0
VERTEX
  8
0
  5
328AE
 10
901.900
 20
423.703
 30
0.000000
  70
    32
  0
VERTEX
  8
0
  5
328AF
 10
901.548
 20
422.826
 30
0.000000
  70
    32
  0
VERTEX
  8
0
  5
328B0
 10
901.205
 20
421.942
 30
0.000000
  70
    32
  0
VERTEX
  8
0
  5
328B1
 10
900.870
 20
421.051
 30
0.000000
  70
    32
  0
VERTEX
  8
0
  5
328B2
 10
900.543
 20
420.154
 30
0.000000
  70
    32
  0
VERTEX
  8
0
  5
328B3
 10
900.224
 20
419.250
 30
0.000000
  70
    32
  0
VERTEX
  8
0
  5
328B4
 10
899.915
 20
418.340
 30
0.000000
  70
    32
  0
VERTEX
  8
0
  5
328B5
 10
899.613
 20
417.424
 30
0.000000
  70
    32
  0
VERTEX
  8
0
  5
328B6
 10
899.320
 20
416.502
 30
0.000000
  70
    32
  0
VERTEX
  8
0
  5
328B7
 10
899.036
 20
415.574
 30
0.000000
  70
    32
  0
VERTEX
  8
0
  5
328B8
 10
898.761
 20
414.641
 30
0.000000
  70
    32
  0
VERTEX
  8
0
  5
328B9
 10
898.494
 20
413.702
 30
0.000000
  70
    32
  0
VERTEX
  8
0
  5
328BA
 10
898.236
 20
412.758
 30
0.000000
  70
    32
  0
VERTEX
  8
0
  5
328BB
 10
897.987
 20
411.809
 30
0.000000
  70
    32
  0
VERTEX
  8
0
  5
328BC
 10
897.747
 20
410.855
 30
0.000000
  70
    32
  0
VERTEX
  8
0
  5
328BD
 10
897.515
 20
409.896
 30
0.000000
  70
    32
  0
VERTEX
  8
0
  5
328BE
 10
897.293
 20
408.933
 30
0.000000
  70
    32
  0
VERTEX
  8
0
  5
328BF
 10
897.080
 20
407.966
 30
0.000000
  70
    32
  0
VERTEX
  8
0
  5
328C0
 10
896.875
 20
406.994
 30
0.000000
  70
    32
  0
VERTEX
  8
0
  5
328C1
 10
896.680
 20
406.018
 30
0.000000
  70
    32
  0
VERTEX
  8
0
  5
328C2
 10
896.494
 20
405.039
 30
0.000000
  70
    32
  0
VERTEX
  8
0
  5
328C3
 10
896.317
 20
404.056
 30
0.000000
  70
    32
  0
VERTEX
  8
0
  5
328C4
 10
896.150
 20
403.069
 30
0.000000
  70
    32
  0
VERTEX
  8
0
  5
328C5
 10
895.991
 20
402.079
 30
0.000000
  70
    32
  0
VERTEX
  8
0
  5
328C6
 10
895.842
 20
401.087
 30
0.000000
  70
    32
  0
VERTEX
  8
0
  5
328C7
 10
895.702
 20
400.091
 30
0.000000
  70
    32
  0
VERTEX
  8
0
  5
328C8
 10
895.571
 20
399.093
 30
0.000000
  70
    32
  0
VERTEX
  8
0
  5
328C9
 10
895.450
 20
398.092
 30
0.000000
  70
    32
  0
VERTEX
  8
0
  5
328CA
 10
895.338
 20
397.088
 30
0.000000
  70
    32
  0
VERTEX
  8
0
  5
328CB
 10
895.236
 20
396.083
 30
0.000000
  70
    32
  0
VERTEX
  8
0
  5
328CC
 10
895.142
 20
395.076
 30
0.000000
  70
    32
  0
VERTEX
  8
0
  5
328CD
 10
895.059
 20
394.067
 30
0.000000
  70
    32
  0
VERTEX
  8
0
  5
328CE
 10
894.984
 20
393.056
 30
0.000000
  70
    32
  0
VERTEX
  8
0
  5
328CF
 10
894.919
 20
392.044
 30
0.000000
  70
    32
  0
VERTEX
  8
0
  5
328D0
 10
894.864
 20
391.031
 30
0.000000
  70
    32
  0
VERTEX
  8
0
  5
328D1
 10
894.818
 20
390.016
 30
0.000000
  70
    32
  0
VERTEX
  8
0
  5
328D2
 10
894.782
 20
389.001
 30
0.000000
  70
    32
  0
VERTEX
  8
0
  5
328D3
 10
894.755
 20
387.986
 30
0.000000
  70
    32
  0
VERTEX
  8
0
  5
328D4
 10
894.737
 20
386.970
 30
0.000000
  70
    32
  0
VERTEX
  8
0
  5
328D5
 10
894.729
 20
385.953
 30
0.000000
  70
    32
  0
VERTEX
  8
0
  5
328D6
 10
894.731
 20
384.937
 30
0.000000
  70
    32
  0
VERTEX
  8
0
  5
328D7
 10
894.742
 20
383.920
 30
0.000000
  70
    32
  0
VERTEX
  8
0
  5
328D8
 10
894.762
 20
382.904
 30
0.000000
  70
    32
  0
VERTEX
  8
0
  5
328D9
 10
894.792
 20
381.889
 30
0.000000
  70
    32
  0
VERTEX
  8
0
  5
328DA
 10
894.831
 20
380.874
 30
0.000000
  70
    32
  0
VERTEX
  8
0
  5
328DB
 10
894.880
 20
379.860
 30
0.000000
  70
    32
  0
VERTEX
  8
0
  5
328DC
 10
894.939
 20
378.847
 30
0.000000
  70
    32
  0
VERTEX
  8
0
  5
328DD
 10
895.006
 20
377.835
 30
0.000000
  70
    32
  0
VERTEX
  8
0
  5
328DE
 10
895.084
 20
376.825
 30
0.000000
  70
    32
  0
VERTEX
  8
0
  5
328DF
 10
895.170
 20
375.817
 30
0.000000
  70
    32
  0
VERTEX
  8
0
  5
328E0
 10
895.266
 20
374.810
 30
0.000000
  70
    32
  0
VERTEX
  8
0
  5
328E1
 10
895.372
 20
373.805
 30
0.000000
  70
    32
  0
VERTEX
  8
0
  5
328E2
 10
895.487
 20
372.803
 30
0.000000
  70
    32
  0
VERTEX
  8
0
  5
328E3
 10
895.611
 20
371.803
 30
0.000000
  70
    32
  0
VERTEX
  8
0
  5
328E4
 10
895.744
 20
370.805
 30
0.000000
  70
    32
  0
VERTEX
  8
0
  5
328E5
 10
895.887
 20
369.810
 30
0.000000
  70
    32
  0
VERTEX
  8
0
  5
328E6
 10
896.039
 20
368.818
 30
0.000000
  70
    32
  0
VERTEX
  8
0
  5
328E7
 10
896.201
 20
367.829
 30
0.000000
  70
    32
  0
VERTEX
  8
0
  5
328E8
 10
896.371
 20
366.844
 30
0.000000
  70
    32
  0
VERTEX
  8
0
  5
328E9
 10
896.551
 20
365.862
 30
0.000000
  70
    32
  0
VERTEX
  8
0
  5
328EA
 10
896.740
 20
364.884
 30
0.000000
  70
    32
  0
VERTEX
  8
0
  5
328EB
 10
896.938
 20
363.909
 30
0.000000
  70
    32
  0
VERTEX
  8
0
  5
328EC
 10
897.145
 20
362.939
 30
0.000000
  70
    32
  0
VERTEX
  8
0
  5
328ED
 10
897.361
 20
361.973
 30
0.000000
  70
    32
  0
VERTEX
  8
0
  5
328EE
 10
897.586
 20
361.011
 30
0.000000
  70
    32
  0
VERTEX
  8
0
  5
328EF
 10
897.820
 20
360.054
 30
0.000000
  70
    32
  0
VERTEX
  8
0
  5
328F0
 10
898.063
 20
359.101
 30
0.000000
  70
    32
  0
VERTEX
  8
0
  5
328F1
 10
898.315
 20
358.154
 30
0.000000
  70
    32
  0
VERTEX
  8
0
  5
328F2
 10
898.576
 20
357.211
 30
0.000000
  70
    32
  0
VERTEX
  8
0
  5
328F3
 10
898.845
 20
356.274
 30
0.000000
  70
    32
  0
VERTEX
  8
0
  5
328F4
 10
899.123
 20
355.343
 30
0.000000
  70
    32
  0
VERTEX
  8
0
  5
328F5
 10
899.410
 20
354.417
 30
0.000000
  70
    32
  0
VERTEX
  8
0
  5
328F6
 10
899.706
 20
353.496
 30
0.000000
  70
    32
  0
VERTEX
  8
0
  5
328F7
 10
900.010
 20
352.582
 30
0.000000
  70
    32
  0
VERTEX
  8
0
  5
328F8
 10
900.322
 20
351.674
 30
0.000000
  70
    32
  0
VERTEX
  8
0
  5
328F9
 10
900.643
 20
350.772
 30
0.000000
  70
    32
  0
VERTEX
  8
0
  5
328FA
 10
900.973
 20
349.877
 30
0.000000
  70
    32
  0
VERTEX
  8
0
  5
328FB
 10
901.310
 20
348.988
 30
0.000000
  70
    32
  0
VERTEX
  8
0
  5
328FC
 10
901.656
 20
348.106
 30
0.000000
  70
    32
  0
VERTEX
  8
0
  5
328FD
 10
902.010
 20
347.231
 30
0.000000
  70
    32
  0
VERTEX
  8
0
  5
328FE
 10
902.373
 20
346.364
 30
0.000000
  70
    32
  0
VERTEX
  8
0
  5
328FF
 10
902.743
 20
345.503
 30
0.000000
  70
    32
  0
VERTEX
  8
0
  5
32900
 10
903.122
 20
344.650
 30
0.000000
  70
    32
  0
VERTEX
  8
0
  5
32901
 10
903.508
 20
343.805
 30
0.000000
  70
    32
  0
VERTEX
  8
0
  5
32902
 10
903.902
 20
342.967
 30
0.000000
  70
    32
  0
VERTEX
  8
0
  5
32903
 10
904.304
 20
342.138
 30
0.000000
  70
    32
  0
VERTEX
  8
0
  5
32904
 10
904.714
 20
341.316
 30
0.000000
  70
    32
  0
VERTEX
  8
0
  5
32905
 10
905.131
 20
340.503
 30
0.000000
  70
    32
  0
VERTEX
  8
0
  5
32906
 10
905.556
 20
339.698
 30
0.000000
  70
    32
  0
VERTEX
  8
0
  5
32907
 10
905.988
 20
338.901
 30
0.000000
  70
    32
  0
VERTEX
  8
0
  5
32908
 10
906.428
 20
338.114
 30
0.000000
  70
    32
  0
VERTEX
  8
0
  5
32909
 10
906.875
 20
337.335
 30
0.000000
  70
    32
  0
VERTEX
  8
0
  5
3290A
 10
907.329
 20
336.565
 30
0.000000
  70
    32
  0
VERTEX
  8
0
  5
3290B
 10
907.791
 20
335.804
 30
0.000000
  70
    32
  0
VERTEX
  8
0
  5
3290C
 10
908.259
 20
335.053
 30
0.000000
  70
    32
  0
VERTEX
  8
0
  5
3290D
 10
908.735
 20
334.311
 30
0.000000
  70
    32
  0
VERTEX
  8
0
  5
3290E
 10
909.217
 20
333.578
 30
0.000000
  70
    32
  0
VERTEX
  8
0
  5
3290F
 10
909.706
 20
332.855
 30
0.000000
  70
    32
  0
VERTEX
  8
0
  5
32910
 10
910.202
 20
332.142
 30
0.000000
  70
    32
  0
VERTEX
  8
0
  5
32911
 10
910.704
 20
331.439
 30
0.000000
  70
    32
  0
VERTEX
  8
0
  5
32912
 10
911.213
 20
330.746
 30
0.000000
  70
    32
  0
VERTEX
  8
0
  5
32913
 10
911.729
 20
330.063
 30
0.000000
  70
    32
  0
SEQEND
  8
0
  5
32914
  0
POLYLINE
  5
3235C
  8
0
 10
979.7285624395081
 20
330.06332046775515
 30
0.0
 66
     1
 70
     8
  0
VERTEX
  8
0
  5
32915
 10
979.729
 20
330.063
 30
0.000000
  70
    32
  0
VERTEX
  8
0
  5
32916
 10
980.244
 20
330.746
 30
0.000000
  70
    32
  0
VERTEX
  8
0
  5
32917
 10
980.753
 20
331.439
 30
0.000000
  70
    32
  0
VERTEX
  8
0
  5
32918
 10
981.255
 20
332.142
 30
0.000000
  70
    32
  0
VERTEX
  8
0
  5
32919
 10
981.751
 20
332.855
 30
0.000000
  70
    32
  0
VERTEX
  8
0
  5
3291A
 10
982.240
 20
333.578
 30
0.000000
  70
    32
  0
VERTEX
  8
0
  5
3291B
 10
982.723
 20
334.311
 30
0.000000
  70
    32
  0
VERTEX
  8
0
  5
3291C
 10
983.198
 20
335.053
 30
0.000000
  70
    32
  0
VERTEX
  8
0
  5
3291D
 10
983.667
 20
335.804
 30
0.000000
  70
    32
  0
VERTEX
  8
0
  5
3291E
 10
984.128
 20
336.565
 30
0.000000
  70
    32
  0
VERTEX
  8
0
  5
3291F
 10
984.582
 20
337.335
 30
0.000000
  70
    32
  0
VERTEX
  8
0
  5
32920
 10
985.029
 20
338.114
 30
0.000000
  70
    32
  0
VERTEX
  8
0
  5
32921
 10
985.469
 20
338.901
 30
0.000000
  70
    32
  0
VERTEX
  8
0
  5
32922
 10
985.901
 20
339.698
 30
0.000000
  70
    32
  0
VERTEX
  8
0
  5
32923
 10
986.326
 20
340.503
 30
0.000000
  70
    32
  0
VERTEX
  8
0
  5
32924
 10
986.743
 20
341.316
 30
0.000000
  70
    32
  0
VERTEX
  8
0
  5
32925
 10
987.153
 20
342.138
 30
0.000000
  70
    32
  0
VERTEX
  8
0
  5
32926
 10
987.555
 20
342.967
 30
0.000000
  70
    32
  0
VERTEX
  8
0
  5
32927
 10
987.949
 20
343.805
 30
0.000000
  70
    32
  0
VERTEX
  8
0
  5
32928
 10
988.336
 20
344.650
 30
0.000000
  70
    32
  0
VERTEX
  8
0
  5
32929
 10
988.714
 20
345.503
 30
0.000000
  70
    32
  0
VERTEX
  8
0
  5
3292A
 10
989.084
 20
346.364
 30
0.000000
  70
    32
  0
VERTEX
  8
0
  5
3292B
 10
989.447
 20
347.231
 30
0.000000
  70
    32
  0
VERTEX
  8
0
  5
3292C
 10
989.801
 20
348.106
 30
0.000000
  70
    32
  0
VERTEX
  8
0
  5
3292D
 10
990.147
 20
348.988
 30
0.000000
  70
    32
  0
VERTEX
  8
0
  5
3292E
 10
990.485
 20
349.877
 30
0.000000
  70
    32
  0
VERTEX
  8
0
  5
3292F
 10
990.814
 20
350.772
 30
0.000000
  70
    32
  0
VERTEX
  8
0
  5
32930
 10
991.135
 20
351.674
 30
0.000000
  70
    32
  0
VERTEX
  8
0
  5
32931
 10
991.447
 20
352.582
 30
0.000000
  70
    32
  0
VERTEX
  8
0
  5
32932
 10
991.752
 20
353.496
 30
0.000000
  70
    32
  0
VERTEX
  8
0
  5
32933
 10
992.047
 20
354.417
 30
0.000000
  70
    32
  0
VERTEX
  8
0
  5
32934
 10
992.334
 20
355.343
 30
0.000000
  70
    32
  0
VERTEX
  8
0
  5
32935
 10
992.612
 20
356.274
 30
0.000000
  70
    32
  0
VERTEX
  8
0
  5
32936
 10
992.881
 20
357.211
 30
0.000000
  70
    32
  0
VERTEX
  8
0
  5
32937
 10
993.142
 20
358.154
 30
0.000000
  70
    32
  0
VERTEX
  8
0
  5
32938
 10
993.394
 20
359.101
 30
0.000000
  70
    32
  0
VERTEX
  8
0
  5
32939
 10
993.637
 20
360.054
 30
0.000000
  70
    32
  0
VERTEX
  8
0
  5
3293A
 10
993.871
 20
361.011
 30
0.000000
  70
    32
  0
VERTEX
  8
0
  5
3293B
 10
994.096
 20
361.973
 30
0.000000
  70
    32
  0
VERTEX
  8
0
  5
3293C
 10
994.312
 20
362.939
 30
0.000000
  70
    32
  0
VERTEX
  8
0
  5
3293D
 10
994.519
 20
363.909
 30
0.000000
  70
    32
  0
VERTEX
  8
0
  5
3293E
 10
994.717
 20
364.884
 30
0.000000
  70
    32
  0
VERTEX
  8
0
  5
3293F
 10
994.906
 20
365.862
 30
0.000000
  70
    32
  0
VERTEX
  8
0
  5
32940
 10
995.086
 20
366.844
 30
0.000000
  70
    32
  0
VERTEX
  8
0
  5
32941
 10
995.257
 20
367.829
 30
0.000000
  70
    32
  0
VERTEX
  8
0
  5
32942
 10
995.418
 20
368.818
 30
0.000000
  70
    32
  0
VERTEX
  8
0
  5
32943
 10
995.570
 20
369.810
 30
0.000000
  70
    32
  0
VERTEX
  8
0
  5
32944
 10
995.713
 20
370.805
 30
0.000000
  70
    32
  0
VERTEX
  8
0
  5
32945
 10
995.846
 20
371.803
 30
0.000000
  70
    32
  0
VERTEX
  8
0
  5
32946
 10
995.970
 20
372.803
 30
0.000000
  70
    32
  0
VERTEX
  8
0
  5
32947
 10
996.085
 20
373.805
 30
0.000000
  70
    32
  0
VERTEX
  8
0
  5
32948
 10
996.191
 20
374.810
 30
0.000000
  70
    32
  0
VERTEX
  8
0
  5
32949
 10
996.287
 20
375.817
 30
0.000000
  70
    32
  0
VERTEX
  8
0
  5
3294A
 10
996.374
 20
376.825
 30
0.000000
  70
    32
  0
VERTEX
  8
0
  5
3294B
 10
996.451
 20
377.835
 30
0.000000
  70
    32
  0
VERTEX
  8
0
  5
3294C
 10
996.519
 20
378.847
 30
0.000000
  70
    32
  0
VERTEX
  8
0
  5
3294D
 10
996.577
 20
379.860
 30
0.000000
  70
    32
  0
VERTEX
  8
0
  5
3294E
 10
996.626
 20
380.874
 30
0.000000
  70
    32
  0
VERTEX
  8
0
  5
3294F
 10
996.665
 20
381.889
 30
0.000000
  70
    32
  0
VERTEX
  8
0
  5
32950
 10
996.695
 20
382.904
 30
0.000000
  70
    32
  0
VERTEX
  8
0
  5
32951
 10
996.716
 20
383.920
 30
0.000000
  70
    32
  0
VERTEX
  8
0
  5
32952
 10
996.727
 20
384.937
 30
0.000000
  70
    32
  0
VERTEX
  8
0
  5
32953
 10
996.728
 20
385.953
 30
0.000000
  70
    32
  0
VERTEX
  8
0
  5
32954
 10
996.720
 20
386.970
 30
0.000000
  70
    32
  0
VERTEX
  8
0
  5
32955
 10
996.702
 20
387.986
 30
0.000000
  70
    32
  0
VERTEX
  8
0
  5
32956
 10
996.675
 20
389.001
 30
0.000000
  70
    32
  0
VERTEX
  8
0
  5
32957
 10
996.639
 20
390.016
 30
0.000000
  70
    32
  0
VERTEX
  8
0
  5
32958
 10
996.593
 20
391.031
 30
0.000000
  70
    32
  0
VERTEX
  8
0
  5
32959
 10
996.538
 20
392.044
 30
0.000000
  70
    32
  0
VERTEX
  8
0
  5
3295A
 10
996.473
 20
393.056
 30
0.000000
  70
    32
  0
VERTEX
  8
0
  5
3295B
 10
996.398
 20
394.067
 30
0.000000
  70
    32
  0
VERTEX
  8
0
  5
3295C
 10
996.315
 20
395.076
 30
0.000000
  70
    32
  0
VERTEX
  8
0
  5
3295D
 10
996.222
 20
396.083
 30
0.000000
  70
    32
  0
VERTEX
  8
0
  5
3295E
 10
996.119
 20
397.088
 30
0.000000
  70
    32
  0
VERTEX
  8
0
  5
3295F
 10
996.007
 20
398.092
 30
0.000000
  70
    32
  0
VERTEX
  8
0
  5
32960
 10
995.886
 20
399.093
 30
0.000000
  70
    32
  0
VERTEX
  8
0
  5
32961
 10
995.755
 20
400.091
 30
0.000000
  70
    32
  0
VERTEX
  8
0
  5
32962
 10
995.615
 20
401.087
 30
0.000000
  70
    32
  0
VERTEX
  8
0
  5
32963
 10
995.466
 20
402.079
 30
0.000000
  70
    32
  0
VERTEX
  8
0
  5
32964
 10
995.308
 20
403.069
 30
0.000000
  70
    32
  0
VERTEX
  8
0
  5
32965
 10
995.140
 20
404.056
 30
0.000000
  70
    32
  0
VERTEX
  8
0
  5
32966
 10
994.963
 20
405.039
 30
0.000000
  70
    32
  0
VERTEX
  8
0
  5
32967
 10
994.777
 20
406.018
 30
0.000000
  70
    32
  0
VERTEX
  8
0
  5
32968
 10
994.582
 20
406.994
 30
0.000000
  70
    32
  0
VERTEX
  8
0
  5
32969
 10
994.377
 20
407.966
 30
0.000000
  70
    32
  0
VERTEX
  8
0
  5
3296A
 10
994.164
 20
408.933
 30
0.000000
  70
    32
  0
VERTEX
  8
0
  5
3296B
 10
993.942
 20
409.896
 30
0.000000
  70
    32
  0
VERTEX
  8
0
  5
3296C
 10
993.711
 20
410.855
 30
0.000000
  70
    32
  0
VERTEX
  8
0
  5
3296D
 10
993.470
 20
411.809
 30
0.000000
  70
    32
  0
VERTEX
  8
0
  5
3296E
 10
993.221
 20
412.758
 30
0.000000
  70
    32
  0
VERTEX
  8
0
  5
3296F
 10
992.963
 20
413.702
 30
0.000000
  70
    32
  0
VERTEX
  8
0
  5
32970
 10
992.696
 20
414.641
 30
0.000000
  70
    32
  0
VERTEX
  8
0
  5
32971
 10
992.421
 20
415.574
 30
0.000000
  70
    32
  0
VERTEX
  8
0
  5
32972
 10
992.137
 20
416.502
 30
0.000000
  70
    32
  0
VERTEX
  8
0
  5
32973
 10
991.844
 20
417.424
 30
0.000000
  70
    32
  0
VERTEX
  8
0
  5
32974
 10
991.543
 20
418.340
 30
0.000000
  70
    32
  0
VERTEX
  8
0
  5
32975
 10
991.233
 20
419.250
 30
0.000000
  70
    32
  0
VERTEX
  8
0
  5
32976
 10
990.914
 20
420.154
 30
0.000000
  70
    32
  0
VERTEX
  8
0
  5
32977
 10
990.588
 20
421.051
 30
0.000000
  70
    32
  0
VERTEX
  8
0
  5
32978
 10
990.252
 20
421.942
 30
0.000000
  70
    32
  0
VERTEX
  8
0
  5
32979
 10
989.909
 20
422.826
 30
0.000000
  70
    32
  0
VERTEX
  8
0
  5
3297A
 10
989.557
 20
423.703
 30
0.000000
  70
    32
  0
VERTEX
  8
0
  5
3297B
 10
989.197
 20
424.573
 30
0.000000
  70
    32
  0
VERTEX
  8
0
  5
3297C
 10
988.830
 20
425.436
 30
0.000000
  70
    32
  0
VERTEX
  8
0
  5
3297D
 10
988.454
 20
426.291
 30
0.000000
  70
    32
  0
VERTEX
  8
0
  5
3297E
 10
988.070
 20
427.139
 30
0.000000
  70
    32
  0
VERTEX
  8
0
  5
3297F
 10
987.678
 20
427.979
 30
0.000000
  70
    32
  0
VERTEX
  8
0
  5
32980
 10
987.279
 20
428.811
 30
0.000000
  70
    32
  0
VERTEX
  8
0
  5
32981
 10
986.871
 20
429.635
 30
0.000000
  70
    32
  0
VERTEX
  8
0
  5
32982
 10
986.456
 20
430.451
 30
0.000000
  70
    32
  0
VERTEX
  8
0
  5
32983
 10
986.034
 20
431.258
 30
0.000000
  70
    32
  0
VERTEX
  8
0
  5
32984
 10
985.604
 20
432.058
 30
0.000000
  70
    32
  0
VERTEX
  8
0
  5
32985
 10
985.166
 20
432.848
 30
0.000000
  70
    32
  0
VERTEX
  8
0
  5
32986
 10
984.722
 20
433.630
 30
0.000000
  70
    32
  0
VERTEX
  8
0
  5
32987
 10
984.269
 20
434.402
 30
0.000000
  70
    32
  0
VERTEX
  8
0
  5
32988
 10
983.810
 20
435.166
 30
0.000000
  70
    32
  0
VERTEX
  8
0
  5
32989
 10
983.344
 20
435.920
 30
0.000000
  70
    32
  0
VERTEX
  8
0
  5
3298A
 10
982.871
 20
436.665
 30
0.000000
  70
    32
  0
VERTEX
  8
0
  5
3298B
 10
982.390
 20
437.401
 30
0.000000
  70
    32
  0
VERTEX
  8
0
  5
3298C
 10
981.903
 20
438.127
 30
0.000000
  70
    32
  0
VERTEX
  8
0
  5
3298D
 10
981.410
 20
438.843
 30
0.000000
  70
    32
  0
VERTEX
  8
0
  5
3298E
 10
980.909
 20
439.549
 30
0.000000
  70
    32
  0
VERTEX
  8
0
  5
3298F
 10
980.402
 20
440.245
 30
0.000000
  70
    32
  0
VERTEX
  8
0
  5
32990
 10
979.889
 20
440.931
 30
0.000000
  70
    32
  0
VERTEX
  8
0
  5
32991
 10
979.369
 20
441.607
 30
0.000000
  70
    32
  0
VERTEX
  8
0
  5
32992
 10
978.843
 20
442.272
 30
0.000000
  70
    32
  0
VERTEX
  8
0
  5
32993
 10
978.311
 20
442.927
 30
0.000000
  70
    32
  0
VERTEX
  8
0
  5
32994
 10
977.773
 20
443.571
 30
0.000000
  70
    32
  0
VERTEX
  8
0
  5
32995
 10
977.229
 20
444.204
 30
0.000000
  70
    32
  0
SEQEND
  8
0
  5
32996
  0
POLYLINE
  5
3235D
  8
0
 10
973.38131209774076
 20
448.21176950677568
 30
0.0
 66
     1
 70
     8
  0
VERTEX
  8
0
  5
32997
 10
973.381
 20
448.212
 30
0.000000
  70
    32
  0
VERTEX
  8
0
  5
32998
 10
972.997
 20
448.571
 30
0.000000
  70
    32
  0
VERTEX
  8
0
  5
32999
 10
972.610
 20
448.925
 30
0.000000
  70
    32
  0
VERTEX
  8
0
  5
3299A
 10
972.220
 20
449.274
 30
0.000000
  70
    32
  0
VERTEX
  8
0
  5
3299B
 10
971.829
 20
449.618
 30
0.000000
  70
    32
  0
VERTEX
  8
0
  5
3299C
 10
971.436
 20
449.957
 30
0.000000
  70
    32
  0
VERTEX
  8
0
  5
3299D
 10
971.040
 20
450.291
 30
0.000000
  70
    32
  0
VERTEX
  8
0
  5
3299E
 10
970.643
 20
450.620
 30
0.000000
  70
    32
  0
VERTEX
  8
0
  5
3299F
 10
970.243
 20
450.943
 30
0.000000
  70
    32
  0
VERTEX
  8
0
  5
329A0
 10
969.842
 20
451.261
 30
0.000000
  70
    32
  0
VERTEX
  8
0
  5
329A1
 10
969.439
 20
451.574
 30
0.000000
  70
    32
  0
VERTEX
  8
0
  5
329A2
 10
969.033
 20
451.881
 30
0.000000
  70
    32
  0
VERTEX
  8
0
  5
329A3
 10
968.626
 20
452.184
 30
0.000000
  70
    32
  0
VERTEX
  8
0
  5
329A4
 10
968.217
 20
452.480
 30
0.000000
  70
    32
  0
VERTEX
  8
0
  5
329A5
 10
967.806
 20
452.772
 30
0.000000
  70
    32
  0
VERTEX
  8
0
  5
329A6
 10
967.394
 20
453.058
 30
0.000000
  70
    32
  0
VERTEX
  8
0
  5
329A7
 10
966.980
 20
453.339
 30
0.000000
  70
    32
  0
VERTEX
  8
0
  5
329A8
 10
966.564
 20
453.614
 30
0.000000
  70
    32
  0
VERTEX
  8
0
  5
329A9
 10
966.146
 20
453.884
 30
0.000000
  70
    32
  0
VERTEX
  8
0
  5
329AA
 10
965.727
 20
454.148
 30
0.000000
  70
    32
  0
VERTEX
  8
0
  5
329AB
 10
965.306
 20
454.407
 30
0.000000
  70
    32
  0
VERTEX
  8
0
  5
329AC
 10
964.883
 20
454.661
 30
0.000000
  70
    32
  0
VERTEX
  8
0
  5
329AD
 10
964.459
 20
454.908
 30
0.000000
  70
    32
  0
VERTEX
  8
0
  5
329AE
 10
964.034
 20
455.151
 30
0.000000
  70
    32
  0
VERTEX
  8
0
  5
329AF
 10
963.607
 20
455.387
 30
0.000000
  70
    32
  0
VERTEX
  8
0
  5
329B0
 10
963.179
 20
455.618
 30
0.000000
  70
    32
  0
VERTEX
  8
0
  5
329B1
 10
962.749
 20
455.844
 30
0.000000
  70
    32
  0
VERTEX
  8
0
  5
329B2
 10
962.318
 20
456.064
 30
0.000000
  70
    32
  0
VERTEX
  8
0
  5
329B3
 10
961.885
 20
456.278
 30
0.000000
  70
    32
  0
VERTEX
  8
0
  5
329B4
 10
961.451
 20
456.486
 30
0.000000
  70
    32
  0
VERTEX
  8
0
  5
329B5
 10
961.016
 20
456.689
 30
0.000000
  70
    32
  0
VERTEX
  8
0
  5
329B6
 10
960.580
 20
456.886
 30
0.000000
  70
    32
  0
VERTEX
  8
0
  5
329B7
 10
960.143
 20
457.078
 30
0.000000
  70
    32
  0
VERTEX
  8
0
  5
329B8
 10
959.704
 20
457.264
 30
0.000000
  70
    32
  0
VERTEX
  8
0
  5
329B9
 10
959.264
 20
457.444
 30
0.000000
  70
    32
  0
VERTEX
  8
0
  5
329BA
 10
958.823
 20
457.618
 30
0.000000
  70
    32
  0
VERTEX
  8
0
  5
329BB
 10
958.382
 20
457.786
 30
0.000000
  70
    32
  0
VERTEX
  8
0
  5
329BC
 10
957.939
 20
457.949
 30
0.000000
  70
    32
  0
VERTEX
  8
0
  5
329BD
 10
957.495
 20
458.106
 30
0.000000
  70
    32
  0
VERTEX
  8
0
  5
329BE
 10
957.050
 20
458.257
 30
0.000000
  70
    32
  0
VERTEX
  8
0
  5
329BF
 10
956.604
 20
458.402
 30
0.000000
  70
    32
  0
VERTEX
  8
0
  5
329C0
 10
956.158
 20
458.541
 30
0.000000
  70
    32
  0
VERTEX
  8
0
  5
329C1
 10
955.710
 20
458.675
 30
0.000000
  70
    32
  0
VERTEX
  8
0
  5
329C2
 10
955.262
 20
458.802
 30
0.000000
  70
    32
  0
VERTEX
  8
0
  5
329C3
 10
954.813
 20
458.924
 30
0.000000
  70
    32
  0
VERTEX
  8
0
  5
329C4
 10
954.363
 20
459.040
 30
0.000000
  70
    32
  0
VERTEX
  8
0
  5
329C5
 10
953.913
 20
459.150
 30
0.000000
  70
    32
  0
VERTEX
  8
0
  5
329C6
 10
953.462
 20
459.254
 30
0.000000
  70
    32
  0
VERTEX
  8
0
  5
329C7
 10
953.010
 20
459.352
 30
0.000000
  70
    32
  0
VERTEX
  8
0
  5
329C8
 10
952.558
 20
459.445
 30
0.000000
  70
    32
  0
VERTEX
  8
0
  5
329C9
 10
952.105
 20
459.531
 30
0.000000
  70
    32
  0
VERTEX
  8
0
  5
329CA
 10
951.652
 20
459.612
 30
0.000000
  70
    32
  0
VERTEX
  8
0
  5
329CB
 10
951.198
 20
459.686
 30
0.000000
  70
    32
  0
VERTEX
  8
0
  5
329CC
 10
950.744
 20
459.755
 30
0.000000
  70
    32
  0
VERTEX
  8
0
  5
329CD
 10
950.289
 20
459.817
 30
0.000000
  70
    32
  0
VERTEX
  8
0
  5
329CE
 10
949.834
 20
459.874
 30
0.000000
  70
    32
  0
VERTEX
  8
0
  5
329CF
 10
949.379
 20
459.925
 30
0.000000
  70
    32
  0
VERTEX
  8
0
  5
329D0
 10
948.923
 20
459.970
 30
0.000000
  70
    32
  0
VERTEX
  8
0
  5
329D1
 10
948.467
 20
460.008
 30
0.000000
  70
    32
  0
VERTEX
  8
0
  5
329D2
 10
948.011
 20
460.041
 30
0.000000
  70
    32
  0
VERTEX
  8
0
  5
329D3
 10
947.555
 20
460.068
 30
0.000000
  70
    32
  0
VERTEX
  8
0
  5
329D4
 10
947.098
 20
460.089
 30
0.000000
  70
    32
  0
VERTEX
  8
0
  5
329D5
 10
946.642
 20
460.104
 30
0.000000
  70
    32
  0
VERTEX
  8
0
  5
329D6
 10
946.185
 20
460.113
 30
0.000000
  70
    32
  0
VERTEX
  8
0
  5
329D7
 10
945.729
 20
460.116
 30
0.000000
  70
    32
  0
VERTEX
  8
0
  5
329D8
 10
945.272
 20
460.113
 30
0.000000
  70
    32
  0
VERTEX
  8
0
  5
329D9
 10
944.815
 20
460.104
 30
0.000000
  70
    32
  0
VERTEX
  8
0
  5
329DA
 10
944.359
 20
460.089
 30
0.000000
  70
    32
  0
VERTEX
  8
0
  5
329DB
 10
943.902
 20
460.068
 30
0.000000
  70
    32
  0
VERTEX
  8
0
  5
329DC
 10
943.446
 20
460.041
 30
0.000000
  70
    32
  0
VERTEX
  8
0
  5
329DD
 10
942.990
 20
460.008
 30
0.000000
  70
    32
  0
VERTEX
  8
0
  5
329DE
 10
942.534
 20
459.970
 30
0.000000
  70
    32
  0
VERTEX
  8
0
  5
329DF
 10
942.078
 20
459.925
 30
0.000000
  70
    32
  0
VERTEX
  8
0
  5
329E0
 10
941.623
 20
459.874
 30
0.000000
  70
    32
  0
VERTEX
  8
0
  5
329E1
 10
941.168
 20
459.817
 30
0.000000
  70
    32
  0
VERTEX
  8
0
  5
329E2
 10
940.713
 20
459.755
 30
0.000000
  70
    32
  0
VERTEX
  8
0
  5
329E3
 10
940.259
 20
459.686
 30
0.000000
  70
    32
  0
VERTEX
  8
0
  5
329E4
 10
939.805
 20
459.612
 30
0.000000
  70
    32
  0
VERTEX
  8
0
  5
329E5
 10
939.352
 20
459.531
 30
0.000000
  70
    32
  0
VERTEX
  8
0
  5
329E6
 10
938.899
 20
459.445
 30
0.000000
  70
    32
  0
VERTEX
  8
0
  5
329E7
 10
938.447
 20
459.352
 30
0.000000
  70
    32
  0
VERTEX
  8
0
  5
329E8
 10
937.995
 20
459.254
 30
0.000000
  70
    32
  0
VERTEX
  8
0
  5
329E9
 10
937.544
 20
459.150
 30
0.000000
  70
    32
  0
VERTEX
  8
0
  5
329EA
 10
937.094
 20
459.040
 30
0.000000
  70
    32
  0
VERTEX
  8
0
  5
329EB
 10
936.644
 20
458.924
 30
0.000000
  70
    32
  0
VERTEX
  8
0
  5
329EC
 10
936.195
 20
458.802
 30
0.000000
  70
    32
  0
VERTEX
  8
0
  5
329ED
 10
935.747
 20
458.675
 30
0.000000
  70
    32
  0
VERTEX
  8
0
  5
329EE
 10
935.299
 20
458.541
 30
0.000000
  70
    32
  0
VERTEX
  8
0
  5
329EF
 10
934.853
 20
458.402
 30
0.000000
  70
    32
  0
VERTEX
  8
0
  5
329F0
 10
934.407
 20
458.257
 30
0.000000
  70
    32
  0
VERTEX
  8
0
  5
329F1
 10
933.962
 20
458.106
 30
0.000000
  70
    32
  0
VERTEX
  8
0
  5
329F2
 10
933.518
 20
457.949
 30
0.000000
  70
    32
  0
VERTEX
  8
0
  5
329F3
 10
933.076
 20
457.786
 30
0.000000
  70
    32
  0
VERTEX
  8
0
  5
329F4
 10
932.634
 20
457.618
 30
0.000000
  70
    32
  0
VERTEX
  8
0
  5
329F5
 10
932.193
 20
457.444
 30
0.000000
  70
    32
  0
VERTEX
  8
0
  5
329F6
 10
931.753
 20
457.264
 30
0.000000
  70
    32
  0
VERTEX
  8
0
  5
329F7
 10
931.315
 20
457.078
 30
0.000000
  70
    32
  0
VERTEX
  8
0
  5
329F8
 10
930.877
 20
456.886
 30
0.000000
  70
    32
  0
VERTEX
  8
0
  5
329F9
 10
930.441
 20
456.689
 30
0.000000
  70
    32
  0
VERTEX
  8
0
  5
329FA
 10
930.006
 20
456.486
 30
0.000000
  70
    32
  0
VERTEX
  8
0
  5
329FB
 10
929.572
 20
456.278
 30
0.000000
  70
    32
  0
VERTEX
  8
0
  5
329FC
 10
929.139
 20
456.064
 30
0.000000
  70
    32
  0
VERTEX
  8
0
  5
329FD
 10
928.708
 20
455.844
 30
0.000000
  70
    32
  0
VERTEX
  8
0
  5
329FE
 10
928.279
 20
455.618
 30
0.000000
  70
    32
  0
VERTEX
  8
0
  5
329FF
 10
927.850
 20
455.387
 30
0.000000
  70
    32
  0
VERTEX
  8
0
  5
32A00
 10
927.423
 20
455.151
 30
0.000000
  70
    32
  0
VERTEX
  8
0
  5
32A01
 10
926.998
 20
454.908
 30
0.000000
  70
    32
  0
VERTEX
  8
0
  5
32A02
 10
926.574
 20
454.661
 30
0.000000
  70
    32
  0
VERTEX
  8
0
  5
32A03
 10
926.151
 20
454.407
 30
0.000000
  70
    32
  0
VERTEX
  8
0
  5
32A04
 10
925.730
 20
454.148
 30
0.000000
  70
    32
  0
VERTEX
  8
0
  5
32A05
 10
925.311
 20
453.884
 30
0.000000
  70
    32
  0
VERTEX
  8
0
  5
32A06
 10
924.893
 20
453.614
 30
0.000000
  70
    32
  0
VERTEX
  8
0
  5
32A07
 10
924.477
 20
453.339
 30
0.000000
  70
    32
  0
VERTEX
  8
0
  5
32A08
 10
924.063
 20
453.058
 30
0.000000
  70
    32
  0
VERTEX
  8
0
  5
32A09
 10
923.651
 20
452.772
 30
0.000000
  70
    32
  0
VERTEX
  8
0
  5
32A0A
 10
923.240
 20
452.480
 30
0.000000
  70
    32
  0
VERTEX
  8
0
  5
32A0B
 10
922.831
 20
452.184
 30
0.000000
  70
    32
  0
VERTEX
  8
0
  5
32A0C
 10
922.424
 20
451.881
 30
0.000000
  70
    32
  0
VERTEX
  8
0
  5
32A0D
 10
922.019
 20
451.574
 30
0.000000
  70
    32
  0
VERTEX
  8
0
  5
32A0E
 10
921.615
 20
451.261
 30
0.000000
  70
    32
  0
VERTEX
  8
0
  5
32A0F
 10
921.214
 20
450.943
 30
0.000000
  70
    32
  0
VERTEX
  8
0
  5
32A10
 10
920.814
 20
450.620
 30
0.000000
  70
    32
  0
VERTEX
  8
0
  5
32A11
 10
920.417
 20
450.291
 30
0.000000
  70
    32
  0
VERTEX
  8
0
  5
32A12
 10
920.021
 20
449.957
 30
0.000000
  70
    32
  0
VERTEX
  8
0
  5
32A13
 10
919.628
 20
449.618
 30
0.000000
  70
    32
  0
VERTEX
  8
0
  5
32A14
 10
919.237
 20
449.274
 30
0.000000
  70
    32
  0
VERTEX
  8
0
  5
32A15
 10
918.848
 20
448.925
 30
0.000000
  70
    32
  0
VERTEX
  8
0
  5
32A16
 10
918.461
 20
448.571
 30
0.000000
  70
    32
  0
VERTEX
  8
0
  5
32A17
 10
918.076
 20
448.212
 30
0.000000
  70
    32
  0
SEQEND
  8
0
  5
32A18
  0
LINE
  5
3235E
  8
0
 10
894.72856339318184
 20
470.1158615745897
 30
0.0
 11
996.7285614858331
 21
470.1158615745897
 31
0.0
  0
POLYLINE
  5
3235F
  8
0
 10
965.03334328936285
 20
448.21176950677557
 30
0.0
 66
     1
 70
     8
  0
VERTEX
  8
0
  5
32A19
 10
965.033
 20
448.212
 30
0.000000
  70
    32
  0
VERTEX
  8
0
  5
32A1A
 10
964.750
 20
448.397
 30
0.000000
  70
    32
  0
VERTEX
  8
0
  5
32A1B
 10
964.465
 20
448.579
 30
0.000000
  70
    32
  0
VERTEX
  8
0
  5
32A1C
 10
964.179
 20
448.759
 30
0.000000
  70
    32
  0
VERTEX
  8
0
  5
32A1D
 10
963.893
 20
448.936
 30
0.000000
  70
    32
  0
VERTEX
  8
0
  5
32A1E
 10
963.606
 20
449.110
 30
0.000000
  70
    32
  0
VERTEX
  8
0
  5
32A1F
 10
963.318
 20
449.281
 30
0.000000
  70
    32
  0
VERTEX
  8
0
  5
32A20
 10
963.030
 20
449.450
 30
0.000000
  70
    32
  0
VERTEX
  8
0
  5
32A21
 10
962.740
 20
449.616
 30
0.000000
  70
    32
  0
VERTEX
  8
0
  5
32A22
 10
962.450
 20
449.779
 30
0.000000
  70
    32
  0
VERTEX
  8
0
  5
32A23
 10
962.159
 20
449.939
 30
0.000000
  70
    32
  0
VERTEX
  8
0
  5
32A24
 10
961.868
 20
450.096
 30
0.000000
  70
    32
  0
VERTEX
  8
0
  5
32A25
 10
961.575
 20
450.251
 30
0.000000
  70
    32
  0
VERTEX
  8
0
  5
32A26
 10
961.282
 20
450.402
 30
0.000000
  70
    32
  0
VERTEX
  8
0
  5
32A27
 10
960.989
 20
450.551
 30
0.000000
  70
    32
  0
VERTEX
  8
0
  5
32A28
 10
960.694
 20
450.697
 30
0.000000
  70
    32
  0
VERTEX
  8
0
  5
32A29
 10
960.399
 20
450.841
 30
0.000000
  70
    32
  0
VERTEX
  8
0
  5
32A2A
 10
960.104
 20
450.981
 30
0.000000
  70
    32
  0
VERTEX
  8
0
  5
32A2B
 10
959.807
 20
451.118
 30
0.000000
  70
    32
  0
VERTEX
  8
0
  5
32A2C
 10
959.511
 20
451.253
 30
0.000000
  70
    32
  0
VERTEX
  8
0
  5
32A2D
 10
959.213
 20
451.385
 30
0.000000
  70
    32
  0
VERTEX
  8
0
  5
32A2E
 10
958.915
 20
451.514
 30
0.000000
  70
    32
  0
VERTEX
  8
0
  5
32A2F
 10
958.616
 20
451.640
 30
0.000000
  70
    32
  0
VERTEX
  8
0
  5
32A30
 10
958.317
 20
451.763
 30
0.000000
  70
    32
  0
VERTEX
  8
0
  5
32A31
 10
958.017
 20
451.883
 30
0.000000
  70
    32
  0
VERTEX
  8
0
  5
32A32
 10
957.717
 20
452.000
 30
0.000000
  70
    32
  0
VERTEX
  8
0
  5
32A33
 10
957.416
 20
452.115
 30
0.000000
  70
    32
  0
VERTEX
  8
0
  5
32A34
 10
957.115
 20
452.226
 30
0.000000
  70
    32
  0
VERTEX
  8
0
  5
32A35
 10
956.813
 20
452.335
 30
0.000000
  70
    32
  0
VERTEX
  8
0
  5
32A36
 10
956.511
 20
452.440
 30
0.000000
  70
    32
  0
VERTEX
  8
0
  5
32A37
 10
956.208
 20
452.543
 30
0.000000
  70
    32
  0
VERTEX
  8
0
  5
32A38
 10
955.905
 20
452.643
 30
0.000000
  70
    32
  0
VERTEX
  8
0
  5
32A39
 10
955.601
 20
452.740
 30
0.000000
  70
    32
  0
VERTEX
  8
0
  5
32A3A
 10
955.297
 20
452.834
 30
0.000000
  70
    32
  0
VERTEX
  8
0
  5
32A3B
 10
954.993
 20
452.925
 30
0.000000
  70
    32
  0
VERTEX
  8
0
  5
32A3C
 10
954.688
 20
453.013
 30
0.000000
  70
    32
  0
VERTEX
  8
0
  5
32A3D
 10
954.382
 20
453.098
 30
0.000000
  70
    32
  0
VERTEX
  8
0
  5
32A3E
 10
954.077
 20
453.180
 30
0.000000
  70
    32
  0
VERTEX
  8
0
  5
32A3F
 10
953.771
 20
453.259
 30
0.000000
  70
    32
  0
VERTEX
  8
0
  5
32A40
 10
953.464
 20
453.335
 30
0.000000
  70
    32
  0
VERTEX
  8
0
  5
32A41
 10
953.157
 20
453.408
 30
0.000000
  70
    32
  0
VERTEX
  8
0
  5
32A42
 10
952.850
 20
453.479
 30
0.000000
  70
    32
  0
VERTEX
  8
0
  5
32A43
 10
952.543
 20
453.546
 30
0.000000
  70
    32
  0
VERTEX
  8
0
  5
32A44
 10
952.235
 20
453.610
 30
0.000000
  70
    32
  0
VERTEX
  8
0
  5
32A45
 10
951.927
 20
453.672
 30
0.000000
  70
    32
  0
VERTEX
  8
0
  5
32A46
 10
951.619
 20
453.730
 30
0.000000
  70
    32
  0
VERTEX
  8
0
  5
32A47
 10
951.310
 20
453.786
 30
0.000000
  70
    32
  0
VERTEX
  8
0
  5
32A48
 10
951.002
 20
453.838
 30
0.000000
  70
    32
  0
VERTEX
  8
0
  5
32A49
 10
950.693
 20
453.888
 30
0.000000
  70
    32
  0
VERTEX
  8
0
  5
32A4A
 10
950.383
 20
453.934
 30
0.000000
  70
    32
  0
VERTEX
  8
0
  5
32A4B
 10
950.074
 20
453.978
 30
0.000000
  70
    32
  0
VERTEX
  8
0
  5
32A4C
 10
949.764
 20
454.018
 30
0.000000
  70
    32
  0
VERTEX
  8
0
  5
32A4D
 10
949.455
 20
454.056
 30
0.000000
  70
    32
  0
VERTEX
  8
0
  5
32A4E
 10
949.145
 20
454.090
 30
0.000000
  70
    32
  0
VERTEX
  8
0
  5
32A4F
 10
948.835
 20
454.122
 30
0.000000
  70
    32
  0
VERTEX
  8
0
  5
32A50
 10
948.524
 20
454.150
 30
0.000000
  70
    32
  0
VERTEX
  8
0
  5
32A51
 10
948.214
 20
454.176
 30
0.000000
  70
    32
  0
VERTEX
  8
0
  5
32A52
 10
947.904
 20
454.198
 30
0.000000
  70
    32
  0
VERTEX
  8
0
  5
32A53
 10
947.593
 20
454.218
 30
0.000000
  70
    32
  0
VERTEX
  8
0
  5
32A54
 10
947.282
 20
454.234
 30
0.000000
  70
    32
  0
VERTEX
  8
0
  5
32A55
 10
946.972
 20
454.248
 30
0.000000
  70
    32
  0
VERTEX
  8
0
  5
32A56
 10
946.661
 20
454.258
 30
0.000000
  70
    32
  0
VERTEX
  8
0
  5
32A57
 10
946.350
 20
454.266
 30
0.000000
  70
    32
  0
VERTEX
  8
0
  5
32A58
 10
946.039
 20
454.270
 30
0.000000
  70
    32
  0
VERTEX
  8
0
  5
32A59
 10
945.729
 20
454.272
 30
0.000000
  70
    32
  0
VERTEX
  8
0
  5
32A5A
 10
945.418
 20
454.270
 30
0.000000
  70
    32
  0
VERTEX
  8
0
  5
32A5B
 10
945.107
 20
454.266
 30
0.000000
  70
    32
  0
VERTEX
  8
0
  5
32A5C
 10
944.796
 20
454.258
 30
0.000000
  70
    32
  0
VERTEX
  8
0
  5
32A5D
 10
944.485
 20
454.248
 30
0.000000
  70
    32
  0
VERTEX
  8
0
  5
32A5E
 10
944.175
 20
454.234
 30
0.000000
  70
    32
  0
VERTEX
  8
0
  5
32A5F
 10
943.864
 20
454.218
 30
0.000000
  70
    32
  0
VERTEX
  8
0
  5
32A60
 10
943.553
 20
454.198
 30
0.000000
  70
    32
  0
VERTEX
  8
0
  5
32A61
 10
943.243
 20
454.176
 30
0.000000
  70
    32
  0
VERTEX
  8
0
  5
32A62
 10
942.933
 20
454.150
 30
0.000000
  70
    32
  0
VERTEX
  8
0
  5
32A63
 10
942.622
 20
454.122
 30
0.000000
  70
    32
  0
VERTEX
  8
0
  5
32A64
 10
942.312
 20
454.090
 30
0.000000
  70
    32
  0
VERTEX
  8
0
  5
32A65
 10
942.002
 20
454.056
 30
0.000000
  70
    32
  0
VERTEX
  8
0
  5
32A66
 10
941.693
 20
454.018
 30
0.000000
  70
    32
  0
VERTEX
  8
0
  5
32A67
 10
941.383
 20
453.978
 30
0.000000
  70
    32
  0
VERTEX
  8
0
  5
32A68
 10
941.074
 20
453.934
 30
0.000000
  70
    32
  0
VERTEX
  8
0
  5
32A69
 10
940.764
 20
453.888
 30
0.000000
  70
    32
  0
VERTEX
  8
0
  5
32A6A
 10
940.455
 20
453.838
 30
0.000000
  70
    32
  0
VERTEX
  8
0
  5
32A6B
 10
940.147
 20
453.786
 30
0.000000
  70
    32
  0
VERTEX
  8
0
  5
32A6C
 10
939.838
 20
453.730
 30
0.000000
  70
    32
  0
VERTEX
  8
0
  5
32A6D
 10
939.530
 20
453.672
 30
0.000000
  70
    32
  0
VERTEX
  8
0
  5
32A6E
 10
939.222
 20
453.610
 30
0.000000
  70
    32
  0
VERTEX
  8
0
  5
32A6F
 10
938.914
 20
453.546
 30
0.000000
  70
    32
  0
VERTEX
  8
0
  5
32A70
 10
938.607
 20
453.479
 30
0.000000
  70
    32
  0
VERTEX
  8
0
  5
32A71
 10
938.300
 20
453.408
 30
0.000000
  70
    32
  0
VERTEX
  8
0
  5
32A72
 10
937.993
 20
453.335
 30
0.000000
  70
    32
  0
VERTEX
  8
0
  5
32A73
 10
937.687
 20
453.259
 30
0.000000
  70
    32
  0
VERTEX
  8
0
  5
32A74
 10
937.381
 20
453.180
 30
0.000000
  70
    32
  0
VERTEX
  8
0
  5
32A75
 10
937.075
 20
453.098
 30
0.000000
  70
    32
  0
VERTEX
  8
0
  5
32A76
 10
936.769
 20
453.013
 30
0.000000
  70
    32
  0
VERTEX
  8
0
  5
32A77
 10
936.465
 20
452.925
 30
0.000000
  70
    32
  0
VERTEX
  8
0
  5
32A78
 10
936.160
 20
452.834
 30
0.000000
  70
    32
  0
VERTEX
  8
0
  5
32A79
 10
935.856
 20
452.740
 30
0.000000
  70
    32
  0
VERTEX
  8
0
  5
32A7A
 10
935.552
 20
452.643
 30
0.000000
  70
    32
  0
VERTEX
  8
0
  5
32A7B
 10
935.249
 20
452.543
 30
0.000000
  70
    32
  0
VERTEX
  8
0
  5
32A7C
 10
934.946
 20
452.440
 30
0.000000
  70
    32
  0
VERTEX
  8
0
  5
32A7D
 10
934.644
 20
452.335
 30
0.000000
  70
    32
  0
VERTEX
  8
0
  5
32A7E
 10
934.342
 20
452.226
 30
0.000000
  70
    32
  0
VERTEX
  8
0
  5
32A7F
 10
934.041
 20
452.115
 30
0.000000
  70
    32
  0
VERTEX
  8
0
  5
32A80
 10
933.740
 20
452.000
 30
0.000000
  70
    32
  0
VERTEX
  8
0
  5
32A81
 10
933.440
 20
451.883
 30
0.000000
  70
    32
  0
VERTEX
  8
0
  5
32A82
 10
933.140
 20
451.763
 30
0.000000
  70
    32
  0
VERTEX
  8
0
  5
32A83
 10
932.841
 20
451.640
 30
0.000000
  70
    32
  0
VERTEX
  8
0
  5
32A84
 10
932.542
 20
451.514
 30
0.000000
  70
    32
  0
VERTEX
  8
0
  5
32A85
 10
932.244
 20
451.385
 30
0.000000
  70
    32
  0
VERTEX
  8
0
  5
32A86
 10
931.947
 20
451.253
 30
0.000000
  70
    32
  0
VERTEX
  8
0
  5
32A87
 10
931.650
 20
451.118
 30
0.000000
  70
    32
  0
VERTEX
  8
0
  5
32A88
 10
931.353
 20
450.981
 30
0.000000
  70
    32
  0
VERTEX
  8
0
  5
32A89
 10
931.058
 20
450.841
 30
0.000000
  70
    32
  0
VERTEX
  8
0
  5
32A8A
 10
930.763
 20
450.697
 30
0.000000
  70
    32
  0
VERTEX
  8
0
  5
32A8B
 10
930.468
 20
450.551
 30
0.000000
  70
    32
  0
VERTEX
  8
0
  5
32A8C
 10
930.175
 20
450.402
 30
0.000000
  70
    32
  0
VERTEX
  8
0
  5
32A8D
 10
929.882
 20
450.251
 30
0.000000
  70
    32
  0
VERTEX
  8
0
  5
32A8E
 10
929.590
 20
450.096
 30
0.000000
  70
    32
  0
VERTEX
  8
0
  5
32A8F
 10
929.298
 20
449.939
 30
0.000000
  70
    32
  0
VERTEX
  8
0
  5
32A90
 10
929.007
 20
449.779
 30
0.000000
  70
    32
  0
VERTEX
  8
0
  5
32A91
 10
928.717
 20
449.616
 30
0.000000
  70
    32
  0
VERTEX
  8
0
  5
32A92
 10
928.428
 20
449.450
 30
0.000000
  70
    32
  0
VERTEX
  8
0
  5
32A93
 10
928.139
 20
449.281
 30
0.000000
  70
    32
  0
VERTEX
  8
0
  5
32A94
 10
927.851
 20
449.110
 30
0.000000
  70
    32
  0
VERTEX
  8
0
  5
32A95
 10
927.564
 20
448.936
 30
0.000000
  70
    32
  0
VERTEX
  8
0
  5
32A96
 10
927.278
 20
448.759
 30
0.000000
  70
    32
  0
VERTEX
  8
0
  5
32A97
 10
926.992
 20
448.579
 30
0.000000
  70
    32
  0
VERTEX
  8
0
  5
32A98
 10
926.708
 20
448.397
 30
0.000000
  70
    32
  0
VERTEX
  8
0
  5
32A99
 10
926.424
 20
448.212
 30
0.000000
  70
    32
  0
SEQEND
  8
0
  5
32A9A
  0
POLYLINE
  5
32360
  8
0
 10
975.7285624395081
 20
332.74149621459293
 30
0.0
 66
     1
 70
     8
  0
VERTEX
  8
0
  5
32A9B
 10
975.729
 20
332.741
 30
0.000000
  70
    32
  0
VERTEX
  8
0
  5
32A9C
 10
976.211
 20
333.333
 30
0.000000
  70
    32
  0
VERTEX
  8
0
  5
32A9D
 10
976.687
 20
333.935
 30
0.000000
  70
    32
  0
VERTEX
  8
0
  5
32A9E
 10
977.158
 20
334.545
 30
0.000000
  70
    32
  0
VERTEX
  8
0
  5
32A9F
 10
977.623
 20
335.165
 30
0.000000
  70
    32
  0
VERTEX
  8
0
  5
32AA0
 10
978.083
 20
335.794
 30
0.000000
  70
    32
  0
VERTEX
  8
0
  5
32AA1
 10
978.537
 20
336.432
 30
0.000000
  70
    32
  0
VERTEX
  8
0
  5
32AA2
 10
978.985
 20
337.078
 30
0.000000
  70
    32
  0
VERTEX
  8
0
  5
32AA3
 10
979.427
 20
337.733
 30
0.000000
  70
    32
  0
VERTEX
  8
0
  5
32AA4
 10
979.863
 20
338.397
 30
0.000000
  70
    32
  0
VERTEX
  8
0
  5
32AA5
 10
980.292
 20
339.070
 30
0.000000
  70
    32
  0
VERTEX
  8
0
  5
32AA6
 10
980.716
 20
339.750
 30
0.000000
  70
    32
  0
VERTEX
  8
0
  5
32AA7
 10
981.133
 20
340.439
 30
0.000000
  70
    32
  0
VERTEX
  8
0
  5
32AA8
 10
981.544
 20
341.136
 30
0.000000
  70
    32
  0
VERTEX
  8
0
  5
32AA9
 10
981.949
 20
341.841
 30
0.000000
  70
    32
  0
VERTEX
  8
0
  5
32AAA
 10
982.347
 20
342.554
 30
0.000000
  70
    32
  0
VERTEX
  8
0
  5
32AAB
 10
982.738
 20
343.275
 30
0.000000
  70
    32
  0
VERTEX
  8
0
  5
32AAC
 10
983.123
 20
344.003
 30
0.000000
  70
    32
  0
VERTEX
  8
0
  5
32AAD
 10
983.501
 20
344.739
 30
0.000000
  70
    32
  0
VERTEX
  8
0
  5
32AAE
 10
983.872
 20
345.482
 30
0.000000
  70
    32
  0
VERTEX
  8
0
  5
32AAF
 10
984.237
 20
346.232
 30
0.000000
  70
    32
  0
VERTEX
  8
0
  5
32AB0
 10
984.594
 20
346.989
 30
0.000000
  70
    32
  0
VERTEX
  8
0
  5
32AB1
 10
984.945
 20
347.753
 30
0.000000
  70
    32
  0
VERTEX
  8
0
  5
32AB2
 10
985.288
 20
348.524
 30
0.000000
  70
    32
  0
VERTEX
  8
0
  5
32AB3
 10
985.625
 20
349.302
 30
0.000000
  70
    32
  0
VERTEX
  8
0
  5
32AB4
 10
985.954
 20
350.086
 30
0.000000
  70
    32
  0
VERTEX
  8
0
  5
32AB5
 10
986.276
 20
350.877
 30
0.000000
  70
    32
  0
VERTEX
  8
0
  5
32AB6
 10
986.591
 20
351.673
 30
0.000000
  70
    32
  0
VERTEX
  8
0
  5
32AB7
 10
986.898
 20
352.476
 30
0.000000
  70
    32
  0
VERTEX
  8
0
  5
32AB8
 10
987.198
 20
353.285
 30
0.000000
  70
    32
  0
VERTEX
  8
0
  5
32AB9
 10
987.491
 20
354.099
 30
0.000000
  70
    32
  0
VERTEX
  8
0
  5
32ABA
 10
987.776
 20
354.920
 30
0.000000
  70
    32
  0
VERTEX
  8
0
  5
32ABB
 10
988.053
 20
355.745
 30
0.000000
  70
    32
  0
VERTEX
  8
0
  5
32ABC
 10
988.323
 20
356.577
 30
0.000000
  70
    32
  0
VERTEX
  8
0
  5
32ABD
 10
988.586
 20
357.413
 30
0.000000
  70
    32
  0
VERTEX
  8
0
  5
32ABE
 10
988.840
 20
358.254
 30
0.000000
  70
    32
  0
VERTEX
  8
0
  5
32ABF
 10
989.087
 20
359.101
 30
0.000000
  70
    32
  0
VERTEX
  8
0
  5
32AC0
 10
989.326
 20
359.952
 30
0.000000
  70
    32
  0
VERTEX
  8
0
  5
32AC1
 10
989.558
 20
360.807
 30
0.000000
  70
    32
  0
VERTEX
  8
0
  5
32AC2
 10
989.781
 20
361.667
 30
0.000000
  70
    32
  0
VERTEX
  8
0
  5
32AC3
 10
989.997
 20
362.532
 30
0.000000
  70
    32
  0
VERTEX
  8
0
  5
32AC4
 10
990.204
 20
363.400
 30
0.000000
  70
    32
  0
VERTEX
  8
0
  5
32AC5
 10
990.404
 20
364.273
 30
0.000000
  70
    32
  0
VERTEX
  8
0
  5
32AC6
 10
990.595
 20
365.149
 30
0.000000
  70
    32
  0
VERTEX
  8
0
  5
32AC7
 10
990.779
 20
366.029
 30
0.000000
  70
    32
  0
VERTEX
  8
0
  5
32AC8
 10
990.954
 20
366.913
 30
0.000000
  70
    32
  0
VERTEX
  8
0
  5
32AC9
 10
991.122
 20
367.800
 30
0.000000
  70
    32
  0
VERTEX
  8
0
  5
32ACA
 10
991.281
 20
368.690
 30
0.000000
  70
    32
  0
VERTEX
  8
0
  5
32ACB
 10
991.432
 20
369.583
 30
0.000000
  70
    32
  0
VERTEX
  8
0
  5
32ACC
 10
991.575
 20
370.479
 30
0.000000
  70
    32
  0
VERTEX
  8
0
  5
32ACD
 10
991.709
 20
371.377
 30
0.000000
  70
    32
  0
VERTEX
  8
0
  5
32ACE
 10
991.835
 20
372.279
 30
0.000000
  70
    32
  0
VERTEX
  8
0
  5
32ACF
 10
991.953
 20
373.182
 30
0.000000
  70
    32
  0
VERTEX
  8
0
  5
32AD0
 10
992.063
 20
374.088
 30
0.000000
  70
    32
  0
VERTEX
  8
0
  5
32AD1
 10
992.165
 20
374.996
 30
0.000000
  70
    32
  0
VERTEX
  8
0
  5
32AD2
 10
992.258
 20
375.906
 30
0.000000
  70
    32
  0
VERTEX
  8
0
  5
32AD3
 10
992.342
 20
376.818
 30
0.000000
  70
    32
  0
VERTEX
  8
0
  5
32AD4
 10
992.419
 20
377.731
 30
0.000000
  70
    32
  0
VERTEX
  8
0
  5
32AD5
 10
992.487
 20
378.645
 30
0.000000
  70
    32
  0
VERTEX
  8
0
  5
32AD6
 10
992.546
 20
379.561
 30
0.000000
  70
    32
  0
VERTEX
  8
0
  5
32AD7
 10
992.598
 20
380.478
 30
0.000000
  70
    32
  0
VERTEX
  8
0
  5
32AD8
 10
992.640
 20
381.396
 30
0.000000
  70
    32
  0
VERTEX
  8
0
  5
32AD9
 10
992.675
 20
382.314
 30
0.000000
  70
    32
  0
VERTEX
  8
0
  5
32ADA
 10
992.701
 20
383.234
 30
0.000000
  70
    32
  0
VERTEX
  8
0
  5
32ADB
 10
992.718
 20
384.153
 30
0.000000
  70
    32
  0
VERTEX
  8
0
  5
32ADC
 10
992.727
 20
385.073
 30
0.000000
  70
    32
  0
VERTEX
  8
0
  5
32ADD
 10
992.728
 20
385.993
 30
0.000000
  70
    32
  0
VERTEX
  8
0
  5
32ADE
 10
992.720
 20
386.913
 30
0.000000
  70
    32
  0
VERTEX
  8
0
  5
32ADF
 10
992.704
 20
387.833
 30
0.000000
  70
    32
  0
VERTEX
  8
0
  5
32AE0
 10
992.679
 20
388.752
 30
0.000000
  70
    32
  0
VERTEX
  8
0
  5
32AE1
 10
992.646
 20
389.670
 30
0.000000
  70
    32
  0
VERTEX
  8
0
  5
32AE2
 10
992.605
 20
390.588
 30
0.000000
  70
    32
  0
VERTEX
  8
0
  5
32AE3
 10
992.555
 20
391.505
 30
0.000000
  70
    32
  0
VERTEX
  8
0
  5
32AE4
 10
992.496
 20
392.421
 30
0.000000
  70
    32
  0
VERTEX
  8
0
  5
32AE5
 10
992.430
 20
393.336
 30
0.000000
  70
    32
  0
VERTEX
  8
0
  5
32AE6
 10
992.354
 20
394.250
 30
0.000000
  70
    32
  0
VERTEX
  8
0
  5
32AE7
 10
992.271
 20
395.161
 30
0.000000
  70
    32
  0
VERTEX
  8
0
  5
32AE8
 10
992.179
 20
396.072
 30
0.000000
  70
    32
  0
VERTEX
  8
0
  5
32AE9
 10
992.079
 20
396.980
 30
0.000000
  70
    32
  0
VERTEX
  8
0
  5
32AEA
 10
991.970
 20
397.886
 30
0.000000
  70
    32
  0
VERTEX
  8
0
  5
32AEB
 10
991.854
 20
398.790
 30
0.000000
  70
    32
  0
VERTEX
  8
0
  5
32AEC
 10
991.729
 20
399.692
 30
0.000000
  70
    32
  0
VERTEX
  8
0
  5
32AED
 10
991.595
 20
400.591
 30
0.000000
  70
    32
  0
VERTEX
  8
0
  5
32AEE
 10
991.454
 20
401.487
 30
0.000000
  70
    32
  0
VERTEX
  8
0
  5
32AEF
 10
991.304
 20
402.381
 30
0.000000
  70
    32
  0
VERTEX
  8
0
  5
32AF0
 10
991.146
 20
403.271
 30
0.000000
  70
    32
  0
VERTEX
  8
0
  5
32AF1
 10
990.980
 20
404.159
 30
0.000000
  70
    32
  0
VERTEX
  8
0
  5
32AF2
 10
990.806
 20
405.043
 30
0.000000
  70
    32
  0
VERTEX
  8
0
  5
32AF3
 10
990.624
 20
405.923
 30
0.000000
  70
    32
  0
VERTEX
  8
0
  5
32AF4
 10
990.433
 20
406.800
 30
0.000000
  70
    32
  0
VERTEX
  8
0
  5
32AF5
 10
990.235
 20
407.673
 30
0.000000
  70
    32
  0
VERTEX
  8
0
  5
32AF6
 10
990.028
 20
408.542
 30
0.000000
  70
    32
  0
VERTEX
  8
0
  5
32AF7
 10
989.814
 20
409.407
 30
0.000000
  70
    32
  0
VERTEX
  8
0
  5
32AF8
 10
989.592
 20
410.268
 30
0.000000
  70
    32
  0
VERTEX
  8
0
  5
32AF9
 10
989.362
 20
411.124
 30
0.000000
  70
    32
  0
VERTEX
  8
0
  5
32AFA
 10
989.124
 20
411.976
 30
0.000000
  70
    32
  0
VERTEX
  8
0
  5
32AFB
 10
988.878
 20
412.823
 30
0.000000
  70
    32
  0
VERTEX
  8
0
  5
32AFC
 10
988.625
 20
413.665
 30
0.000000
  70
    32
  0
VERTEX
  8
0
  5
32AFD
 10
988.363
 20
414.502
 30
0.000000
  70
    32
  0
VERTEX
  8
0
  5
32AFE
 10
988.095
 20
415.334
 30
0.000000
  70
    32
  0
VERTEX
  8
0
  5
32AFF
 10
987.818
 20
416.161
 30
0.000000
  70
    32
  0
VERTEX
  8
0
  5
32B00
 10
987.534
 20
416.982
 30
0.000000
  70
    32
  0
VERTEX
  8
0
  5
32B01
 10
987.243
 20
417.797
 30
0.000000
  70
    32
  0
VERTEX
  8
0
  5
32B02
 10
986.944
 20
418.607
 30
0.000000
  70
    32
  0
VERTEX
  8
0
  5
32B03
 10
986.638
 20
419.411
 30
0.000000
  70
    32
  0
VERTEX
  8
0
  5
32B04
 10
986.324
 20
420.209
 30
0.000000
  70
    32
  0
VERTEX
  8
0
  5
32B05
 10
986.003
 20
421.000
 30
0.000000
  70
    32
  0
VERTEX
  8
0
  5
32B06
 10
985.675
 20
421.785
 30
0.000000
  70
    32
  0
VERTEX
  8
0
  5
32B07
 10
985.339
 20
422.564
 30
0.000000
  70
    32
  0
VERTEX
  8
0
  5
32B08
 10
984.997
 20
423.336
 30
0.000000
  70
    32
  0
VERTEX
  8
0
  5
32B09
 10
984.647
 20
424.101
 30
0.000000
  70
    32
  0
VERTEX
  8
0
  5
32B0A
 10
984.291
 20
424.859
 30
0.000000
  70
    32
  0
VERTEX
  8
0
  5
32B0B
 10
983.928
 20
425.611
 30
0.000000
  70
    32
  0
VERTEX
  8
0
  5
32B0C
 10
983.557
 20
426.355
 30
0.000000
  70
    32
  0
VERTEX
  8
0
  5
32B0D
 10
983.180
 20
427.091
 30
0.000000
  70
    32
  0
VERTEX
  8
0
  5
32B0E
 10
982.796
 20
427.821
 30
0.000000
  70
    32
  0
VERTEX
  8
0
  5
32B0F
 10
982.406
 20
428.542
 30
0.000000
  70
    32
  0
VERTEX
  8
0
  5
32B10
 10
982.009
 20
429.256
 30
0.000000
  70
    32
  0
VERTEX
  8
0
  5
32B11
 10
981.605
 20
429.963
 30
0.000000
  70
    32
  0
VERTEX
  8
0
  5
32B12
 10
981.195
 20
430.661
 30
0.000000
  70
    32
  0
VERTEX
  8
0
  5
32B13
 10
980.779
 20
431.351
 30
0.000000
  70
    32
  0
VERTEX
  8
0
  5
32B14
 10
980.357
 20
432.033
 30
0.000000
  70
    32
  0
VERTEX
  8
0
  5
32B15
 10
979.928
 20
432.707
 30
0.000000
  70
    32
  0
VERTEX
  8
0
  5
32B16
 10
979.493
 20
433.372
 30
0.000000
  70
    32
  0
VERTEX
  8
0
  5
32B17
 10
979.052
 20
434.028
 30
0.000000
  70
    32
  0
VERTEX
  8
0
  5
32B18
 10
978.605
 20
434.676
 30
0.000000
  70
    32
  0
VERTEX
  8
0
  5
32B19
 10
978.152
 20
435.315
 30
0.000000
  70
    32
  0
VERTEX
  8
0
  5
32B1A
 10
977.693
 20
435.945
 30
0.000000
  70
    32
  0
VERTEX
  8
0
  5
32B1B
 10
977.229
 20
436.567
 30
0.000000
  70
    32
  0
SEQEND
  8
0
  5
32B1C
  0
LINE
  5
32361
  8
0
 10
975.72856176895516
 20
415.07030157226268
 30
0.0
 11
975.72856176895516
 21
320.9158551864619
 31
0.0
  0
LINE
  5
32362
  8
0
 10
915.72856311006149
 20
415.07030157226268
 30
0.0
 11
915.72856311006149
 21
320.9158551864619
 31
0.0
  0
POLYLINE
  5
32363
  8
0
 10
914.22856243950719
 20
436.56659351231872
 30
0.0
 66
     1
 70
     8
  0
VERTEX
  8
0
  5
32B1D
 10
914.229
 20
436.567
 30
0.000000
  70
    32
  0
VERTEX
  8
0
  5
32B1E
 10
913.764
 20
435.945
 30
0.000000
  70
    32
  0
VERTEX
  8
0
  5
32B1F
 10
913.305
 20
435.315
 30
0.000000
  70
    32
  0
VERTEX
  8
0
  5
32B20
 10
912.852
 20
434.676
 30
0.000000
  70
    32
  0
VERTEX
  8
0
  5
32B21
 10
912.405
 20
434.028
 30
0.000000
  70
    32
  0
VERTEX
  8
0
  5
32B22
 10
911.964
 20
433.372
 30
0.000000
  70
    32
  0
VERTEX
  8
0
  5
32B23
 10
911.529
 20
432.707
 30
0.000000
  70
    32
  0
VERTEX
  8
0
  5
32B24
 10
911.101
 20
432.033
 30
0.000000
  70
    32
  0
VERTEX
  8
0
  5
32B25
 10
910.678
 20
431.351
 30
0.000000
  70
    32
  0
VERTEX
  8
0
  5
32B26
 10
910.262
 20
430.661
 30
0.000000
  70
    32
  0
VERTEX
  8
0
  5
32B27
 10
909.852
 20
429.963
 30
0.000000
  70
    32
  0
VERTEX
  8
0
  5
32B28
 10
909.448
 20
429.256
 30
0.000000
  70
    32
  0
VERTEX
  8
0
  5
32B29
 10
909.051
 20
428.542
 30
0.000000
  70
    32
  0
VERTEX
  8
0
  5
32B2A
 10
908.661
 20
427.821
 30
0.000000
  70
    32
  0
VERTEX
  8
0
  5
32B2B
 10
908.277
 20
427.091
 30
0.000000
  70
    32
  0
VERTEX
  8
0
  5
32B2C
 10
907.900
 20
426.355
 30
0.000000
  70
    32
  0
VERTEX
  8
0
  5
32B2D
 10
907.530
 20
425.611
 30
0.000000
  70
    32
  0
VERTEX
  8
0
  5
32B2E
 10
907.166
 20
424.859
 30
0.000000
  70
    32
  0
VERTEX
  8
0
  5
32B2F
 10
906.810
 20
424.101
 30
0.000000
  70
    32
  0
VERTEX
  8
0
  5
32B30
 10
906.460
 20
423.336
 30
0.000000
  70
    32
  0
VERTEX
  8
0
  5
32B31
 10
906.118
 20
422.564
 30
0.000000
  70
    32
  0
VERTEX
  8
0
  5
32B32
 10
905.782
 20
421.785
 30
0.000000
  70
    32
  0
VERTEX
  8
0
  5
32B33
 10
905.454
 20
421.000
 30
0.000000
  70
    32
  0
VERTEX
  8
0
  5
32B34
 10
905.133
 20
420.209
 30
0.000000
  70
    32
  0
VERTEX
  8
0
  5
32B35
 10
904.820
 20
419.411
 30
0.000000
  70
    32
  0
VERTEX
  8
0
  5
32B36
 10
904.513
 20
418.607
 30
0.000000
  70
    32
  0
VERTEX
  8
0
  5
32B37
 10
904.214
 20
417.797
 30
0.000000
  70
    32
  0
VERTEX
  8
0
  5
32B38
 10
903.923
 20
416.982
 30
0.000000
  70
    32
  0
VERTEX
  8
0
  5
32B39
 10
903.639
 20
416.161
 30
0.000000
  70
    32
  0
VERTEX
  8
0
  5
32B3A
 10
903.362
 20
415.334
 30
0.000000
  70
    32
  0
VERTEX
  8
0
  5
32B3B
 10
903.094
 20
414.502
 30
0.000000
  70
    32
  0
VERTEX
  8
0
  5
32B3C
 10
902.832
 20
413.665
 30
0.000000
  70
    32
  0
VERTEX
  8
0
  5
32B3D
 10
902.579
 20
412.823
 30
0.000000
  70
    32
  0
VERTEX
  8
0
  5
32B3E
 10
902.333
 20
411.976
 30
0.000000
  70
    32
  0
VERTEX
  8
0
  5
32B3F
 10
902.095
 20
411.124
 30
0.000000
  70
    32
  0
VERTEX
  8
0
  5
32B40
 10
901.865
 20
410.268
 30
0.000000
  70
    32
  0
VERTEX
  8
0
  5
32B41
 10
901.643
 20
409.407
 30
0.000000
  70
    32
  0
VERTEX
  8
0
  5
32B42
 10
901.429
 20
408.542
 30
0.000000
  70
    32
  0
VERTEX
  8
0
  5
32B43
 10
901.222
 20
407.673
 30
0.000000
  70
    32
  0
VERTEX
  8
0
  5
32B44
 10
901.024
 20
406.800
 30
0.000000
  70
    32
  0
VERTEX
  8
0
  5
32B45
 10
900.834
 20
405.923
 30
0.000000
  70
    32
  0
VERTEX
  8
0
  5
32B46
 10
900.651
 20
405.043
 30
0.000000
  70
    32
  0
VERTEX
  8
0
  5
32B47
 10
900.477
 20
404.159
 30
0.000000
  70
    32
  0
VERTEX
  8
0
  5
32B48
 10
900.311
 20
403.271
 30
0.000000
  70
    32
  0
VERTEX
  8
0
  5
32B49
 10
900.153
 20
402.381
 30
0.000000
  70
    32
  0
VERTEX
  8
0
  5
32B4A
 10
900.003
 20
401.487
 30
0.000000
  70
    32
  0
VERTEX
  8
0
  5
32B4B
 10
899.862
 20
400.591
 30
0.000000
  70
    32
  0
VERTEX
  8
0
  5
32B4C
 10
899.728
 20
399.692
 30
0.000000
  70
    32
  0
VERTEX
  8
0
  5
32B4D
 10
899.603
 20
398.790
 30
0.000000
  70
    32
  0
VERTEX
  8
0
  5
32B4E
 10
899.487
 20
397.886
 30
0.000000
  70
    32
  0
VERTEX
  8
0
  5
32B4F
 10
899.378
 20
396.980
 30
0.000000
  70
    32
  0
VERTEX
  8
0
  5
32B50
 10
899.278
 20
396.072
 30
0.000000
  70
    32
  0
VERTEX
  8
0
  5
32B51
 10
899.186
 20
395.161
 30
0.000000
  70
    32
  0
VERTEX
  8
0
  5
32B52
 10
899.103
 20
394.250
 30
0.000000
  70
    32
  0
VERTEX
  8
0
  5
32B53
 10
899.028
 20
393.336
 30
0.000000
  70
    32
  0
VERTEX
  8
0
  5
32B54
 10
898.961
 20
392.421
 30
0.000000
  70
    32
  0
VERTEX
  8
0
  5
32B55
 10
898.903
 20
391.505
 30
0.000000
  70
    32
  0
VERTEX
  8
0
  5
32B56
 10
898.853
 20
390.588
 30
0.000000
  70
    32
  0
VERTEX
  8
0
  5
32B57
 10
898.811
 20
389.670
 30
0.000000
  70
    32
  0
VERTEX
  8
0
  5
32B58
 10
898.778
 20
388.752
 30
0.000000
  70
    32
  0
VERTEX
  8
0
  5
32B59
 10
898.753
 20
387.833
 30
0.000000
  70
    32
  0
VERTEX
  8
0
  5
32B5A
 10
898.737
 20
386.913
 30
0.000000
  70
    32
  0
VERTEX
  8
0
  5
32B5B
 10
898.729
 20
385.993
 30
0.000000
  70
    32
  0
VERTEX
  8
0
  5
32B5C
 10
898.730
 20
385.073
 30
0.000000
  70
    32
  0
VERTEX
  8
0
  5
32B5D
 10
898.739
 20
384.153
 30
0.000000
  70
    32
  0
VERTEX
  8
0
  5
32B5E
 10
898.757
 20
383.234
 30
0.000000
  70
    32
  0
VERTEX
  8
0
  5
32B5F
 10
898.782
 20
382.314
 30
0.000000
  70
    32
  0
VERTEX
  8
0
  5
32B60
 10
898.817
 20
381.396
 30
0.000000
  70
    32
  0
VERTEX
  8
0
  5
32B61
 10
898.860
 20
380.478
 30
0.000000
  70
    32
  0
VERTEX
  8
0
  5
32B62
 10
898.911
 20
379.561
 30
0.000000
  70
    32
  0
VERTEX
  8
0
  5
32B63
 10
898.970
 20
378.645
 30
0.000000
  70
    32
  0
VERTEX
  8
0
  5
32B64
 10
899.038
 20
377.731
 30
0.000000
  70
    32
  0
VERTEX
  8
0
  5
32B65
 10
899.115
 20
376.818
 30
0.000000
  70
    32
  0
VERTEX
  8
0
  5
32B66
 10
899.199
 20
375.906
 30
0.000000
  70
    32
  0
VERTEX
  8
0
  5
32B67
 10
899.293
 20
374.996
 30
0.000000
  70
    32
  0
VERTEX
  8
0
  5
32B68
 10
899.394
 20
374.088
 30
0.000000
  70
    32
  0
VERTEX
  8
0
  5
32B69
 10
899.504
 20
373.182
 30
0.000000
  70
    32
  0
VERTEX
  8
0
  5
32B6A
 10
899.622
 20
372.279
 30
0.000000
  70
    32
  0
VERTEX
  8
0
  5
32B6B
 10
899.748
 20
371.377
 30
0.000000
  70
    32
  0
VERTEX
  8
0
  5
32B6C
 10
899.883
 20
370.479
 30
0.000000
  70
    32
  0
VERTEX
  8
0
  5
32B6D
 10
900.025
 20
369.583
 30
0.000000
  70
    32
  0
VERTEX
  8
0
  5
32B6E
 10
900.176
 20
368.690
 30
0.000000
  70
    32
  0
VERTEX
  8
0
  5
32B6F
 10
900.336
 20
367.800
 30
0.000000
  70
    32
  0
VERTEX
  8
0
  5
32B70
 10
900.503
 20
366.913
 30
0.000000
  70
    32
  0
VERTEX
  8
0
  5
32B71
 10
900.678
 20
366.029
 30
0.000000
  70
    32
  0
VERTEX
  8
0
  5
32B72
 10
900.862
 20
365.149
 30
0.000000
  70
    32
  0
VERTEX
  8
0
  5
32B73
 10
901.053
 20
364.273
 30
0.000000
  70
    32
  0
VERTEX
  8
0
  5
32B74
 10
901.253
 20
363.400
 30
0.000000
  70
    32
  0
VERTEX
  8
0
  5
32B75
 10
901.461
 20
362.532
 30
0.000000
  70
    32
  0
VERTEX
  8
0
  5
32B76
 10
901.676
 20
361.667
 30
0.000000
  70
    32
  0
VERTEX
  8
0
  5
32B77
 10
901.899
 20
360.807
 30
0.000000
  70
    32
  0
VERTEX
  8
0
  5
32B78
 10
902.131
 20
359.952
 30
0.000000
  70
    32
  0
VERTEX
  8
0
  5
32B79
 10
902.370
 20
359.101
 30
0.000000
  70
    32
  0
VERTEX
  8
0
  5
32B7A
 10
902.617
 20
358.254
 30
0.000000
  70
    32
  0
VERTEX
  8
0
  5
32B7B
 10
902.871
 20
357.413
 30
0.000000
  70
    32
  0
VERTEX
  8
0
  5
32B7C
 10
903.134
 20
356.577
 30
0.000000
  70
    32
  0
VERTEX
  8
0
  5
32B7D
 10
903.404
 20
355.745
 30
0.000000
  70
    32
  0
VERTEX
  8
0
  5
32B7E
 10
903.681
 20
354.920
 30
0.000000
  70
    32
  0
VERTEX
  8
0
  5
32B7F
 10
903.966
 20
354.099
 30
0.000000
  70
    32
  0
VERTEX
  8
0
  5
32B80
 10
904.259
 20
353.285
 30
0.000000
  70
    32
  0
VERTEX
  8
0
  5
32B81
 10
904.559
 20
352.476
 30
0.000000
  70
    32
  0
VERTEX
  8
0
  5
32B82
 10
904.866
 20
351.673
 30
0.000000
  70
    32
  0
VERTEX
  8
0
  5
32B83
 10
905.181
 20
350.877
 30
0.000000
  70
    32
  0
VERTEX
  8
0
  5
32B84
 10
905.503
 20
350.086
 30
0.000000
  70
    32
  0
VERTEX
  8
0
  5
32B85
 10
905.832
 20
349.302
 30
0.000000
  70
    32
  0
VERTEX
  8
0
  5
32B86
 10
906.169
 20
348.524
 30
0.000000
  70
    32
  0
VERTEX
  8
0
  5
32B87
 10
906.512
 20
347.753
 30
0.000000
  70
    32
  0
VERTEX
  8
0
  5
32B88
 10
906.863
 20
346.989
 30
0.000000
  70
    32
  0
VERTEX
  8
0
  5
32B89
 10
907.221
 20
346.232
 30
0.000000
  70
    32
  0
VERTEX
  8
0
  5
32B8A
 10
907.585
 20
345.482
 30
0.000000
  70
    32
  0
VERTEX
  8
0
  5
32B8B
 10
907.956
 20
344.739
 30
0.000000
  70
    32
  0
VERTEX
  8
0
  5
32B8C
 10
908.334
 20
344.003
 30
0.000000
  70
    32
  0
VERTEX
  8
0
  5
32B8D
 10
908.719
 20
343.275
 30
0.000000
  70
    32
  0
VERTEX
  8
0
  5
32B8E
 10
909.111
 20
342.554
 30
0.000000
  70
    32
  0
VERTEX
  8
0
  5
32B8F
 10
909.509
 20
341.841
 30
0.000000
  70
    32
  0
VERTEX
  8
0
  5
32B90
 10
909.913
 20
341.136
 30
0.000000
  70
    32
  0
VERTEX
  8
0
  5
32B91
 10
910.324
 20
340.439
 30
0.000000
  70
    32
  0
VERTEX
  8
0
  5
32B92
 10
910.741
 20
339.750
 30
0.000000
  70
    32
  0
VERTEX
  8
0
  5
32B93
 10
911.165
 20
339.070
 30
0.000000
  70
    32
  0
VERTEX
  8
0
  5
32B94
 10
911.595
 20
338.397
 30
0.000000
  70
    32
  0
VERTEX
  8
0
  5
32B95
 10
912.030
 20
337.733
 30
0.000000
  70
    32
  0
VERTEX
  8
0
  5
32B96
 10
912.472
 20
337.078
 30
0.000000
  70
    32
  0
VERTEX
  8
0
  5
32B97
 10
912.920
 20
336.432
 30
0.000000
  70
    32
  0
VERTEX
  8
0
  5
32B98
 10
913.374
 20
335.794
 30
0.000000
  70
    32
  0
VERTEX
  8
0
  5
32B99
 10
913.834
 20
335.165
 30
0.000000
  70
    32
  0
VERTEX
  8
0
  5
32B9A
 10
914.299
 20
334.545
 30
0.000000
  70
    32
  0
VERTEX
  8
0
  5
32B9B
 10
914.770
 20
333.935
 30
0.000000
  70
    32
  0
VERTEX
  8
0
  5
32B9C
 10
915.247
 20
333.333
 30
0.000000
  70
    32
  0
VERTEX
  8
0
  5
32B9D
 10
915.729
 20
332.741
 30
0.000000
  70
    32
  0
SEQEND
  8
0
  5
32B9E
  0
LINE
  5
32365
  8
0
 10
975.72856176895516
 20
328.44366151693413
 30
0.0
 11
979.7285642872514
 21
328.44366151693413
 31
0.0
  0
LINE
  5
32368
  8
0
 10
911.72856059176524
 20
328.44366151693413
 30
0.0
 11
915.72856311006149
 21
328.44366151693413
 31
0.0
  0
LINE
  5
3236A
  8
0
 10
975.72856176895698
 20
321.9158544190521
 30
0.0
 11
979.72856428725322
 21
321.9158544190521
 31
0.0
  0
LINE
  5
3236B
  8
0
 10
979.72856428725322
 20
321.9158544190521
 30
0.0
 11
979.7285624395081
 21
330.0633204677552
 31
0.0
  0
LINE
  5
3236D
  8
0
 10
911.72856059176524
 20
321.9158544190521
 30
0.0
 11
915.72856311006149
 21
321.9158544190521
 31
0.0
  0
LINE
  5
3236E
  8
0
 10
911.72856059176524
 20
321.9158544190521
 30
0.0
 11
911.72856059176524
 21
330.06332046775452
 31
0.0
  0
ARC
  5
32372
  8
0
 10
960.16607813820815
 20
340.66585469844881
 30
0.0
 40
29.420696365976202
 50
350.70887449287602
 51
9.2911255071238301
  0
POLYLINE
  5
32375
  8
0
 66
     1
 10
0.0
 20
0.0
 30
0.0
 70
   128
  0
VERTEX
  5
325E1
  8
0
 10
989.20079659921726
 20
326.41585515665957
 30
0.0
  0
VERTEX
  5
325E2
  8
0
 10
989.59291693074294
 20
331.4640919663305
 30
0.0
  0
VERTEX
  5
325E3
  8
0
 10
989.20079659921726
 20
335.91585485118583
 30
0.0
  0
SEQEND
  5
325E4
  8
0
  0
LINE
  5
32376
  8
0
 10
989.72856220109065
 20
326.9158552386159
 30
0.0
 11
989.72856220109065
 21
344.91585446375558
 31
0.0
  0
LINE
  5
32377
  8
0
 10
989.20079659921726
 20
335.91585485118583
 30
0.0
 11
983.73505439860423
 21
335.91585485118583
 31
0.0
  0
LINE
  5
32378
  8
0
 10
989.59458958608707
 20
326.41585515665957
 30
0.0
 11
979.86253690225681
 21
326.41585515665957
 31
0.0
  0
LINE
  5
32379
  8
0
 10
979.94811427099307
 20
330.38388723361442
 30
0.0
 11
980.25632988912662
 21
326.41585515665957
 31
0.0
  0
LINE
  5
3237A
  8
0
 10
989.59458958608707
 20
345.41585454571191
 30
0.0
 11
988.67574300868114
 21
345.41585454571191
 31
0.0
  0
POLYLINE
  5
3237C
  8
0
 66
     1
 10
0.0
 20
0.0
 30
0.0
 70
   128
  0
VERTEX
  5
325E5
  8
0
 10
904.75632962090572
 20
326.41585515665957
 30
0.0
  0
VERTEX
  5
325E6
  8
0
 10
904.36420928937991
 20
331.4640919663305
 30
0.0
  0
VERTEX
  5
325E7
  8
0
 10
904.75632962090572
 20
335.91585485118583
 30
0.0
  0
SEQEND
  5
325E8
  8
0
  0
LINE
  5
3237D
  8
0
 10
907.72207048041423
 20
335.91585485118583
 30
0.0
 11
904.75632962090572
 21
335.91585485118583
 31
0.0
  0
LINE
  5
3237E
  8
0
 10
911.72856059176524
 20
326.41585515665957
 30
0.0
 11
904.36253663403591
 21
326.41585515665957
 31
0.0
  0
POLYLINE
  5
3237F
  8
0
 66
     1
 10
0.0
 20
0.0
 30
0.0
 70
   128
  0
VERTEX
  5
325E9
  8
0
 10
904.75632962090572
 20
335.91585485118583
 30
0.0
  0
VERTEX
  5
325EA
  8
0
 10
904.37387269241412
 20
339.88857799994889
 30
0.0
  0
VERTEX
  5
325EB
  8
0
 10
904.46490016085704
 20
341.91592614951679
 30
0.0
  0
SEQEND
  5
325EC
  8
0
  0
LINE
  5
32380
  8
0
 10
904.22856401903232
 20
326.9158552386159
 30
0.0
 11
904.22856401903232
 21
342.29147499281117
 31
0.0
  0
LINE
  5
32383
  8
0
 10
970.72856281203644
 20
239.91585401669829
 30
0.0
 11
970.72856281203644
 21
422.91585234779069
 31
0.0
  0
LINE
  5
32384
  8
0
 10
970.72856281203815
 20
428.91585705655763
 30
0.0
 11
970.72856281203815
 21
431.75975857156459
 31
0.0
  0
LINE
  5
32386
  8
0
 10
920.72856206697838
 20
239.91585401674581
 30
0.0
 11
920.72856206697838
 21
422.91585234779069
 31
0.0
  0
LINE
  5
32387
  8
0
 10
920.7285620669802
 20
428.91585705655763
 30
0.0
 11
920.7285620669802
 21
431.75975857156459
 31
0.0
  0
LINE
  5
32389
  8
0
 10
967.65130911273377
 20
235.91585485118549
 30
0.0
 11
967.65130911273377
 21
422.91585234779069
 31
0.0
  0
LINE
  5
3238A
  8
0
 10
967.65130911273559
 20
428.91585705655763
 30
0.0
 11
967.65130911273559
 21
431.75975857156459
 31
0.0
  0
LINE
  5
3238C
  8
0
 10
923.80581576628106
 20
235.91585485118549
 30
0.0
 11
923.80581576628106
 21
422.91585234779069
 31
0.0
  0
LINE
  5
3238D
  8
0
 10
923.80581576628106
 20
428.91585705655763
 30
0.0
 11
923.80581576628288
 21
431.75975857156459
 31
0.0
  0
LINE
  5
32390
  8
0
 10
970.64400244755348
 20
428.91585705655763
 30
0.0
 11
970.64400244755348
 21
431.75975857156459
 31
0.0
  0
LINE
  5
32393
  8
0
 10
920.81312243146499
 20
428.91585705655763
 30
0.0
 11
920.81312243146499
 21
431.75975857156459
 31
0.0
  0
LINE
  5
32396
  8
0
 10
489.4203921298988
 20
715.17063823892011
 30
0.0
 11
489.4203921298988
 21
711.17063572062386
 31
0.0
  0
LINE
  5
32397
  8
0
 10
489.4203921298988
 20
651.17063706172803
 30
0.0
 11
489.4203921298988
 21
647.17063454343167
 31
0.0
  0
LINE
  5
32398
  8
0
 10
502.92039248007609
 20
711.17063572062386
 30
0.0
 11
502.92039248007609
 21
706.17063676370469
 31
0.0
  0
LINE
  5
32399
  8
0
 10
502.92039248007609
 20
656.17063601864675
 30
0.0
 11
502.92039248007609
 21
651.17063706172803
 31
0.0
  0
LINE
  5
3239A
  8
0
 10
508.92039253223192
 20
725.17063615275708
 30
0.0
 11
506.9507374878533
 21
724.64287055088369
 31
0.0
  0
LINE
  5
3239B
  8
0
 10
506.9507374878533
 20
715.6984038407935
 30
0.0
 11
508.92039253223192
 21
715.17063823892011
 31
0.0
  0
LINE
  5
3239C
  8
0
 10
506.9507374878533
 20
640.19840357257215
 30
0.0
 11
508.92039253223192
 21
639.67063797069875
 31
0.0
  0
LINE
  5
3239E
  8
0
 10
417.92039065468379
 20
703.09338306440213
 30
0.0
 11
417.92039065468379
 21
659.24788971794942
 31
0.0
  0
ARC
  5
3239F
  8
0
 10
420.92039214479991
 20
703.09338388498963
 30
0.0
 40
2.9999999999989759
 50
93.999999999970385
 51
180.00000000000651
  0
ARC
  5
323A0
  8
0
 10
420.92039214479991
 20
659.24788889736226
 30
0.0
 40
2.999999999999003
 50
179.99999999998701
 51
266.00000000002962
  0
LINE
  5
323A1
  8
0
 10
421.9203913103367
 20
706.17063676370469
 30
0.0
 11
420.71112482655298
 21
706.08607639922002
 31
0.0
  0
LINE
  5
323A2
  8
0
 10
420.71112482655298
 20
656.25519638313153
 30
0.0
 11
421.9203913103367
 21
656.17063601864675
 31
0.0
  0
LINE
  5
323A4
  8
0
 10
646.92038534987034
 20
736.17063609315198
 30
0.0
 11
528.92039208519532
 21
736.17063609315198
 31
0.0
  0
ARC
  5
323A5
  8
0
 10
646.92039214479814
 20
725.17063639117168
 30
0.0
 40
11.000000000003491
 50
0.0000000000195413
 51
89.999999999967429
  0
LINE
  5
323A6
  8
0
 10
657.92039274084823
 20
637.1706366295939
 30
0.0
 11
657.92039274084823
 21
725.17063615275674
 31
0.0
  0
ARC
  5
323A7
  8
0
 10
646.92039214479814
 20
637.17063639117896
 30
0.0
 40
11.000000000003491
 50
270.00000000000648
 51
359.9999999999805
  0
LINE
  5
323A8
  8
0
 10
528.92039208519532
 20
626.17063668919855
 30
0.0
 11
646.92038534987034
 21
626.17063668919855
 31
0.0
  0
ARC
  5
323A9
  8
0
 10
528.92039214479985
 20
637.17063639117532
 30
0.0
 40
11.00000000000008
 50
180.0
 51
270.0
  0
LINE
  5
323AA
  8
0
 10
517.92039214479985
 20
725.17063615275674
 30
0.0
 11
517.92039214479985
 21
637.1706366295939
 31
0.0
  0
ARC
  5
323AB
  8
0
 10
528.92039214479985
 20
725.17063639117532
 30
0.0
 40
11.00000000000008
 50
90.0
 51
180.0
  0
LINE
  5
323AC
  8
0
 10
634.92039083349948
 20
644.67063692761712
 30
0.0
 11
634.92039083349948
 21
637.67063764287275
 31
0.0
  0
ARC
  5
323AD
  8
0
 10
640.42039214479985
 20
637.67063639117532
 30
0.0
 40
5.5000000000001128
 50
180.0
 51
0.0
  0
LINE
  5
323AE
  8
0
 10
645.92039822447373
 20
637.67063764287275
 30
0.0
 11
645.92039822447373
 21
644.67063692761712
 31
0.0
  0
ARC
  5
323AF
  8
0
 10
640.42039214479985
 20
644.67063639117532
 30
0.0
 40
5.5000000000001128
 50
0.0
 51
180.0
  0
LINE
  5
323B0
  8
0
 10
645.92039822447373
 20
717.67063585473352
 30
0.0
 11
645.92039822447373
 21
724.67063513947767
 31
0.0
  0
ARC
  5
323B1
  8
0
 10
640.42039214479985
 20
724.67063639117532
 30
0.0
 40
5.5000000000001128
 50
0.0
 51
180.0
  0
LINE
  5
323B2
  8
0
 10
634.92039083349948
 20
724.67063513947767
 30
0.0
 11
634.92039083349948
 21
717.67063585473352
 31
0.0
  0
ARC
  5
323B3
  8
0
 10
640.42039214479985
 20
717.67063639117532
 30
0.0
 40
5.5000000000001128
 50
180.0
 51
0.0
  0
LINE
  5
323B4
  8
0
 10
540.92039218950345
 20
637.67063764287275
 30
0.0
 11
540.92039218950345
 21
644.67063692761712
 31
0.0
  0
ARC
  5
323B5
  8
0
 10
535.42039214479985
 20
644.67063639117532
 30
0.0
 40
5.5000000000000417
 50
0.0
 51
180.0
  0
LINE
  5
323B6
  8
0
 10
529.92039224910809
 20
644.67063692761712
 30
0.0
 11
529.92039224910809
 21
637.67063764287275
 31
0.0
  0
ARC
  5
323B7
  8
0
 10
535.42039214479985
 20
637.67063639117532
 30
0.0
 40
5.5000000000000417
 50
180.0
 51
0.0
  0
LINE
  5
323B8
  8
0
 10
529.92039224910809
 20
724.67063513947767
 30
0.0
 11
529.92039224910809
 21
717.67063585473352
 31
0.0
  0
ARC
  5
323B9
  8
0
 10
535.42039214479985
 20
717.67063639117532
 30
0.0
 40
5.5000000000000417
 50
180.0
 51
0.0
  0
LINE
  5
323BA
  8
0
 10
540.92039218950345
 20
717.67063585473352
 30
0.0
 11
540.92039218950345
 21
724.67063513947767
 31
0.0
  0
ARC
  5
323BB
  8
0
 10
535.42039214479985
 20
724.67063639117532
 30
0.0
 40
5.5000000000000417
 50
0.0
 51
180.0
  0
LINE
  5
323CA
  8
0
 10
540.31937247920109
 20
647.17063454343133
 30
0.0
 11
530.52141289073302
 21
647.17063454343133
 31
0.0
  0
LINE
  5
323CB
  8
0
 10
540.31937247920109
 20
715.17063823891931
 30
0.0
 11
530.52141289073302
 21
715.17063823891931
 31
0.0
  0
LINE
  5
323CC
  8
0
 10
489.42039212989903
 20
711.17063572062375
 30
0.0
 11
517.92039214479985
 21
711.17063572062295
 31
0.0
  0
LINE
  5
323CE
  8
0
 10
517.92039214479985
 20
715.17063823891931
 30
0.0
 11
489.42039212989903
 21
715.17063823892011
 31
0.0
  0
LINE
  5
323D0
  8
0
 10
489.42039212989903
 20
651.17063706172803
 30
0.0
 11
517.92039214479985
 21
651.17063706172746
 31
0.0
  0
LINE
  5
323D1
  8
0
 10
517.92039214479985
 20
647.17063454343133
 30
0.0
 11
489.42039212989903
 21
647.1706345434319
 31
0.0
  0
LINE
  5
323D2
  8
0
 10
707.32137798178269
 20
649.67063588453584
 30
0.0
 11
707.32137798178269
 21
712.6706368978148
 31
0.0
  0
LINE
  5
323D5
  8
0
 10
707.32137798178269
 20
649.67063588453584
 30
0.0
 11
657.92039274084823
 21
649.67063588453584
 31
0.0
  0
LINE
  5
323D6
  8
0
 10
642.71167903054015
 20
649.67063588453584
 30
0.0
 11
638.12910257685257
 21
649.67063588453584
 31
0.0
  0
LINE
  5
323D7
  8
0
 10
707.32137798178269
 20
712.6706368978148
 30
0.0
 11
657.92039274084823
 21
712.6706368978148
 31
0.0
  0
LINE
  5
323D8
  8
0
 10
642.71167903054015
 20
712.6706368978148
 30
0.0
 11
638.12910257685257
 21
712.6706368978148
 31
0.0
  0
LINE
  5
323D9
  8
0
 10
717.16945110666802
 20
666.17063672645133
 30
0.0
 11
707.32137798178269
 21
666.17063672645145
 31
0.0
  0
LINE
  5
323DA
  8
0
 10
717.16945110666802
 20
696.17063605589908
 30
0.0
 11
707.32137798178269
 21
696.17063605589908
 31
0.0
  0
LINE
  5
323DC
  8
0
 10
717.16945110666825
 20
666.17063672645145
 30
0.0
 11
717.16945110666825
 21
696.17063605589908
 31
0.0
  0
LINE
  5
323E3
  8
0
 10
512.43556481632845
 20
724.64287055088369
 30
0.0
 11
512.43556481632845
 21
715.69840384079305
 31
0.0
  0
POLYLINE
  5
323E4
  8
0
 66
     1
 10
0.0
 20
0.0
 30
0.0
 70
   128
  0
VERTEX
  5
325ED
  8
0
 10
517.92039214479985
 20
724.99589023543695
 30
0.0
  0
VERTEX
  5
325EE
  8
0
 10
513.8167120035298
 20
724.80932397199956
 30
0.0
  0
VERTEX
  5
325EF
  8
0
 10
512.43556481632845
 20
724.64287055088369
 30
0.0
  0
SEQEND
  5
325F0
  8
0
  0
POLYLINE
  5
323E5
  8
0
 66
     1
 10
0.0
 20
0.0
 30
0.0
 70
   128
  0
VERTEX
  5
325F1
  8
0
 10
512.43556481632845
 20
715.69840384079305
 30
0.0
  0
VERTEX
  5
325F2
  8
0
 10
513.8167120035298
 20
715.53195041967717
 30
0.0
  0
VERTEX
  5
325F3
  8
0
 10
517.92039214479985
 20
715.34129378749219
 30
0.0
  0
SEQEND
  5
325F4
  8
0
  0
POLYLINE
  5
323E6
  8
0
 66
     1
 10
0.0
 20
0.0
 30
0.0
 70
   128
  0
VERTEX
  5
325F5
  8
0
 10
512.43556481632845
 20
724.64287055088369
 30
0.0
  0
VERTEX
  5
325F6
  8
0
 10
509.86508983033968
 20
725.03499460769979
 30
0.0
  0
VERTEX
  5
325F7
  8
0
 10
506.9507374878533
 20
724.64287055088369
 30
0.0
  0
SEQEND
  5
325F8
  8
0
  0
LINE
  5
323E7
  8
0
 10
517.92039214479985
 20
725.17063615275708
 30
0.0
 11
508.92039253223192
 21
725.17063615275708
 31
0.0
  0
LINE
  5
323E8
  8
0
 10
506.9507374878533
 20
724.64287055088369
 30
0.0
 11
506.9507374878533
 21
715.6984038407935
 31
0.0
  0
POLYLINE
  5
323E9
  8
0
 66
     1
 10
0.0
 20
0.0
 30
0.0
 70
   128
  0
VERTEX
  5
325F9
  8
0
 10
506.9507374878533
 20
715.6984038407935
 30
0.0
  0
VERTEX
  5
325FA
  8
0
 10
509.86508983033968
 20
715.30627978397695
 30
0.0
  0
VERTEX
  5
325FB
  8
0
 10
512.43556481632845
 20
715.69840384079305
 30
0.0
  0
SEQEND
  5
325FC
  8
0
  0
POLYLINE
  5
323EA
  8
0
 66
     1
 10
0.0
 20
0.0
 30
0.0
 70
   128
  0
VERTEX
  5
325FD
  8
0
 10
512.43556481632845
 20
640.19840357257215
 30
0.0
  0
VERTEX
  5
325FE
  8
0
 10
509.86508983033968
 20
639.80627951575605
 30
0.0
  0
VERTEX
  5
325FF
  8
0
 10
506.9507374878533
 20
640.19840357257215
 30
0.0
  0
SEQEND
  5
32600
  8
0
  0
LINE
  5
323EB
  8
0
 10
506.9507374878533
 20
647.17063454343167
 30
0.0
 11
506.9507374878533
 21
640.19840357257215
 31
0.0
  0
LINE
  5
323EC
  8
0
 10
512.43556481632845
 20
647.17063454343167
 30
0.0
 11
512.43556481632845
 21
640.19840357257215
 31
0.0
  0
POLYLINE
  5
323ED
  8
0
 66
     1
 10
0.0
 20
0.0
 30
0.0
 70
   128
  0
VERTEX
  5
32601
  8
0
 10
517.92039214479985
 20
639.84538016272882
 30
0.0
  0
VERTEX
  5
32602
  8
0
 10
513.8167120035298
 20
640.03195015145627
 30
0.0
  0
VERTEX
  5
32603
  8
0
 10
512.43556481632845
 20
640.19840357257215
 30
0.0
  0
SEQEND
  5
32604
  8
0
  0
LINE
  5
323EE
  8
0
 10
517.92039214479985
 20
639.67063797069875
 30
0.0
 11
508.92039253223192
 21
639.67063797069875
 31
0.0
  0
LINE
  5
323F0
  8
0
 10
517.92039214479985
 20
706.17063676370435
 30
0.0
 11
421.9203913103367
 21
706.17063676370469
 31
0.0
  0
LINE
  5
323F1
  8
0
 10
517.92039214479985
 20
656.17063601864618
 30
0.0
 11
421.9203913103367
 21
656.17063601864675
 31
0.0
  0
LINE
  5
323F2
  8
0
 10
517.92039214479985
 20
703.09338306440156
 30
0.0
 11
417.92039065468379
 21
703.09338306440213
 31
0.0
  0
LINE
  5
323F3
  8
0
 10
517.92039214479985
 20
659.24788971794885
 30
0.0
 11
417.92039065468379
 21
659.24788971794942
 31
0.0
  0
CIRCLE
  5
323FE
  8
0
 10
587.92039274084811
 20
681.17063639117532
 30
0.0
 40
31.175000000000001
  0
LINE
  5
323FF
  8
0
 10
512.43556481632845
 20
345.41585305559602
 30
0.0
 11
506.9507374878533
 21
335.91585336106982
 31
0.0
  0
LINE
  5
32400
  8
0
 10
506.9507374878533
 20
335.91585336106982
 30
0.0
 11
512.43556481632845
 21
326.41585366654363
 31
0.0
  0
LINE
  5
32401
  8
0
 10
523.40521947327329
 20
345.41585305559602
 30
0.0
 11
528.89004680174844
 21
335.91585336106982
 31
0.0
  0
LINE
  5
32402
  8
0
 10
528.89004680174844
 20
335.91585336106982
 30
0.0
 11
523.40521947327329
 21
326.41585366654363
 31
0.0
  0
ARC
  5
32404
  8
0
 10
517.92039214479985
 20
335.91585336106982
 30
0.0
 40
25.999999999999989
 50
210.53801255698329
 51
328.62380716599341
  0
ARC
  5
32405
  8
0
 10
517.92039214479951
 20
335.91585336106982
 30
0.0
 40
88.875000000000014
 50
89.891437081554201
 51
36.08699807453128
  0
ARC
  5
32406
  8
0
 10
517.92039214479951
 20
335.91585336106982
 30
0.0
 40
100.0000000000001
 50
87.914368746143722
 51
38.33215365849297
  0
ARC
  5
32407
  8
0
 10
517.92039214479985
 20
335.91585336106982
 30
0.0
 40
29.500000000000011
 50
136.3053983160687
 51
337.82514400174728
  0
ARC
  5
32408
  8
0
 10
517.92039214479951
 20
335.91585336106982
 30
0.0
 40
85.750000000000114
 50
90.543609077309128
 51
35.344888615685242
  0
LINE
  5
32409
  8
0
 10
467.51780676072002
 20
405.28906062872193
 30
0.0
 11
498.55879771328858
 21
362.5648018880978
 31
0.0
  0
LINE
  5
3240A
  8
0
 10
489.42558026927247
 20
343.55101519159422
 30
0.0
 11
435.09225254051188
 21
358.10958647861111
 31
0.0
  0
LINE
  5
3240B
  8
0
 10
501.85354061185689
 20
311.17507160667992
 30
0.0
 11
471.21759489226019
 21
263.99985215974988
 31
0.0
  0
LINE
  5
3240C
  8
0
 10
536.48534368076946
 20
312.99004749808859
 30
0.0
 11
571.88461567732315
 21
269.2755871661347
 31
0.0
  0
LINE
  5
3240D
  8
0
 10
566.73920467338326
 20
354.65563972392931
 30
0.0
 11
597.97491371693445
 21
366.6459050345793
 31
0.0
  0
ARC
  5
3240E
  8
0
 10
517.92039214479951
 20
335.91585336106982
 30
0.0
 40
81.920121728121686
 50
125.9999999999787
 51
165.00000000000551
  0
ARC
  5
3240F
  8
0
 10
517.92039214479985
 20
335.91585336106982
 30
0.0
 40
81.920121728121984
 50
198.0000000000212
 51
236.9999999999749
  0
LINE
  5
32410
  8
0
 10
436.36729587248982
 20
309.41764609341772
 30
0.0
 11
489.8642249140932
 21
326.79985202700749
 31
0.0
  0
ARC
  5
32411
  8
0
 10
517.92039214479985
 20
335.91585336106982
 30
0.0
 40
81.920121728121757
 50
270.0
 51
309.0000000000108
  0
LINE
  5
32412
  8
0
 10
517.92039214479985
 20
250.7937700609364
 30
0.0
 11
517.92039214479985
 21
306.41585336106982
 31
0.0
  0
LINE
  5
32413
  8
0
 10
599.47348841710857
 20
309.41764609341772
 30
0.0
 11
545.97655937550655
 21
326.79985202700851
 31
0.0
  0
ARC
  5
32414
  8
0
 10
517.92039214479985
 20
335.91585336106982
 30
0.0
 40
81.920121728121686
 50
341.9999999999788
 51
20.999999999981011
  0
LINE
  5
32415
  8
1
 10
888.7804998817362
 20
335.91585336106982
 30
0.0
 11
1002.676624997282
 21
335.91585336106982
 31
0.0
  0
LINE
  5
32416
  8
1
 10
587.92039214480076
 20
511.33017618506523
 30
0.0
 11
587.92039214480042
 21
417.24222884008299
 31
0.0
  0
LINE
  5
32417
  8
1
 10
392.50606932080308
 20
335.91585336106982
 30
0.0
 11
643.33471496879588
 21
335.91585336106982
 31
0.0
  0
LINE
  5
32418
  8
1
 10
517.92039214479951
 20
210.50153053707339
 30
0.0
 11
517.92039214479951
 21
439.74368878072983
 31
0.0
  0
LINE
  5
32419
  8
1
 10
945.72856243950923
 20
210.50153053707339
 30
0.0
 11
945.72856243950866
 21
511.33017618506619
 31
0.0
  0
LINE
  5
3241A
  8
1
 10
130.95381896854241
 20
335.91585336106982
 30
0.0
 11
244.84994408408809
 21
335.91585336106982
 31
0.0
  0
LINE
  5
3241B
  8
1
 10
187.90188152631549
 20
210.50153053707339
 30
0.0
 11
187.90188152631501
 21
511.33017618506619
 31
0.0
  0
LINE
  5
3241C
  8
1
 10
587.92039214479939
 20
601.96241261894102
 30
0.0
 11
587.92039214479939
 21
760.37886016340963
 31
0.0
  0
LINE
  5
3241D
  8
1
 10
734.09148221857822
 20
681.17063639117532
 30
0.0
 11
392.50606932080308
 21
681.17063639117532
 31
0.0
  0
LINE
  5
3241E
  8
1
 10
517.92039214479951
 20
626.84410139531417
 30
0.0
 11
517.92039214479951
 21
735.49717138703625
 31
0.0
  0
LINE
  5
3241F
  8
1
 10
535.42039214479905
 20
708.72970628435814
 30
0.0
 11
535.42039214479905
 21
732.6115664979925
 31
0.0
  0
LINE
  5
32420
  8
1
 10
544.36132225161612
 20
717.67063639117532
 30
0.0
 11
526.47946203798176
 21
717.67063639117532
 31
0.0
  0
LINE
  5
32421
  8
1
 10
544.36132225161612
 20
724.67063639117532
 30
0.0
 11
526.47946203798176
 21
724.67063639117532
 31
0.0
  0
LINE
  5
32422
  8
1
 10
535.42039214479905
 20
653.6115664979925
 30
0.0
 11
535.42039214479905
 21
629.72970628435814
 31
0.0
  0
LINE
  5
32423
  8
1
 10
544.36132225161612
 20
644.67063639117532
 30
0.0
 11
526.47946203798176
 21
644.67063639117532
 31
0.0
  0
LINE
  5
32424
  8
1
 10
544.36132225161612
 20
637.67063639117532
 30
0.0
 11
526.47946203798176
 21
637.67063639117532
 31
0.0
  0
LINE
  5
32425
  8
1
 10
640.42039214479985
 20
708.72970628435814
 30
0.0
 11
640.42039214479985
 21
732.6115664979925
 31
0.0
  0
LINE
  5
32426
  8
1
 10
631.47946203798278
 20
717.67063639117532
 30
0.0
 11
649.36132225161714
 21
717.67063639117532
 31
0.0
  0
LINE
  5
32427
  8
1
 10
631.47946203798278
 20
724.67063639117532
 30
0.0
 11
649.36132225161714
 21
724.67063639117532
 31
0.0
  0
LINE
  5
32428
  8
1
 10
640.42039214479985
 20
653.6115664979925
 30
0.0
 11
640.42039214479985
 21
629.72970628435814
 31
0.0
  0
LINE
  5
32429
  8
1
 10
631.47946203798278
 20
644.67063639117532
 30
0.0
 11
649.36132225161714
 21
644.67063639117532
 31
0.0
  0
LINE
  5
3242A
  8
1
 10
631.47946203798278
 20
637.67063639117532
 30
0.0
 11
649.36132225161714
 21
637.67063639117532
 31
0.0
  0
LINE
  5
32485
  8
0
 10
138.90188247998771
 20
329.91585336106982
 30
0.0
 11
138.90188247998771
 21
341.91585336106982
 31
0.0
  0
LINE
  5
32486
  8
0
 10
136.90188247998771
 20
339.91585336106982
 30
0.0
 11
138.90188247998771
 21
341.91585336106982
 31
0.0
  0
LINE
  5
32487
  8
0
 10
136.90188247998771
 20
331.91585336106982
 30
0.0
 11
138.90188247998771
 21
329.91585336106982
 31
0.0
  0
LINE
  5
32488
  8
0
 10
143.90188176473399
 20
329.91585336106982
 30
0.0
 11
138.90188247998771
 21
329.91585336106982
 31
0.0
  0
LINE
  5
32489
  8
3
 10
143.90188176473399
 20
330.86285336106971
 30
0.0
 11
137.95488247998759
 21
330.86285336106971
 31
0.0
  0
LINE
  5
3248A
  8
3
 10
143.90188176473399
 20
340.96885336106982
 30
0.0
 11
137.9548824799879
 21
340.96885336106982
 31
0.0
  0
LINE
  5
3248B
  8
0
 10
143.90188176473399
 20
341.91585336106982
 30
0.0
 11
138.90188247998771
 21
341.91585336106982
 31
0.0
  0
LINE
  5
3248C
  8
0
 10
136.90188247998771
 20
331.91585336106982
 30
0.0
 11
136.90188247998771
 21
339.91585336106982
 31
0.0
  0
LINE
  5
3249C
  8
0
 10
994.72856148583685
 20
329.91585479903159
 30
0.0
 11
994.72856148583685
 21
341.91585479903171
 31
0.0
  0
LINE
  5
3249D
  8
0
 10
996.72856148583685
 20
339.91585479903171
 30
0.0
 11
994.72856148583685
 21
341.91585479903171
 31
0.0
  0
LINE
  5
3249E
  8
0
 10
996.72856148583685
 20
331.91585479903171
 30
0.0
 11
994.72856148583685
 21
329.91585479903171
 31
0.0
  0
LINE
  5
3249F
  8
0
 10
989.72856220109065
 20
329.91585479903171
 30
0.0
 11
994.72856148583685
 21
329.91585479903171
 31
0.0
  0
LINE
  5
324A0
  8
3
 10
989.72856220109065
 20
330.86285479903171
 30
0.0
 11
995.67556148583708
 21
330.86285479903171
 31
0.0
  0
LINE
  5
324A1
  8
3
 10
989.72856220109065
 20
340.9688547990317
 30
0.0
 11
995.67556148583685
 21
340.9688547990317
 31
0.0
  0
LINE
  5
324A2
  8
0
 10
989.72856220109065
 20
341.91585479903171
 30
0.0
 11
994.72856148583685
 21
341.91585479903171
 31
0.0
  0
LINE
  5
324A3
  8
0
 10
996.72856148583685
 20
331.91585479903171
 30
0.0
 11
996.72856148583685
 21
339.91585479903171
 31
0.0
  0
LINE
  5
324A4
  8
0
 10
519.12243268699854
 20
730.17063543750339
 30
0.0
 11
511.92039214479939
 21
730.17063543750351
 31
0.0
  0
LINE
  5
324A5
  8
0
 10
513.92039214479951
 20
732.17063543750339
 30
0.0
 11
511.92039214479939
 21
730.17063543750351
 31
0.0
  0
LINE
  5
324A9
  8
3
 10
512.86739214479962
 20
725.17063615275708
 30
0.0
 11
512.86739214479962
 21
731.11763543750328
 31
0.0
  0
LINE
  5
324AA
  8
0
 10
511.92039214479939
 20
725.17063615275708
 30
0.0
 11
511.92039214479939
 21
730.17063543750351
 31
0.0
  0
LINE
  5
324AB
  8
0
 10
520.43510998382214
 20
732.17063543750339
 30
0.0
 11
513.92039214479951
 21
732.17063543750339
 31
0.0
  0
TEXT
  5
32547
  8
0
 62
     3
 10
0.0
 20
0.0
 30
0.0
 40
10.0
  1
CAF5-200SSF-H
  7
STANDARD1
  0
ENDSEC
  0
EOF
