  0
SECTION
  2
HEADER
  9
$ACADVER
  1
AC1009
  9
$INSBASE
 10
0.0
 20
0.0
 30
0.0
  9
$EXTMIN
 10
0.0
 20
-2.960436562073669
 30
0.0
  9
$EXTMAX
 10
568.33147742704296
 20
421.81803182229999
 30
0.0
  9
$LIMMIN
 10
0.0
 20
0.0
  9
$LIMMAX
 10
375.0
 20
270.0
  9
$ORTHOMODE
 70
     1
  9
$REGENMODE
 70
     1
  9
$FILLMODE
 70
     1
  9
$QTEXTMODE
 70
     0
  9
$MIRRTEXT
 70
     1
  9
$DRAGMODE
 70
     2
  9
$LTSCALE
 40
10.0
  9
$OSMODE
 70
    37
  9
$ATTMODE
 70
     1
  9
$TEXTSIZE
 40
5.0
  9
$TRACEWID
 40
0.05
  9
$TEXTSTYLE
  7
STANDARD
  9
$CLAYER
  8
0
  9
$CELTYPE
  6
BYLAYER
  9
$CECOLOR
 62
     6
  9
$DIMSCALE
 40
1.0
  9
$DIMASZ
 40
3.0
  9
$DIMEXO
 40
2.0
  9
$DIMDLI
 40
0.38
  9
$DIMRND
 40
0.0
  9
$DIMDLE
 40
0.0
  9
$DIMEXE
 40
2.0
  9
$DIMTP
 40
0.0
  9
$DIMTM
 40
0.0
  9
$DIMTXT
 40
3.2000000000000002
  9
$DIMCEN
 40
0.0
  9
$DIMTSZ
 40
0.0
  9
$DIMTOL
 70
     0
  9
$DIMLIM
 70
     0
  9
$DIMTIH
 70
     0
  9
$DIMTOH
 70
     0
  9
$DIMSE1
 70
     0
  9
$DIMSE2
 70
     0
  9
$DIMTAD
 70
     1
  9
$DIMZIN
 70
     8
  9
$DIMBLK
  1

  9
$DIMASO
 70
     0
  9
$DIMSHO
 70
     0
  9
$DIMPOST
  1

  9
$DIMAPOST
  1

  9
$DIMALT
 70
     0
  9
$DIMALTD
 70
     2
  9
$DIMALTF
 40
25.399999999999999
  9
$DIMLFAC
 40
1.0
  9
$DIMTOFL
 70
     0
  9
$DIMTVP
 40
1.6000000000000001
  9
$DIMTIX
 70
     1
  9
$DIMSOXD
 70
     0
  9
$DIMSAH
 70
     0
  9
$DIMBLK1
  1

  9
$DIMBLK2
  1

  9
$DIMSTYLE
  2
STANDARD
  9
$DIMCLRD
 70
     0
  9
$DIMCLRE
 70
     0
  9
$DIMCLRT
 70
     0
  9
$DIMTFAC
 40
1.0
  9
$DIMGAP
 40
1.1999999999999991
  9
$LUNITS
 70
     2
  9
$LUPREC
 70
     4
  9
$SKETCHINC
 40
0.1
  9
$FILLETRAD
 40
0.0
  9
$AUNITS
 70
     0
  9
$AUPREC
 70
     4
  9
$MENU
  1
ACAD
  9
$ELEVATION
 40
0.0
  9
$PELEVATION
 40
0.0
  9
$THICKNESS
 40
0.0
  9
$LIMCHECK
 70
     0
  9
$BLIPMODE
 70
     0
  9
$CHAMFERA
 40
0.0
  9
$CHAMFERB
 40
0.0
  9
$SKPOLY
 70
     0
  9
$TDCREATE
 40
2448055.7149187499
  9
$TDUPDATE
 40
2459565.484992859
  9
$TDINDWG
 40
2.0718112384
  9
$TDUSRTIMER
 40
2.0718112384
  9
$USRTIMER
 70
     1
  9
$ANGBASE
 50
0.0
  9
$ANGDIR
 70
     0
  9
$PDMODE
 70
     0
  9
$PDSIZE
 40
0.0
  9
$PLINEWID
 40
0.0
  9
$COORDS
 70
     1
  9
$SPLFRAME
 70
     0
  9
$SPLINETYPE
 70
     6
  9
$SPLINESEGS
 70
     8
  9
$ATTDIA
 70
     0
  9
$ATTREQ
 70
     1
  9
$HANDLING
 70
     1
  9
$HANDSEED
  5
14811
  9
$SURFTAB1
 70
     6
  9
$SURFTAB2
 70
     6
  9
$SURFTYPE
 70
     6
  9
$SURFU
 70
     6
  9
$SURFV
 70
     6
  9
$UCSNAME
  2

  9
$UCSORG
 10
0.0
 20
0.0
 30
0.0
  9
$UCSXDIR
 10
1.0
 20
0.0
 30
0.0
  9
$UCSYDIR
 10
0.0
 20
1.0
 30
0.0
  9
$PUCSNAME
  2

  9
$PUCSORG
 10
0.0
 20
0.0
 30
0.0
  9
$PUCSXDIR
 10
1.0
 20
0.0
 30
0.0
  9
$PUCSYDIR
 10
0.0
 20
1.0
 30
0.0
  9
$USERI1
 70
     0
  9
$USERI2
 70
     0
  9
$USERI3
 70
     0
  9
$USERI4
 70
     0
  9
$USERI5
 70
     0
  9
$USERR1
 40
0.0
  9
$USERR2
 40
0.0
  9
$USERR3
 40
0.0
  9
$USERR4
 40
0.0
  9
$USERR5
 40
0.0
  9
$WORLDVIEW
 70
     1
  9
$SHADEDGE
 70
     3
  9
$SHADEDIF
 70
    70
  9
$TILEMODE
 70
     1
  9
$MAXACTVP
 70
    16
  9
$PLIMCHECK
 70
     0
  9
$PEXTMIN
 10
1.0000000000000000E+020
 20
1.0000000000000000E+020
 30
1.0000000000000000E+020
  9
$PEXTMAX
 10
-1.0000000000000000E+020
 20
-1.0000000000000000E+020
 30
-1.0000000000000000E+020
  9
$PLIMMIN
 10
0.0
 20
0.0
  9
$PLIMMAX
 10
12.0
 20
9.0
  9
$UNITMODE
 70
     0
  9
$VISRETAIN
 70
     0
  9
$PLINEGEN
 70
     1
  9
$PSLTSCALE
 70
     0
  0
ENDSEC
  0
SECTION
  2
TABLES
  0
TABLE
  2
VPORT
 70
     1
  0
VPORT
  2
*ACTIVE
 70
     0
 10
0.0
 20
0.0
 11
1.0
 21
1.0
 12
482.01713463078153
 22
209.4286404136266
 13
0.0
 23
0.0
 14
5.0
 24
5.0
 15
10.0
 25
10.0
 16
0.0
 26
0.0
 36
1.0
 17
0.0
 27
0.0
 37
0.0
 40
428.62183308266248
 41
2.3805970149253728
 42
50.0
 43
0.0
 44
0.0
 50
0.0
 51
0.0
 71
     0
 72
   500
 73
     1
 74
     1
 75
     0
 76
     0
 77
     0
 78
     2
  0
ENDTAB
  0
TABLE
  2
LTYPE
 70
     4
  0
LTYPE
  2
CONTINUOUS
 70
     0
  3
実線
 72
    65
 73
     0
 40
0.0
  0
LTYPE
  2
CENTER
 70
     0
  3
____ _ ____ _ ____ _ ____ _ ____ _ ____ _ ____
 72
    65
 73
     4
 40
2.0
 49
1.25
 49
-0.25
 49
0.25
 49
-0.25
  0
LTYPE
  2
HIDDEN
 70
     0
  3
_ _ _ _ _ _ _ _ _ _ _ _ _ _ _ _ _ _ _ _ _ _ _
 72
    65
 73
     2
 40
0.375
 49
0.25
 49
-0.125
  0
LTYPE
  2
PHANTOM2
 70
     0
  3
___ _ _ ___ _ _ ___ _ _ ___ _ _
 72
    65
 73
     6
 40
1.25
 49
0.625
 49
-0.125
 49
0.125
 49
-0.125
 49
0.125
 49
-0.125
  0
ENDTAB
  0
TABLE
  2
LAYER
 70
     5
  0
LAYER
  2
0
 70
     0
 62
     7
  6
CONTINUOUS
  0
LAYER
  2
1
 70
     0
 62
     1
  6
CENTER
  0
LAYER
  2
2
 70
     0
 62
     2
  6
HIDDEN
  0
LAYER
  2
DEFPOINTS
 70
     0
 62
     7
  6
CONTINUOUS
  0
LAYER
  2
3
 70
     0
 62
     3
  6
CONTINUOUS
  0
ENDTAB
  0
TABLE
  2
STYLE
 70
     3
  0
STYLE
  2
STANDARD
 70
     0
 40
0.0
 41
1.0
 50
0.0
 71
     0
 42
5.0
  3
simplex.shx
  4
bigfont.shx
  0
STYLE
  2
07500
 70
     0
 40
0.0
 41
0.75
 50
0.0
 71
     0
 42
0.2
  3
simplex.shx
  4
bigfont.shx
  0
STYLE
  2
STANDARD1
 70
     0
 40
0.0
 41
1.0
 50
0.0
 71
     0
 42
3.0
  3
txt
  4

  0
ENDTAB
  0
TABLE
  2
VIEW
 70
     2
  0
VIEW
  2
ALL
 70
     0
 40
270.0
 10
220.99159663865549
 20
135.0
 41
0.0
 11
0.0
 21
0.0
 31
1.0
 12
0.0
 22
0.0
 32
0.0
 42
0.0
 43
0.0
 44
0.0
 50
0.0
 71
     0
  0
VIEW
  2
OLE1
 70
     0
 40
168.2487151179721
 10
2892.3009567448912
 20
702.51600084347126
 41
162.5749581879237
 11
0.0
 21
0.0
 31
1.0
 12
0.0
 22
0.0
 32
0.0
 42
50.0
 43
0.0
 44
0.0
 50
0.0
 71
     0
  0
ENDTAB
  0
TABLE
  2
UCS
 70
     0
  0
ENDTAB
  0
TABLE
  2
APPID
 70
    48
  0
APPID
  2
ACAD
 70
     0
  0
APPID
  2
DCO15
 70
     0
  0
APPID
  2
GENIUS_GENOREF_13
 70
     0
  0
APPID
  2
GENIUS_GENOENT_13
 70
     0
  0
APPID
  2
GENIUS_GENBH_13
 70
     0
  0
APPID
  2
GENIUS_GENOBJ_13
 70
     0
  0
APPID
  2
GENIUS_GENODEF_13
 70
     0
  0
APPID
  2
GENIUS_GENOLIS_13
 70
     0
  0
APPID
  2
GENIUS_GENOBJ-NBEHI-BHF_13
 70
     0
  0
APPID
  2
GENIUS_GENOBJ-NBEHI-BHB_13
 70
     0
  0
APPID
  2
GENIUS_GENOBJ-F-PART_13
 70
     0
  0
APPID
  2
GENIUS_GEFSTDP_13
 70
     0
  0
APPID
  2
GENIUS_GENOBJ-N-RSSYM_13
 70
     0
  0
APPID
  2
GENIUS_GENSYMENT_13
 70
     0
  0
APPID
  2
GENIUS_GENOBJ-N-TIT_13
 70
     0
  0
APPID
  2
GENIUS_GENTITLE_13
 70
     0
  0
APPID
  2
GENIUS_GENZVEED_13
 70
     0
  0
APPID
  2
GENIUS_GENOBJ-N-LEADER_13
 70
     0
  0
APPID
  2
GENIUS_GENOBJ-N-FIL_13
 70
     0
  0
APPID
  2
GENIUS_GENOBJ-N-SEC_13
 70
     0
  0
APPID
  2
GENIUS_GENOBJ-N-CRS_13
 70
     0
  0
APPID
  2
GENIUS_GENOBJ-N-ZOO_13
 70
     0
  0
APPID
  2
GENIUS_GENZOO_13
 70
     0
  0
APPID
  2
GENIUS_GENOBJ-F-TOL_13
 70
     0
  0
APPID
  2
GENIUS_GENFIL_13
 70
     0
  0
APPID
  2
GENIUS_GENOBJ-N-CHA_13
 70
     0
  0
APPID
  2
_CALL_MAC$
 70
     0
  0
APPID
  2
ASM_BASE
 70
     0
  0
APPID
  2
ASM_EXPLO_VER_2_00
 70
     0
  0
APPID
  2
ASM_CADM_VER_12_00
 70
     0
  0
APPID
  2
ASM_BASEFORO
 70
     0
  0
APPID
  2
ASM_BASETRAVI
 70
     0
  0
APPID
  2
ASM_BASETRAVI1
 70
     0
  0
APPID
  2
ASM_GRUPPI
 70
     0
  0
APPID
  2
ASM_CADM_ALBERO
 70
     0
  0
APPID
  2
ASM_GOLE
 70
     0
  0
APPID
  2
ACAD_MLEADERVER
 70
     0
  0
APPID
  2
ACAD_DSTYLE_DIMJAG
 70
     0
  0
APPID
  2
ACAD_DSTYLE_DIMTALN
 70
     0
  0
APPID
  2
ACAD_EXEMPT_FROM_CAD_STANDARDS
 70
     0
  0
APPID
  2
ACAD_DSTYLE_DIMRADIAL_EXTENSION
 70
     0
  0
APPID
  2
ACAD_PSEXT
 70
     0
  0
APPID
  2
ACAD_DSTYLE_DIMBREAK
 70
     0
  0
APPID
  2
ACAECLAYERSTANDARD
 70
     0
  0
APPID
  2
ACCMTRANSPARENCY
 70
     0
  0
APPID
  2
GRADIENTCOLOR1ACI
 70
     0
  0
APPID
  2
GRADIENTCOLOR2ACI
 70
     0
  0
APPID
  2
ACAD_NAV_VCDISPLAY
 70
     0
  0
ENDTAB
  0
TABLE
  2
DIMSTYLE
 70
     1
  0
DIMSTYLE
  2
STANDARD
 70
     0
  3

  4

  5

  6

  7

 40
1.0
 41
0.18
 42
0.0625
 43
0.38
 44
0.18
 45
0.0
 46
0.0
 47
0.0
 48
0.0
140
0.18
141
0.09
142
0.0
143
25.399999999999999
144
1.0
145
0.0
146
1.0
147
0.09
 71
     0
 72
     0
 73
     1
 74
     1
 75
     0
 76
     0
 77
     0
 78
     0
170
     0
171
     2
172
     0
173
     0
174
     0
175
     0
176
     0
177
     0
178
     0
  0
ENDTAB
  0
ENDSEC
  0
SECTION
  2
BLOCKS
  0
BLOCK
  8
0
  2
$MODEL_SPACE
 70
     0
 10
0.0
 20
0.0
 30
0.0
  3
$MODEL_SPACE
  1

  0
ENDBLK
  5
36
  8
0
  0
BLOCK
 67
     1
  8
0
  2
$PAPER_SPACE
 70
     0
 10
0.0
 20
0.0
 30
0.0
  3
$PAPER_SPACE
  1

  0
ENDBLK
  5
34
 67
     1
  8
0
  0
ENDSEC
  0
SECTION
  2
ENTITIES
  0
ARC
  5
E36D
  8
0
 10
501.46890289590419
 20
261.44368873142213
 30
0.0
 40
2.9999999999999849
 50
90.0
 51
180.0
  0
ARC
  5
E36E
  8
0
 10
557.51890289590438
 20
261.44368873142213
 30
0.0
 40
2.9999999999999849
 50
0.0
 51
90.0
  0
LINE
  5
E36F
  8
0
 10
560.51890289590438
 20
260.94368873142213
 30
0.0
 11
560.51890289590438
 21
261.44368873142213
 31
0.0
  0
LINE
  5
E370
  8
0
 10
498.46890289590408
 20
261.44368873142213
 30
0.0
 11
498.46890289590408
 21
260.94368873142213
 31
0.0
  0
ARC
  5
E371
  8
0
 10
496.99390289590428
 20
256.94368873142213
 30
0.0
 40
4.0000000000000142
 50
90.0
 51
180.0
  0
ARC
  5
E372
  8
0
 10
561.99390289590417
 20
256.94368873142213
 30
0.0
 40
4.0000000000000142
 50
0.0
 51
90.0
  0
LINE
  5
E373
  8
0
 10
565.99390289590417
 20
255.9436887314221
 30
0.0
 11
565.99390289590417
 21
256.94368873142213
 31
0.0
  0
LINE
  5
E374
  8
0
 10
492.99390289590428
 20
256.94368873142213
 30
0.0
 11
492.99390289590428
 21
255.9436887314221
 31
0.0
  0
LINE
  5
E375
  8
0
 10
562.49390289590417
 20
212.85819616578581
 30
0.0
 11
562.49390289590417
 21
255.9436887314221
 31
0.0
  0
LINE
  5
E376
  8
0
 10
496.49390289590428
 20
255.9436887314221
 30
0.0
 11
496.49390289590428
 21
212.85819616578581
 31
0.0
  0
LINE
  5
E377
  8
2
 10
559.99390289590428
 20
212.85819616578581
 30
0.0
 11
559.99390289590428
 21
253.74368873142211
 31
0.0
  0
LINE
  5
E378
  8
2
 10
498.99390289590423
 20
253.74368873142211
 30
0.0
 11
498.99390289590423
 21
212.85819616578581
 31
0.0
  0
LINE
  5
E37D
  8
2
 10
535.49390289590428
 20
253.74368873142211
 30
0.0
 11
535.49390289590428
 21
267.74368873142208
 31
0.0
  0
LINE
  5
E37E
  8
2
 10
523.49390289590417
 20
267.74368873142208
 30
0.0
 11
523.49390289590417
 21
253.74368873142211
 31
0.0
  0
LINE
  5
E380
  8
0
 10
501.46890289590419
 20
264.44368873142201
 30
0.0
 11
557.51890289590438
 21
264.44368873142201
 31
0.0
  0
LINE
  5
E382
  8
0
 10
496.99390289590428
 20
260.94368873142213
 30
0.0
 11
561.99390289590417
 21
260.94368873142213
 31
0.0
  0
LINE
  5
E384
  8
0
 10
492.99390289590428
 20
255.9436887314221
 30
0.0
 11
565.99390289590417
 21
255.9436887314221
 31
0.0
  0
POLYLINE
  5
E389
  8
0
 66
     1
 10
0.0
 20
0.0
 30
0.0
  0
VERTEX
  5
14403
  8
0
 10
505.22494155688582
 20
183.66311201779891
 30
0.0
  0
VERTEX
  5
14404
  8
0
 10
504.7677213565803
 20
184.32459860543281
 30
0.0
  0
VERTEX
  5
14405
  8
0
 10
503.8851963924489
 20
185.6838931027491
 30
0.0
  0
VERTEX
  5
14406
  8
0
 10
503.04647570723091
 20
187.08966986774621
 30
0.0
  0
VERTEX
  5
14407
  8
0
 10
502.64399329251268
 20
187.80924065320349
 30
0.0
  0
VERTEX
  5
14408
  8
0
 10
502.25299395186488
 20
188.53952428707541
 30
0.0
  0
VERTEX
  5
14409
  8
0
 10
501.50610839506447
 20
190.03097635155069
 30
0.0
  0
VERTEX
  5
1440A
  8
0
 10
500.80709660167838
 20
191.56147489826159
 30
0.0
  0
VERTEX
  5
1440B
  8
0
 10
500.15715424738659
 20
193.1284019743955
 30
0.0
  0
VERTEX
  5
1440C
  8
0
 10
499.55739307346943
 20
194.72907731530611
 30
0.0
  0
VERTEX
  5
1440D
  8
0
 10
499.00883898514979
 20
196.36076292916721
 30
0.0
  0
VERTEX
  5
1440E
  8
0
 10
498.75406128775961
 20
197.1873643318913
 30
0.0
  0
VERTEX
  5
1440F
  8
0
 10
498.51243029675737
 20
198.02066778037079
 30
0.0
  0
VERTEX
  5
14410
  8
0
 10
498.06901612672158
 20
199.70595256365701
 30
0.0
  0
VERTEX
  5
14411
  8
0
 10
497.67935494513398
 20
201.41373456081109
 30
0.0
  0
VERTEX
  5
14412
  8
0
 10
497.34411327637002
 20
203.1410925716186
 30
0.0
  0
VERTEX
  5
14413
  8
0
 10
497.06386455897967
 20
204.88507191064559
 30
0.0
  0
VERTEX
  5
14414
  8
0
 10
496.83908816481329
 20
206.64268946129559
 30
0.0
  0
VERTEX
  5
14415
  8
0
 10
496.74762596616301
 20
207.52567382277979
 30
0.0
  0
VERTEX
  5
14416
  8
0
 10
496.670168579039
 20
208.41093877849869
 30
0.0
  0
VERTEX
  5
14417
  8
0
 10
496.5573947424777
 20
210.18679523130501
 30
0.0
  0
VERTEX
  5
14418
  8
0
 10
496.50095955735878
 20
211.96722117658479
 30
0.0
  0
VERTEX
  5
14419
  8
0
 10
496.49390289590428
 20
212.8581961657859
 30
0.0
  0
SEQEND
  5
1441A
  8
0
  0
POLYLINE
  5
E38A
  8
0
 66
     1
 10
0.0
 20
0.0
 30
0.0
  0
VERTEX
  5
1441B
  8
0
 10
496.49390289590428
 20
212.8581961657859
 30
0.0
  0
VERTEX
  5
1441C
  8
0
 10
496.52531158370311
 20
214.73755895583261
 30
0.0
  0
VERTEX
  5
1441D
  8
0
 10
496.77622247056843
 20
218.48198145030369
 30
0.0
  0
VERTEX
  5
1441E
  8
0
 10
497.27613466094641
 20
222.18360354302521
 30
0.0
  0
VERTEX
  5
1441F
  8
0
 10
497.61835062836508
 20
224.00954220939559
 30
0.0
  0
VERTEX
  5
14420
  8
0
 10
498.02124352121291
 20
225.81425365477091
 30
0.0
  0
VERTEX
  5
14421
  8
0
 10
499.00587832303199
 20
229.34630034594409
 30
0.0
  0
VERTEX
  5
14422
  8
0
 10
500.22254540102313
 20
232.75286260851681
 30
0.0
  0
VERTEX
  5
14423
  8
0
 10
501.66198518407919
 20
236.0080144467322
 30
0.0
  0
VERTEX
  5
14424
  8
0
 10
503.31324266629372
 20
239.08698218958719
 30
0.0
  0
VERTEX
  5
14425
  8
0
 10
504.36936131475738
 20
240.7923045697506
 30
0.0
  0
VERTEX
  5
14426
  8
0
 10
504.68318924909812
 20
241.26643538046329
 30
0.0
  0
VERTEX
  5
14427
  8
0
 10
505.00226554617751
 20
241.73455682174381
 30
0.0
  0
VERTEX
  5
14428
  8
0
 10
505.16375078117011
 20
241.96633303342699
 30
0.0
  0
VERTEX
  5
14429
  8
0
 10
505.32652270982578
 20
242.1965698689869
 30
0.0
  0
VERTEX
  5
1442A
  8
0
 10
505.65589214793221
 20
242.65237678973321
 30
0.0
  0
VERTEX
  5
1442B
  8
0
 10
505.9903041869556
 20
243.1018811643435
 30
0.0
  0
VERTEX
  5
1442C
  8
0
 10
506.15937911674831
 20
243.32424012970981
 30
0.0
  0
VERTEX
  5
1442D
  8
0
 10
506.3296880866618
 20
243.54498790639491
 30
0.0
  0
VERTEX
  5
1442E
  8
0
 10
506.67397205508951
 20
243.98160328279499
 30
0.0
  0
VERTEX
  5
1442F
  8
0
 10
507.02308326373389
 20
244.4116349336098
 30
0.0
  0
VERTEX
  5
14430
  8
0
 10
507.1994260445876
 20
244.6241533797305
 30
0.0
  0
VERTEX
  5
14431
  8
0
 10
507.37694786295549
 20
244.8349918916015
 30
0.0
  0
VERTEX
  5
14432
  8
0
 10
507.73549099760203
 20
245.25158460147071
 30
0.0
  0
VERTEX
  5
14433
  8
0
 10
508.09863682283952
 20
245.66132493880141
 30
0.0
  0
VERTEX
  5
14434
  8
0
 10
508.46630852020002
 20
246.0641262287017
 30
0.0
  0
VERTEX
  5
14435
  8
0
 10
508.83842831383021
 20
246.4599032641392
 30
0.0
  0
VERTEX
  5
14436
  8
0
 10
509.2149174869428
 20
246.8485723239655
 30
0.0
  0
VERTEX
  5
14437
  8
0
 10
509.40477573861648
 20
247.04021561082649
 30
0.0
  0
VERTEX
  5
14438
  8
0
 10
509.59569639846899
 20
247.2300511906254
 30
0.0
  0
VERTEX
  5
14439
  8
0
 10
509.98068449990609
 20
247.60425916754991
 30
0.0
  0
VERTEX
  5
1443A
  8
0
 10
510.3698003523541
 20
247.9711170962259
 30
0.0
  0
VERTEX
  5
1443B
  8
0
 10
510.76296164374622
 20
248.33054737294091
 30
0.0
  0
VERTEX
  5
1443C
  8
0
 10
511.16008520625741
 20
248.68247396519959
 30
0.0
  0
VERTEX
  5
1443D
  8
0
 10
511.56108703390009
 20
249.02682242780719
 30
0.0
  0
VERTEX
  5
1443E
  8
0
 10
511.7630158204592
 20
249.19613203427809
 30
0.0
  0
VERTEX
  5
1443F
  8
0
 10
511.96588230029369
 20
249.3635199186169
 30
0.0
  0
VERTEX
  5
14440
  8
0
 10
512.37438537660728
 20
249.69249521393931
 30
0.0
  0
VERTEX
  5
14441
  8
0
 10
512.78650984967396
 20
250.01367872360831
 30
0.0
  0
VERTEX
  5
14442
  8
0
 10
513.20216854027228
 20
250.32700250570241
 30
0.0
  0
VERTEX
  5
14443
  8
0
 10
513.62127352156449
 20
250.6324002809161
 30
0.0
  0
VERTEX
  5
14444
  8
0
 10
514.04373613769803
 20
250.92980744658109
 30
0.0
  0
VERTEX
  5
14445
  8
0
 10
514.25619865914814
 20
251.07549482432489
 30
0.0
  0
VERTEX
  5
14446
  8
0
 10
514.469467022559
 20
251.21916109033211
 30
0.0
  0
VERTEX
  5
14447
  8
0
 10
514.89837611867733
 20
251.50040000341431
 30
0.0
  0
VERTEX
  5
14448
  8
0
 10
515.33037269627584
 20
251.77346469363201
 30
0.0
  0
VERTEX
  5
14449
  8
0
 10
515.76536537246329
 20
252.03829739793321
 30
0.0
  0
VERTEX
  5
1444A
  8
0
 10
516.20326213056615
 20
252.29484209462831
 30
0.0
  0
VERTEX
  5
1444B
  8
0
 10
516.64397033959131
 20
252.54304451524089
 30
0.0
  0
VERTEX
  5
1444C
  8
0
 10
516.86534962785618
 20
252.6640008953444
 30
0.0
  0
VERTEX
  5
1444D
  8
0
 10
517.08739677382255
 20
252.7828521559876
 30
0.0
  0
VERTEX
  5
1444E
  8
0
 10
517.53344763254199
 20
253.01421428888429
 30
0.0
  0
VERTEX
  5
1444F
  8
0
 10
517.98202855986983
 20
253.23708197247731
 30
0.0
  0
VERTEX
  5
14450
  8
0
 10
518.43304466472489
 20
253.4514080621955
 30
0.0
  0
VERTEX
  5
14451
  8
0
 10
518.88640054090001
 20
253.65714722032419
 30
0.0
  0
VERTEX
  5
14452
  8
0
 10
519.34200028723944
 20
253.85425592559471
 30
0.0
  0
VERTEX
  5
14453
  8
0
 10
519.57061151226344
 20
253.9495607569699
 30
0.0
  0
VERTEX
  5
14454
  8
0
 10
519.79974752792884
 20
254.04269248239129
 30
0.0
  0
VERTEX
  5
14455
  8
0
 10
520.25954543288151
 20
254.22241702957089
 30
0.0
  0
VERTEX
  5
14456
  8
0
 10
520.72129673822064
 20
254.39339154889569
 30
0.0
  0
VERTEX
  5
14457
  8
0
 10
520.95287440752099
 20
254.4755861733195
 30
0.0
  0
VERTEX
  5
14458
  8
0
 10
521.18490376685531
 20
254.55557987307461
 30
0.0
  0
VERTEX
  5
14459
  8
0
 10
521.65026844914064
 20
254.70894769341481
 30
0.0
  0
VERTEX
  5
1445A
  8
0
 10
522.11729234362565
 20
254.85346256707871
 30
0.0
  0
VERTEX
  5
1445B
  8
0
 10
522.35139563594703
 20
254.92239052241209
 30
0.0
  0
VERTEX
  5
1445C
  8
0
 10
522.58587665787616
 20
254.9890939239468
 30
0.0
  0
VERTEX
  5
1445D
  8
0
 10
523.05592226937176
 20
255.11581307308469
 30
0.0
  0
VERTEX
  5
1445E
  8
0
 10
523.52732974647643
 20
255.2335932088119
 30
0.0
  0
VERTEX
  5
1445F
  8
0
 10
523.99999936946767
 20
255.34240941637259
 30
0.0
  0
VERTEX
  5
14460
  8
0
 10
524.473831151637
 20
255.44223867720549
 30
0.0
  0
VERTEX
  5
14461
  8
0
 10
524.9487248604346
 20
255.5330598738137
 30
0.0
  0
VERTEX
  5
14462
  8
0
 10
525.18653855264245
 20
255.57508636974541
 30
0.0
  0
VERTEX
  5
14463
  8
0
 10
525.42458003867523
 20
255.6148537942311
 30
0.0
  0
VERTEX
  5
14464
  8
0
 10
525.90129602578963
 20
255.6876031360872
 30
0.0
  0
VERTEX
  5
14465
  8
0
 10
526.37877197911428
 20
255.7512925102665
 30
0.0
  0
VERTEX
  5
14466
  8
0
 10
526.85690689522653
 20
255.80590844416429
 30
0.0
  0
VERTEX
  5
14467
  8
0
 10
527.33559963130926
 20
255.85143938453649
 30
0.0
  0
VERTEX
  5
14468
  8
0
 10
527.8147489265466
 20
255.88787569994329
 30
0.0
  0
VERTEX
  5
14469
  8
0
 10
528.05446311284823
 20
255.90268088946311
 30
0.0
  0
VERTEX
  5
1446A
  8
0
 10
528.29425342354205
 20
255.91520968278721
 30
0.0
  0
VERTEX
  5
1446B
  8
0
 10
528.77401168976394
 20
255.9334355509427
 30
0.0
  0
VERTEX
  5
1446C
  8
0
 10
529.25392223899644
 20
255.9425494489798
 30
0.0
  0
VERTEX
  5
1446D
  8
0
 10
529.49390289590417
 20
255.9436887314221
 30
0.0
  0
SEQEND
  5
1446E
  8
0
  0
POLYLINE
  5
E38B
  8
0
 66
     1
 10
0.0
 20
0.0
 30
0.0
  0
VERTEX
  5
1446F
  8
0
 10
529.49390289590417
 20
255.9436887314221
 30
0.0
  0
VERTEX
  5
14470
  8
0
 10
529.73388355281213
 20
255.9425494489798
 30
0.0
  0
VERTEX
  5
14471
  8
0
 10
530.21379410204463
 20
255.9334355509427
 30
0.0
  0
VERTEX
  5
14472
  8
0
 10
530.69355236826641
 20
255.91520968278721
 30
0.0
  0
VERTEX
  5
14473
  8
0
 10
530.93334267896034
 20
255.90268088946311
 30
0.0
  0
VERTEX
  5
14474
  8
0
 10
531.17305686526186
 20
255.88787569994329
 30
0.0
  0
VERTEX
  5
14475
  8
0
 10
531.65220616049919
 20
255.85143938453649
 30
0.0
  0
VERTEX
  5
14476
  8
0
 10
532.13089889658204
 20
255.80590844416429
 30
0.0
  0
VERTEX
  5
14477
  8
0
 10
532.60903381269418
 20
255.7512925102665
 30
0.0
  0
VERTEX
  5
14478
  8
0
 10
533.08650976601893
 20
255.6876031360872
 30
0.0
  0
VERTEX
  5
14479
  8
0
 10
533.56322575313334
 20
255.6148537942311
 30
0.0
  0
VERTEX
  5
1447A
  8
0
 10
533.80126723916601
 20
255.57508636974541
 30
0.0
  0
VERTEX
  5
1447B
  8
0
 10
534.03908093137386
 20
255.5330598738137
 30
0.0
  0
VERTEX
  5
1447C
  8
0
 10
534.51397464017145
 20
255.44223867720549
 30
0.0
  0
VERTEX
  5
1447D
  8
0
 10
534.98780642234078
 20
255.34240941637259
 30
0.0
  0
VERTEX
  5
1447E
  8
0
 10
535.46047604533214
 20
255.2335932088119
 30
0.0
  0
VERTEX
  5
1447F
  8
0
 10
535.93188352243669
 20
255.11581307308469
 30
0.0
  0
VERTEX
  5
14480
  8
0
 10
536.4019291339323
 20
254.9890939239468
 30
0.0
  0
VERTEX
  5
14481
  8
0
 10
536.63641015586154
 20
254.92239052241209
 30
0.0
  0
VERTEX
  5
14482
  8
0
 10
536.87051344818292
 20
254.85346256707871
 30
0.0
  0
VERTEX
  5
14483
  8
0
 10
537.33753734266793
 20
254.70894769341481
 30
0.0
  0
VERTEX
  5
14484
  8
0
 10
537.80290202495326
 20
254.55557987307461
 30
0.0
  0
VERTEX
  5
14485
  8
0
 10
538.03493138428746
 20
254.4755861733195
 30
0.0
  0
VERTEX
  5
14486
  8
0
 10
538.26650905358792
 20
254.39339154889569
 30
0.0
  0
VERTEX
  5
14487
  8
0
 10
538.72826035892695
 20
254.22241702957089
 30
0.0
  0
VERTEX
  5
14488
  8
0
 10
539.18805826387961
 20
254.04269248239129
 30
0.0
  0
VERTEX
  5
14489
  8
0
 10
539.41719427954513
 20
253.9495607569699
 30
0.0
  0
VERTEX
  5
1448A
  8
0
 10
539.64580550456913
 20
253.85425592559471
 30
0.0
  0
VERTEX
  5
1448B
  8
0
 10
540.10140525090856
 20
253.65714722032419
 30
0.0
  0
VERTEX
  5
1448C
  8
0
 10
540.55476112708357
 20
253.4514080621955
 30
0.0
  0
VERTEX
  5
1448D
  8
0
 10
541.00577723193874
 20
253.23708197247731
 30
0.0
  0
VERTEX
  5
1448E
  8
0
 10
541.45435815926646
 20
253.01421428888429
 30
0.0
  0
VERTEX
  5
1448F
  8
0
 10
541.90040901798602
 20
252.7828521559876
 30
0.0
  0
VERTEX
  5
14490
  8
0
 10
542.12245616395228
 20
252.6640008953444
 30
0.0
  0
VERTEX
  5
14491
  8
0
 10
542.3438354522176
 20
252.54304451524089
 30
0.0
  0
VERTEX
  5
14492
  8
0
 10
542.78454366124242
 20
252.29484209462831
 30
0.0
  0
VERTEX
  5
14493
  8
0
 10
543.22244041934516
 20
252.03829739793321
 30
0.0
  0
VERTEX
  5
14494
  8
0
 10
543.65743309553272
 20
251.77346469363201
 30
0.0
  0
VERTEX
  5
14495
  8
0
 10
544.08942967313124
 20
251.50040000341431
 30
0.0
  0
VERTEX
  5
14496
  8
0
 10
544.51833876924945
 20
251.21916109033211
 30
0.0
  0
VERTEX
  5
14497
  8
0
 10
544.73160713266043
 20
251.07549482432489
 30
0.0
  0
VERTEX
  5
14498
  8
0
 10
544.94406965411099
 20
250.92980744658109
 30
0.0
  0
VERTEX
  5
14499
  8
0
 10
545.36653227024397
 20
250.6324002809161
 30
0.0
  0
VERTEX
  5
1449A
  8
0
 10
545.78563725153617
 20
250.32700250570241
 30
0.0
  0
VERTEX
  5
1449B
  8
0
 10
546.20129594213438
 20
250.01367872360831
 30
0.0
  0
VERTEX
  5
1449C
  8
0
 10
546.61342041520118
 20
249.69249521393931
 30
0.0
  0
VERTEX
  5
1449D
  8
0
 10
547.02192349151471
 20
249.3635199186169
 30
0.0
  0
VERTEX
  5
1449E
  8
0
 10
547.22478997134931
 20
249.19613203427809
 30
0.0
  0
VERTEX
  5
1449F
  8
0
 10
547.42671875790836
 20
249.02682242780719
 30
0.0
  0
VERTEX
  5
144A0
  8
0
 10
547.82772058555111
 20
248.68247396519959
 30
0.0
  0
VERTEX
  5
144A1
  8
0
 10
548.22484414806229
 20
248.33054737294091
 30
0.0
  0
VERTEX
  5
144A2
  8
0
 10
548.61800543945435
 20
247.9711170962259
 30
0.0
  0
VERTEX
  5
144A3
  8
0
 10
549.00712129190242
 20
247.60425916754991
 30
0.0
  0
VERTEX
  5
144A4
  8
0
 10
549.39210939333952
 20
247.2300511906254
 30
0.0
  0
VERTEX
  5
144A5
  8
0
 10
549.58303005319203
 20
247.04021561082649
 30
0.0
  0
VERTEX
  5
144A6
  8
0
 10
549.77288830486566
 20
246.8485723239655
 30
0.0
  0
VERTEX
  5
144A7
  8
0
 10
550.14937747797831
 20
246.4599032641392
 30
0.0
  0
VERTEX
  5
144A8
  8
0
 10
550.5214972716085
 20
246.0641262287017
 30
0.0
  0
VERTEX
  5
144A9
  8
0
 10
550.88916896896887
 20
245.66132493880141
 30
0.0
  0
VERTEX
  5
144AA
  8
0
 10
551.25231479420654
 20
245.25158460147071
 30
0.0
  0
VERTEX
  5
144AB
  8
0
 10
551.61085792885297
 20
244.8349918916015
 30
0.0
  0
VERTEX
  5
144AC
  8
0
 10
551.78837974722092
 20
244.62415337973059
 30
0.0
  0
VERTEX
  5
144AD
  8
0
 10
551.96472252807462
 20
244.4116349336098
 30
0.0
  0
VERTEX
  5
144AE
  8
0
 10
552.31383373671895
 20
243.98160328279499
 30
0.0
  0
VERTEX
  5
144AF
  8
0
 10
552.65811770514665
 20
243.54498790639491
 30
0.0
  0
VERTEX
  5
144B0
  8
0
 10
552.8284266750602
 20
243.32424012970981
 30
0.0
  0
VERTEX
  5
144B1
  8
0
 10
552.99750160485291
 20
243.1018811643435
 30
0.0
  0
VERTEX
  5
144B2
  8
0
 10
553.33191364387631
 20
242.65237678973321
 30
0.0
  0
VERTEX
  5
144B3
  8
0
 10
553.66128308198267
 20
242.1965698689869
 30
0.0
  0
VERTEX
  5
144B4
  8
0
 10
553.8240550106384
 20
241.96633303342699
 30
0.0
  0
VERTEX
  5
144B5
  8
0
 10
553.985540245631
 20
241.73455682174381
 30
0.0
  0
VERTEX
  5
144B6
  8
0
 10
554.30461654271039
 20
241.26643538046329
 30
0.0
  0
VERTEX
  5
144B7
  8
0
 10
554.61844447705096
 20
240.7923045697506
 30
0.0
  0
VERTEX
  5
144B8
  8
0
 10
554.92695766270072
 20
240.31226468541041
 30
0.0
  0
VERTEX
  5
144B9
  8
0
 10
555.23009083796933
 20
239.82641727322931
 30
0.0
  0
VERTEX
  5
144BA
  8
0
 10
555.52777987923355
 20
239.33486510749651
 30
0.0
  0
VERTEX
  5
144BB
  8
0
 10
555.67456312551485
 20
239.08698218958719
 30
0.0
  0
VERTEX
  5
144BC
  8
0
 10
555.81996181450131
 20
238.8377121692626
 30
0.0
  0
VERTEX
  5
144BD
  8
0
 10
556.1065748367314
 20
238.33506362434389
 30
0.0
  0
VERTEX
  5
144BE
  8
0
 10
556.38755831690969
 20
237.82702580107639
 30
0.0
  0
VERTEX
  5
144BF
  8
0
 10
557.32582060772927
 20
236.0080144467322
 30
0.0
  0
VERTEX
  5
144C0
  8
0
 10
558.76526039078544
 20
232.75286260851681
 30
0.0
  0
VERTEX
  5
144C1
  8
0
 10
559.98192746877646
 20
229.34630034594409
 30
0.0
  0
VERTEX
  5
144C2
  8
0
 10
560.96656227059555
 20
225.81425365477091
 30
0.0
  0
VERTEX
  5
144C3
  8
0
 10
561.36945516344338
 20
224.00954220939559
 30
0.0
  0
VERTEX
  5
144C4
  8
0
 10
561.71167113086221
 20
222.18360354302521
 30
0.0
  0
VERTEX
  5
144C5
  8
0
 10
562.21158332124014
 20
218.48198145030369
 30
0.0
  0
VERTEX
  5
144C6
  8
0
 10
562.46249420810545
 20
214.73755895583261
 30
0.0
  0
VERTEX
  5
144C7
  8
0
 10
562.49390289590417
 20
212.85819616578581
 30
0.0
  0
SEQEND
  5
144C8
  8
0
  0
POLYLINE
  5
E38C
  8
0
 66
     1
 10
0.0
 20
0.0
 30
0.0
  0
VERTEX
  5
144C9
  8
0
 10
562.49390289590417
 20
212.85819616578581
 30
0.0
  0
VERTEX
  5
144CA
  8
0
 10
562.48684623444967
 20
211.96722117658479
 30
0.0
  0
VERTEX
  5
144CB
  8
0
 10
562.43041104933081
 20
210.18679523130501
 30
0.0
  0
VERTEX
  5
144CC
  8
0
 10
562.31763721276945
 20
208.41093877849869
 30
0.0
  0
VERTEX
  5
144CD
  8
0
 10
562.24017982564555
 20
207.52567382277979
 30
0.0
  0
VERTEX
  5
144CE
  8
0
 10
562.14871762699522
 20
206.64268946129559
 30
0.0
  0
VERTEX
  5
144CF
  8
0
 10
561.92394123282884
 20
204.88507191064559
 30
0.0
  0
VERTEX
  5
144D0
  8
0
 10
561.64369251543849
 20
203.1410925716186
 30
0.0
  0
VERTEX
  5
144D1
  8
0
 10
561.30845084667453
 20
201.41373456081109
 30
0.0
  0
VERTEX
  5
144D2
  8
0
 10
560.91878966508693
 20
199.70595256365701
 30
0.0
  0
VERTEX
  5
144D3
  8
0
 10
560.47537549505114
 20
198.0206677803707
 30
0.0
  0
VERTEX
  5
144D4
  8
0
 10
560.2337445040489
 20
197.1873643318913
 30
0.0
  0
VERTEX
  5
144D5
  8
0
 10
559.97896680665872
 20
196.36076292916709
 30
0.0
  0
VERTEX
  5
144D6
  8
0
 10
559.43041271833908
 20
194.729077315306
 30
0.0
  0
VERTEX
  5
144D7
  8
0
 10
558.83065154442193
 20
193.1284019743955
 30
0.0
  0
VERTEX
  5
144D8
  8
0
 10
558.18070919013007
 20
191.56147489826159
 30
0.0
  0
VERTEX
  5
144D9
  8
0
 10
557.48169739674404
 20
190.03097635155069
 30
0.0
  0
VERTEX
  5
144DA
  8
0
 10
556.73481183994352
 20
188.53952428707541
 30
0.0
  0
VERTEX
  5
144DB
  8
0
 10
556.34381249929584
 20
187.80924065320349
 30
0.0
  0
VERTEX
  5
144DC
  8
0
 10
555.94133008457754
 20
187.08966986774621
 30
0.0
  0
VERTEX
  5
144DD
  8
0
 10
555.10260939935961
 20
185.6838931027491
 30
0.0
  0
VERTEX
  5
144DE
  8
0
 10
554.22008443522782
 20
184.32459860543281
 30
0.0
  0
VERTEX
  5
144DF
  8
0
 10
553.76286423492274
 20
183.66311201779891
 30
0.0
  0
SEQEND
  5
144E0
  8
0
  0
POLYLINE
  5
E38F
  8
0
 66
     1
 10
0.0
 20
0.0
 30
0.0
  0
VERTEX
  5
144E1
  8
0
 10
553.76286423492274
 20
183.66311201779891
 30
0.0
  0
VERTEX
  5
144E2
  8
0
 10
553.67703089917438
 20
183.543829160473
 30
0.0
  0
VERTEX
  5
144E3
  8
0
 10
553.49986860269735
 20
183.31149541501719
 30
0.0
  0
VERTEX
  5
144E4
  8
0
 10
553.31581534332099
 20
183.0878880513545
 30
0.0
  0
VERTEX
  5
144E5
  8
0
 10
553.22138779526449
 20
182.9794976090665
 30
0.0
  0
VERTEX
  5
144E6
  8
0
 10
553.12547387535142
 20
182.87345575714281
 30
0.0
  0
VERTEX
  5
144E7
  8
0
 10
552.92955923378156
 20
182.66860439381151
 30
0.0
  0
VERTEX
  5
144E8
  8
0
 10
552.72886041454865
 20
182.4736494505928
 30
0.0
  0
VERTEX
  5
144E9
  8
0
 10
552.52423139837447
 20
182.28881349400029
 30
0.0
  0
VERTEX
  5
144EA
  8
0
 10
552.31659543371359
 20
182.11423814908301
 30
0.0
  0
VERTEX
  5
144EB
  8
0
 10
552.10694902104524
 20
181.9499942867177
 30
0.0
  0
VERTEX
  5
144EC
  8
0
 10
552.00170122282805
 20
181.87174948229091
 30
0.0
  0
VERTEX
  5
144ED
  8
0
 10
551.89635321133755
 20
181.79608226925831
 30
0.0
  0
VERTEX
  5
144EE
  8
0
 10
551.68445675169414
 20
181.65146647780699
 30
0.0
  0
VERTEX
  5
144EF
  8
0
 10
551.46930034109835
 20
181.51427924531029
 30
0.0
  0
VERTEX
  5
144F0
  8
0
 10
551.25090529282215
 20
181.3841849401694
 30
0.0
  0
VERTEX
  5
144F1
  8
0
 10
551.02932231568002
 20
181.26089285305309
 30
0.0
  0
VERTEX
  5
144F2
  8
0
 10
550.80459682680646
 20
181.14413022937759
 30
0.0
  0
VERTEX
  5
144F3
  8
0
 10
550.69106884596022
 20
181.08811685520249
 30
0.0
  0
VERTEX
  5
144F4
  8
0
 10
550.57677079687517
 20
181.03364110115919
 30
0.0
  0
VERTEX
  5
144F5
  8
0
 10
550.34588432707994
 20
180.92918500118009
 30
0.0
  0
VERTEX
  5
144F6
  8
0
 10
550.11197695593307
 20
180.83053561180901
 30
0.0
  0
VERTEX
  5
144F7
  8
0
 10
549.99390289590417
 20
180.7833212407734
 30
0.0
  0
SEQEND
  5
144F8
  8
0
  0
LINE
  5
E390
  8
0
 10
549.99390289590417
 20
180.7833212407734
 30
0.0
 11
549.99390289590417
 21
179.74368873142211
 31
0.0
  0
LINE
  5
E391
  8
0
 10
546.99390289590428
 20
179.74368873142211
 30
0.0
 11
549.99390289590417
 21
179.74368873142211
 31
0.0
  0
POLYLINE
  5
E392
  8
0
 66
     1
 10
0.0
 20
0.0
 30
0.0
  0
VERTEX
  5
144F9
  8
0
 10
508.7518566016069
 20
183.66311201779891
 30
0.0
  0
VERTEX
  5
144FA
  8
0
 10
508.24615730655893
 20
184.2897498133955
 30
0.0
  0
VERTEX
  5
144FB
  8
0
 10
507.26832518259829
 20
185.5874741369667
 30
0.0
  0
VERTEX
  5
144FC
  8
0
 10
506.33694148973922
 20
186.9421905562923
 30
0.0
  0
VERTEX
  5
144FD
  8
0
 10
505.88927997980221
 20
187.6400405527751
 30
0.0
  0
VERTEX
  5
144FE
  8
0
 10
505.4539526930788
 20
188.3510678985196
 30
0.0
  0
VERTEX
  5
144FF
  8
0
 10
504.62120411897052
 20
189.81116180184119
 30
0.0
  0
VERTEX
  5
14500
  8
0
 10
503.8404360985445
 20
191.31942086881119
 30
0.0
  0
VERTEX
  5
14501
  8
0
 10
503.11328033065092
 20
192.87269304335001
 30
0.0
  0
VERTEX
  5
14502
  8
0
 10
502.44125647183267
 20
194.4677321981122
 30
0.0
  0
VERTEX
  5
14503
  8
0
 10
501.82576896044878
 20
196.101204918451
 30
0.0
  0
VERTEX
  5
14504
  8
0
 10
501.5396329897157
 20
196.93129001688879
 30
0.0
  0
VERTEX
  5
14505
  8
0
 10
501.26810408159099
 20
197.7696974688009
 30
0.0
  0
VERTEX
  5
14506
  8
0
 10
500.7694272789231
 20
199.46972292691979
 30
0.0
  0
VERTEX
  5
14507
  8
0
 10
500.33078071905987
 20
201.19772847108231
 30
0.0
  0
VERTEX
  5
14508
  8
0
 10
499.95308111358418
 20
202.95010280499301
 30
0.0
  0
VERTEX
  5
14509
  8
0
 10
499.63711780324269
 20
204.72318370490379
 30
0.0
  0
VERTEX
  5
1450A
  8
0
 10
499.38355110833072
 20
206.51326567316349
 30
0.0
  0
VERTEX
  5
1450B
  8
0
 10
499.28033721754218
 20
207.4135141613522
 30
0.0
  0
VERTEX
  5
1450C
  8
0
 10
499.1929109487146
 20
208.3166076822028
 30
0.0
  0
VERTEX
  5
1450D
  8
0
 10
499.06559573636918
 20
210.1294409927728
 30
0.0
  0
VERTEX
  5
1450E
  8
0
 10
499.00187154275221
 20
211.94797703009661
 30
0.0
  0
VERTEX
  5
1450F
  8
0
 10
498.99390289590423
 20
212.8581961657859
 30
0.0
  0
SEQEND
  5
14510
  8
0
  0
POLYLINE
  5
E393
  8
0
 66
     1
 10
0.0
 20
0.0
 30
0.0
  0
VERTEX
  5
14511
  8
0
 10
498.99390289590423
 20
212.8581961657859
 30
0.0
  0
VERTEX
  5
14512
  8
0
 10
498.99712882212759
 20
213.43735511491769
 30
0.0
  0
VERTEX
  5
14513
  8
0
 10
499.02293213765779
 20
214.59518298688971
 30
0.0
  0
VERTEX
  5
14514
  8
0
 10
499.07451693653678
 20
215.75154119459799
 30
0.0
  0
VERTEX
  5
14515
  8
0
 10
499.1099646041061
 20
216.32886335485571
 30
0.0
  0
VERTEX
  5
14516
  8
0
 10
499.1518395728753
 20
216.90545134355301
 30
0.0
  0
VERTEX
  5
14517
  8
0
 10
499.25483462400319
 20
218.0559371105675
 30
0.0
  0
VERTEX
  5
14518
  8
0
 10
499.38341494582431
 20
219.20202506982309
 30
0.0
  0
VERTEX
  5
14519
  8
0
 10
499.53747174655018
 20
220.34274551648599
 30
0.0
  0
VERTEX
  5
1451A
  8
0
 10
499.71687467874648
 20
221.4771332871737
 30
0.0
  0
VERTEX
  5
1451B
  8
0
 10
499.92147194962172
 20
222.60422857657991
 30
0.0
  0
VERTEX
  5
1451C
  8
0
 10
500.03316519408781
 20
223.16474326669791
 30
0.0
  0
VERTEX
  5
1451D
  8
0
 10
500.15109044945888
 20
223.7230777495657
 30
0.0
  0
VERTEX
  5
1451E
  8
0
 10
500.4055358980836
 20
224.8327341480296
 30
0.0
  0
VERTEX
  5
1451F
  8
0
 10
500.68459300924218
 20
225.93225889187539
 30
0.0
  0
VERTEX
  5
14520
  8
0
 10
500.9880256727601
 20
227.02072167339799
 30
0.0
  0
VERTEX
  5
14521
  8
0
 10
501.31557715431012
 20
228.097201544417
 30
0.0
  0
VERTEX
  5
14522
  8
0
 10
501.6669703126372
 20
229.16078769549031
 30
0.0
  0
VERTEX
  5
14523
  8
0
 10
501.85151539128623
 20
229.68746396024329
 30
0.0
  0
VERTEX
  5
14524
  8
0
 10
502.04190783404869
 20
230.2105802265506
 30
0.0
  0
VERTEX
  5
14525
  8
0
 10
502.44007248396838
 20
231.24569090830991
 30
0.0
  0
VERTEX
  5
14526
  8
0
 10
502.86112737535223
 20
232.2652439337904
 30
0.0
  0
VERTEX
  5
14527
  8
0
 10
503.08012808047891
 20
232.76891621505709
 30
0.0
  0
VERTEX
  5
14528
  8
0
 10
503.30471625372542
 20
233.26837665934491
 30
0.0
  0
VERTEX
  5
14529
  8
0
 10
503.77046379861122
 20
234.2542403345393
 30
0.0
  0
VERTEX
  5
1452A
  8
0
 10
504.2579759410882
 20
235.22200082027999
 30
0.0
  0
VERTEX
  5
1452B
  8
0
 10
504.50976554508992
 20
235.69883586787461
 30
0.0
  0
VERTEX
  5
1452C
  8
0
 10
504.76684019721279
 20
236.1708392945792
 30
0.0
  0
VERTEX
  5
1452D
  8
0
 10
505.29662601702142
 20
237.0999529453598
 30
0.0
  0
VERTEX
  5
1452E
  8
0
 10
505.84688514881958
 20
238.00855564971451
 30
0.0
  0
VERTEX
  5
1452F
  8
0
 10
506.4171520184459
 20
238.8958786390447
 30
0.0
  0
VERTEX
  5
14530
  8
0
 10
507.0069441231953
 20
239.76117114951481
 30
0.0
  0
VERTEX
  5
14531
  8
0
 10
507.61576244006619
 20
240.60370105727409
 30
0.0
  0
VERTEX
  5
14532
  8
0
 10
507.92714606971452
 20
241.01620649607921
 30
0.0
  0
VERTEX
  5
14533
  8
0
 10
508.24309184797937
 20
241.42275549790611
 30
0.0
  0
VERTEX
  5
14534
  8
0
 10
508.8884015636267
 20
242.21764146958321
 30
0.0
  0
VERTEX
  5
14535
  8
0
 10
509.55114559056352
 20
242.9876864194155
 30
0.0
  0
VERTEX
  5
14536
  8
0
 10
510.23076318117819
 20
243.73223881249751
 30
0.0
  0
VERTEX
  5
14537
  8
0
 10
510.92667931113817
 20
244.4506686831719
 30
0.0
  0
VERTEX
  5
14538
  8
0
 10
511.63830516592088
 20
245.14236816804319
 30
0.0
  0
VERTEX
  5
14539
  8
0
 10
511.9998215871974
 20
245.4780102290386
 30
0.0
  0
VERTEX
  5
1453A
  8
0
 10
512.36503863900759
 20
245.8067520202909
 30
0.0
  0
VERTEX
  5
1453B
  8
0
 10
513.10626484132615
 20
246.4432581048469
 30
0.0
  0
VERTEX
  5
1453C
  8
0
 10
513.86135662150855
 20
247.05134787401769
 30
0.0
  0
VERTEX
  5
1453D
  8
0
 10
514.62967509652344
 20
247.63050682314949
 30
0.0
  0
VERTEX
  5
1453E
  8
0
 10
515.4105701922357
 20
248.18024492595069
 30
0.0
  0
VERTEX
  5
1453F
  8
0
 10
516.20338119343342
 20
248.70009704910299
 30
0.0
  0
VERTEX
  5
14540
  8
0
 10
516.60404591281304
 20
248.9486774181085
 30
0.0
  0
VERTEX
  5
14541
  8
0
 10
517.00743730285819
 20
249.1896233458103
 30
0.0
  0
VERTEX
  5
14542
  8
0
 10
517.82205820876925
 20
249.64840962795361
 30
0.0
  0
VERTEX
  5
14543
  8
0
 10
518.64655466055035
 20
250.07606771653479
 30
0.0
  0
VERTEX
  5
14544
  8
0
 10
519.48022905189055
 20
250.4722357701157
 30
0.0
  0
VERTEX
  5
14545
  8
0
 10
520.32237601102395
 20
250.8365785909711
 30
0.0
  0
VERTEX
  5
14546
  8
0
 10
521.17228299754652
 20
251.16878790870021
 30
0.0
  0
VERTEX
  5
14547
  8
0
 10
521.59992202027752
 20
251.32275359699119
 30
0.0
  0
VERTEX
  5
14548
  8
0
 10
522.02923090529737
 20
251.46858264105401
 30
0.0
  0
VERTEX
  5
14549
  8
0
 10
522.89249467079208
 20
251.7357091317586
 30
0.0
  0
VERTEX
  5
1454A
  8
0
 10
523.76134388670096
 20
251.96994136513419
 30
0.0
  0
VERTEX
  5
1454B
  8
0
 10
524.63504341984481
 20
252.17108115732671
 30
0.0
  0
VERTEX
  5
1454C
  8
0
 10
525.51285403319253
 20
252.33895832399091
 30
0.0
  0
VERTEX
  5
1454D
  8
0
 10
526.39403301132859
 20
252.4734308242837
 30
0.0
  0
VERTEX
  5
1454E
  8
0
 10
526.83565274210059
 20
252.528103662332
 30
0.0
  0
VERTEX
  5
1454F
  8
0
 10
527.27783478886465
 20
252.57438488104481
 30
0.0
  0
VERTEX
  5
14550
  8
0
 10
528.16351158126145
 20
252.64173507706329
 30
0.0
  0
VERTEX
  5
14551
  8
0
 10
529.05031401753104
 20
252.67542442734941
 30
0.0
  0
VERTEX
  5
14552
  8
0
 10
529.49390289590417
 20
252.67963626432851
 30
0.0
  0
VERTEX
  5
14553
  8
0
 10
529.93749177427753
 20
252.67542442734941
 30
0.0
  0
VERTEX
  5
14554
  8
0
 10
530.82429421054712
 20
252.64173507706329
 30
0.0
  0
VERTEX
  5
14555
  8
0
 10
531.70997100294369
 20
252.57438488104481
 30
0.0
  0
VERTEX
  5
14556
  8
0
 10
532.15215304970786
 20
252.528103662332
 30
0.0
  0
VERTEX
  5
14557
  8
0
 10
532.59377278047975
 20
252.4734308242837
 30
0.0
  0
VERTEX
  5
14558
  8
0
 10
533.47495175861604
 20
252.33895832399091
 30
0.0
  0
VERTEX
  5
14559
  8
0
 10
534.35276237196365
 20
252.17108115732671
 30
0.0
  0
VERTEX
  5
1455A
  8
0
 10
535.2264619051075
 20
251.96994136513419
 30
0.0
  0
VERTEX
  5
1455B
  8
0
 10
536.09531112101638
 20
251.7357091317586
 30
0.0
  0
VERTEX
  5
1455C
  8
0
 10
536.95857488651109
 20
251.46858264105401
 30
0.0
  0
VERTEX
  5
1455D
  8
0
 10
537.38788377153105
 20
251.32275359699119
 30
0.0
  0
VERTEX
  5
1455E
  8
0
 10
537.81552279426205
 20
251.16878790870021
 30
0.0
  0
VERTEX
  5
1455F
  8
0
 10
538.66542978078451
 20
250.8365785909711
 30
0.0
  0
VERTEX
  5
14560
  8
0
 10
539.50757673991802
 20
250.4722357701157
 30
0.0
  0
VERTEX
  5
14561
  8
0
 10
540.3412511312581
 20
250.07606771653491
 30
0.0
  0
VERTEX
  5
14562
  8
0
 10
541.16574758303932
 20
249.64840962795361
 30
0.0
  0
VERTEX
  5
14563
  8
0
 10
541.98036848895015
 20
249.1896233458103
 30
0.0
  0
VERTEX
  5
14564
  8
0
 10
542.38375987899553
 20
248.9486774181085
 30
0.0
  0
VERTEX
  5
14565
  8
0
 10
542.78442459837515
 20
248.70009704910299
 30
0.0
  0
VERTEX
  5
14566
  8
0
 10
543.57723559957276
 20
248.1802449259508
 30
0.0
  0
VERTEX
  5
14567
  8
0
 10
544.35813069528513
 20
247.63050682314949
 30
0.0
  0
VERTEX
  5
14568
  8
0
 10
545.12644917030002
 20
247.05134787401769
 30
0.0
  0
VERTEX
  5
14569
  8
0
 10
545.8815409504823
 20
246.4432581048469
 30
0.0
  0
VERTEX
  5
1456A
  8
0
 10
546.62276715280086
 20
245.8067520202909
 30
0.0
  0
VERTEX
  5
1456B
  8
0
 10
546.98798420461105
 20
245.47801022903869
 30
0.0
  0
VERTEX
  5
1456C
  8
0
 10
547.34950062588757
 20
245.14236816804319
 30
0.0
  0
VERTEX
  5
1456D
  8
0
 10
548.06112648067028
 20
244.45066868317201
 30
0.0
  0
VERTEX
  5
1456E
  8
0
 10
548.75704261063026
 20
243.7322388124976
 30
0.0
  0
VERTEX
  5
1456F
  8
0
 10
549.43666020124499
 20
242.9876864194155
 30
0.0
  0
VERTEX
  5
14570
  8
0
 10
550.09940422818181
 20
242.21764146958321
 30
0.0
  0
VERTEX
  5
14571
  8
0
 10
550.74471394382908
 20
241.42275549790611
 30
0.0
  0
VERTEX
  5
14572
  8
0
 10
551.06065972209399
 20
241.01620649607921
 30
0.0
  0
VERTEX
  5
14573
  8
0
 10
551.37204335174283
 20
240.60370105727409
 30
0.0
  0
VERTEX
  5
14574
  8
0
 10
551.98086166861322
 20
239.76117114951481
 30
0.0
  0
VERTEX
  5
14575
  8
0
 10
552.57065377336255
 20
238.8958786390447
 30
0.0
  0
VERTEX
  5
14576
  8
0
 10
553.14092064298893
 20
238.00855564971451
 30
0.0
  0
VERTEX
  5
14577
  8
0
 10
553.69117977478709
 20
237.0999529453598
 30
0.0
  0
VERTEX
  5
14578
  8
0
 10
554.22096559459567
 20
236.1708392945792
 30
0.0
  0
VERTEX
  5
14579
  8
0
 10
554.47804024671859
 20
235.69883586787461
 30
0.0
  0
VERTEX
  5
1457A
  8
0
 10
554.72982985072031
 20
235.2220008202801
 30
0.0
  0
VERTEX
  5
1457B
  8
0
 10
555.21734199319735
 20
234.2542403345393
 30
0.0
  0
VERTEX
  5
1457C
  8
0
 10
555.6830895380831
 20
233.26837665934491
 30
0.0
  0
VERTEX
  5
1457D
  8
0
 10
555.9076777113296
 20
232.76891621505709
 30
0.0
  0
VERTEX
  5
1457E
  8
0
 10
556.12667841645634
 20
232.2652439337904
 30
0.0
  0
VERTEX
  5
1457F
  8
0
 10
556.54773330784008
 20
231.24569090830991
 30
0.0
  0
VERTEX
  5
14580
  8
0
 10
556.94589795775983
 20
230.2105802265506
 30
0.0
  0
VERTEX
  5
14581
  8
0
 10
557.13629040052228
 20
229.68746396024329
 30
0.0
  0
VERTEX
  5
14582
  8
0
 10
557.32083547917125
 20
229.1607876954904
 30
0.0
  0
VERTEX
  5
14583
  8
0
 10
557.67222863749839
 20
228.097201544417
 30
0.0
  0
VERTEX
  5
14584
  8
0
 10
557.99978011904841
 20
227.02072167339799
 30
0.0
  0
VERTEX
  5
14585
  8
0
 10
558.30321278256633
 20
225.93225889187539
 30
0.0
  0
VERTEX
  5
14586
  8
0
 10
558.58226989372542
 20
224.8327341480296
 30
0.0
  0
VERTEX
  5
14587
  8
0
 10
558.83671534234963
 20
223.7230777495657
 30
0.0
  0
VERTEX
  5
14588
  8
0
 10
558.95464059772075
 20
223.16474326669791
 30
0.0
  0
VERTEX
  5
14589
  8
0
 10
559.06633384218685
 20
222.60422857657991
 30
0.0
  0
VERTEX
  5
1458A
  8
0
 10
559.27093111306249
 20
221.4771332871737
 30
0.0
  0
VERTEX
  5
1458B
  8
0
 10
559.45033404525827
 20
220.34274551648599
 30
0.0
  0
VERTEX
  5
1458C
  8
0
 10
559.6043908459842
 20
219.20202506982309
 30
0.0
  0
VERTEX
  5
1458D
  8
0
 10
559.73297116780532
 20
218.0559371105675
 30
0.0
  0
VERTEX
  5
1458E
  8
0
 10
559.83596621893321
 20
216.90545134355301
 30
0.0
  0
VERTEX
  5
1458F
  8
0
 10
559.87784118770242
 20
216.32886335485571
 30
0.0
  0
VERTEX
  5
14590
  8
0
 10
559.91328885527173
 20
215.75154119459799
 30
0.0
  0
VERTEX
  5
14591
  8
0
 10
559.96487365415067
 20
214.59518298688971
 30
0.0
  0
VERTEX
  5
14592
  8
0
 10
559.99067696968075
 20
213.43735511491769
 30
0.0
  0
VERTEX
  5
14593
  8
0
 10
559.99390289590428
 20
212.85819616578581
 30
0.0
  0
SEQEND
  5
14594
  8
0
  0
POLYLINE
  5
E394
  8
0
 66
     1
 10
0.0
 20
0.0
 30
0.0
  0
VERTEX
  5
14595
  8
0
 10
559.99390289590428
 20
212.85819616578581
 30
0.0
  0
VERTEX
  5
14596
  8
0
 10
559.9859342490563
 20
211.94797703009661
 30
0.0
  0
VERTEX
  5
14597
  8
0
 10
559.92221005543934
 20
210.12944099277269
 30
0.0
  0
VERTEX
  5
14598
  8
0
 10
559.79489484309386
 20
208.3166076822028
 30
0.0
  0
VERTEX
  5
14599
  8
0
 10
559.70746857426627
 20
207.4135141613522
 30
0.0
  0
VERTEX
  5
1459A
  8
0
 10
559.60425468347785
 20
206.51326567316349
 30
0.0
  0
VERTEX
  5
1459B
  8
0
 10
559.35068798856582
 20
204.72318370490379
 30
0.0
  0
VERTEX
  5
1459C
  8
0
 10
559.03472467822428
 20
202.95010280499301
 30
0.0
  0
VERTEX
  5
1459D
  8
0
 10
558.65702507274864
 20
201.19772847108231
 30
0.0
  0
VERTEX
  5
1459E
  8
0
 10
558.21837851288535
 20
199.46972292691979
 30
0.0
  0
VERTEX
  5
1459F
  8
0
 10
557.71970171021746
 20
197.7696974688009
 30
0.0
  0
VERTEX
  5
145A0
  8
0
 10
557.44817280209281
 20
196.93129001688879
 30
0.0
  0
VERTEX
  5
145A1
  8
0
 10
557.16203683135973
 20
196.10120491845109
 30
0.0
  0
VERTEX
  5
145A2
  8
0
 10
556.54654931997584
 20
194.4677321981122
 30
0.0
  0
VERTEX
  5
145A3
  8
0
 10
555.87452546115765
 20
192.87269304335001
 30
0.0
  0
VERTEX
  5
145A4
  8
0
 10
555.14736969326395
 20
191.31942086881119
 30
0.0
  0
VERTEX
  5
145A5
  8
0
 10
554.36660167283787
 20
189.81116180184119
 30
0.0
  0
VERTEX
  5
145A6
  8
0
 10
553.53385309872965
 20
188.3510678985196
 30
0.0
  0
VERTEX
  5
145A7
  8
0
 10
553.0985258120063
 20
187.64004055277519
 30
0.0
  0
VERTEX
  5
145A8
  8
0
 10
552.65086430206929
 20
186.94219055629239
 30
0.0
  0
VERTEX
  5
145A9
  8
0
 10
551.71948060921022
 20
185.5874741369667
 30
0.0
  0
VERTEX
  5
145AA
  8
0
 10
550.74164848524958
 20
184.28974981339559
 30
0.0
  0
VERTEX
  5
145AB
  8
0
 10
550.23594919020161
 20
183.66311201779891
 30
0.0
  0
SEQEND
  5
145AC
  8
0
  0
POLYLINE
  5
E395
  8
0
 66
     1
 10
0.0
 20
0.0
 30
0.0
  0
VERTEX
  5
145AD
  8
0
 10
550.23594919020161
 20
183.66311201779891
 30
0.0
  0
VERTEX
  5
145AE
  8
0
 10
550.16354133301229
 20
183.57668631036381
 30
0.0
  0
VERTEX
  5
145AF
  8
0
 10
550.01536768358937
 20
183.40734169036139
 30
0.0
  0
VERTEX
  5
145B0
  8
0
 10
549.86277044261715
 20
183.242675206548
 30
0.0
  0
VERTEX
  5
145B1
  8
0
 10
549.78483404065764
 20
183.1620964483335
 30
0.0
  0
VERTEX
  5
145B2
  8
0
 10
549.70581752686519
 20
183.08268699367181
 30
0.0
  0
VERTEX
  5
145B3
  8
0
 10
549.54458090437402
 20
182.92737338803079
 30
0.0
  0
VERTEX
  5
145B4
  8
0
 10
549.37913651277313
 20
182.7767262896075
 30
0.0
  0
VERTEX
  5
145B5
  8
0
 10
549.20956203801825
 20
182.63073091315539
 30
0.0
  0
VERTEX
  5
145B6
  8
0
 10
549.03593856288262
 20
182.4893673315556
 30
0.0
  0
VERTEX
  5
145B7
  8
0
 10
548.85835414066605
 20
182.35261305214479
 30
0.0
  0
VERTEX
  5
145B8
  8
0
 10
548.76810580299968
 20
182.28595633947839
 30
0.0
  0
VERTEX
  5
145B9
  8
0
 10
548.67690306191935
 20
182.22044174244959
 30
0.0
  0
VERTEX
  5
145BA
  8
0
 10
548.49168560211444
 20
182.09282262083329
 30
0.0
  0
VERTEX
  5
145BB
  8
0
 10
548.30280770663239
 20
181.9697199851168
 30
0.0
  0
VERTEX
  5
145BC
  8
0
 10
548.1103806239762
 20
181.85109287074971
 30
0.0
  0
VERTEX
  5
145BD
  8
0
 10
547.91452049623558
 20
181.73689482836519
 30
0.0
  0
VERTEX
  5
145BE
  8
0
 10
547.71534791404326
 20
181.62707380949959
 30
0.0
  0
VERTEX
  5
145BF
  8
0
 10
547.61455823715357
 20
181.57378688156419
 30
0.0
  0
VERTEX
  5
145C0
  8
0
 10
547.51298744159112
 20
181.52157214876959
 30
0.0
  0
VERTEX
  5
145C1
  8
0
 10
547.3075646555734
 20
181.42032545197591
 30
0.0
  0
VERTEX
  5
145C2
  8
0
 10
547.09917403355428
 20
181.32324875671449
 30
0.0
  0
VERTEX
  5
145C3
  8
0
 10
546.99390289582016
 20
181.27625022781311
 30
0.0
  0
SEQEND
  5
145C4
  8
0
  0
LINE
  5
E396
  8
2
 10
498.99390289590423
 20
253.74368873142211
 30
0.0
 11
559.99390289590428
 21
253.74368873142211
 31
0.0
  0
LINE
  5
E397
  8
0
 10
508.99390289590428
 20
179.74368873142211
 30
0.0
 11
511.99390289590423
 21
179.74368873142211
 31
0.0
  0
LINE
  5
E398
  8
0
 10
508.99390289590428
 20
179.74368873142211
 30
0.0
 11
508.99390289590428
 21
180.7833212407734
 31
0.0
  0
POLYLINE
  5
E399
  8
0
 66
     1
 10
0.0
 20
0.0
 30
0.0
  0
VERTEX
  5
145C5
  8
0
 10
508.99390289590428
 20
180.7833212407734
 30
0.0
  0
VERTEX
  5
145C6
  8
0
 10
508.87582883587538
 20
180.83053561180901
 30
0.0
  0
VERTEX
  5
145C7
  8
0
 10
508.64192146472851
 20
180.92918500118009
 30
0.0
  0
VERTEX
  5
145C8
  8
0
 10
508.41103499493329
 20
181.03364110115919
 30
0.0
  0
VERTEX
  5
145C9
  8
0
 10
508.29673694584829
 20
181.08811685520249
 30
0.0
  0
VERTEX
  5
145CA
  8
0
 10
508.183208965002
 20
181.14413022937759
 30
0.0
  0
VERTEX
  5
145CB
  8
0
 10
507.95848347612849
 20
181.26089285305309
 30
0.0
  0
VERTEX
  5
145CC
  8
0
 10
507.73690049898642
 20
181.3841849401694
 30
0.0
  0
VERTEX
  5
145CD
  8
0
 10
507.51850545071011
 20
181.51427924531029
 30
0.0
  0
VERTEX
  5
145CE
  8
0
 10
507.30334904011482
 20
181.65146647780691
 30
0.0
  0
VERTEX
  5
145CF
  8
0
 10
507.09145258047101
 20
181.79608226925819
 30
0.0
  0
VERTEX
  5
145D0
  8
0
 10
506.98610456898041
 20
181.87174948229091
 30
0.0
  0
VERTEX
  5
145D1
  8
0
 10
506.88085677076373
 20
181.9499942867177
 30
0.0
  0
VERTEX
  5
145D2
  8
0
 10
506.67121035809492
 20
182.11423814908301
 30
0.0
  0
VERTEX
  5
145D3
  8
0
 10
506.46357439343399
 20
182.28881349400029
 30
0.0
  0
VERTEX
  5
145D4
  8
0
 10
506.25894537725981
 20
182.4736494505928
 30
0.0
  0
VERTEX
  5
145D5
  8
0
 10
506.05824655802678
 20
182.66860439381151
 30
0.0
  0
VERTEX
  5
145D6
  8
0
 10
505.86233191645709
 20
182.87345575714281
 30
0.0
  0
VERTEX
  5
145D7
  8
0
 10
505.76641799654402
 20
182.9794976090665
 30
0.0
  0
VERTEX
  5
145D8
  8
0
 10
505.67199044848797
 20
183.0878880513545
 30
0.0
  0
VERTEX
  5
145D9
  8
0
 10
505.48793718911111
 20
183.31149541501719
 30
0.0
  0
VERTEX
  5
145DA
  8
0
 10
505.31077489263407
 20
183.543829160473
 30
0.0
  0
VERTEX
  5
145DB
  8
0
 10
505.22494155688582
 20
183.66311201779891
 30
0.0
  0
SEQEND
  5
145DC
  8
0
  0
POLYLINE
  5
E39B
  8
0
 66
     1
 10
0.0
 20
0.0
 30
0.0
  0
VERTEX
  5
145DD
  8
0
 10
511.9939028959883
 20
181.27625022781311
 30
0.0
  0
VERTEX
  5
145DE
  8
0
 10
511.88863175825418
 20
181.32324875671449
 30
0.0
  0
VERTEX
  5
145DF
  8
0
 10
511.680241136235
 20
181.42032545197591
 30
0.0
  0
VERTEX
  5
145E0
  8
0
 10
511.47481835021739
 20
181.52157214876959
 30
0.0
  0
VERTEX
  5
145E1
  8
0
 10
511.37324755465482
 20
181.57378688156419
 30
0.0
  0
VERTEX
  5
145E2
  8
0
 10
511.27245787776508
 20
181.62707380949959
 30
0.0
  0
VERTEX
  5
145E3
  8
0
 10
511.07328529557287
 20
181.73689482836519
 30
0.0
  0
VERTEX
  5
145E4
  8
0
 10
510.87742516783231
 20
181.85109287074971
 30
0.0
  0
VERTEX
  5
145E5
  8
0
 10
510.68499808517618
 20
181.9697199851168
 30
0.0
  0
VERTEX
  5
145E6
  8
0
 10
510.49612018969401
 20
182.09282262083329
 30
0.0
  0
VERTEX
  5
145E7
  8
0
 10
510.31090272988911
 20
182.22044174244959
 30
0.0
  0
VERTEX
  5
145E8
  8
0
 10
510.21969998880883
 20
182.28595633947839
 30
0.0
  0
VERTEX
  5
145E9
  8
0
 10
510.1294516511424
 20
182.35261305214479
 30
0.0
  0
VERTEX
  5
145EA
  8
0
 10
509.95186722892589
 20
182.4893673315556
 30
0.0
  0
VERTEX
  5
145EB
  8
0
 10
509.77824375379032
 20
182.63073091315539
 30
0.0
  0
VERTEX
  5
145EC
  8
0
 10
509.60866927903538
 20
182.7767262896075
 30
0.0
  0
VERTEX
  5
145ED
  8
0
 10
509.4432248874345
 20
182.92737338803079
 30
0.0
  0
VERTEX
  5
145EE
  8
0
 10
509.28198826494332
 20
183.08268699367181
 30
0.0
  0
VERTEX
  5
145EF
  8
0
 10
509.20297175115093
 20
183.1620964483335
 30
0.0
  0
VERTEX
  5
145F0
  8
0
 10
509.12503534919142
 20
183.242675206548
 30
0.0
  0
VERTEX
  5
145F1
  8
0
 10
508.97243810821908
 20
183.40734169036139
 30
0.0
  0
VERTEX
  5
145F2
  8
0
 10
508.82426445879622
 20
183.57668631036381
 30
0.0
  0
VERTEX
  5
145F3
  8
0
 10
508.7518566016069
 20
183.66311201779891
 30
0.0
  0
SEQEND
  5
145F4
  8
0
  0
LINE
  5
E39C
  8
0
 10
511.99390289590423
 20
179.74368873142211
 30
0.0
 11
511.99390289590423
 21
245.4723038904076
 31
0.0
  0
LINE
  5
E3A1
  8
0
 10
546.99390289590428
 20
245.4723038904076
 30
0.0
 11
546.99390289590428
 21
179.74368873142211
 31
0.0
  0
LINE
  5
E3A3
  8
0
 10
515.48865622695439
 20
248.24368873142211
 30
0.0
 11
543.49914956485406
 21
248.24368873142211
 31
0.0
  0
LINE
  5
E3C0
  8
0
 10
498.76090289590411
 20
185.74368873142211
 30
0.0
 11
500.99390289590428
 21
185.74368873142211
 31
0.0
  0
LINE
  5
E3C2
  8
0
 10
499.91921973658231
 20
193.74368873142211
 30
0.0
 11
498.76090289590411
 21
193.74368873142211
 31
0.0
  0
LINE
  5
E3C3
  8
0
 10
497.99390289590428
 20
186.51068873142211
 30
0.0
 11
498.76090289590411
 21
185.74368873142211
 31
0.0
  0
LINE
  5
E3C4
  8
0
 10
498.76090289590411
 20
193.74368873142211
 30
0.0
 11
497.99390289590428
 21
192.97668873142209
 31
0.0
  0
LINE
  5
E3CB
  8
0
 10
500.99390289590428
 20
183.92868873142211
 30
0.0
 11
503.49390289590423
 21
183.92868873142211
 31
0.0
  0
LINE
  5
E3D0
  8
0
 10
503.49390289590423
 20
183.4853553980887
 30
0.0
 11
503.75332260531968
 21
182.51718786206521
 31
0.0
  0
LINE
  5
E3D3
  8
0
 10
511.99390289590423
 20
183.743688731422
 30
0.0
 11
514.49390289590428
 21
183.743688731422
 31
0.0
  0
LINE
  5
E3D5
  8
0
 10
544.49390289590417
 20
183.743688731422
 30
0.0
 11
546.99390289590428
 21
183.743688731422
 31
0.0
  0
LINE
  5
E3D8
  8
0
 10
514.49390289590428
 20
195.74368873142211
 30
0.0
 11
511.99390289593742
 21
195.74368873142211
 31
0.0
  0
LINE
  5
E3D9
  8
0
 10
498.76090289590411
 20
193.74368873142211
 30
0.0
 11
498.76090289590411
 21
185.74368873142211
 31
0.0
  0
LINE
  5
E3DA
  8
0
 10
497.99390289590428
 20
192.97668873142209
 30
0.0
 11
497.99390289590428
 21
186.51068873142211
 31
0.0
  0
LINE
  5
E3FD
  8
0
 10
500.99390289590428
 20
191.14009161769471
 30
0.0
 11
500.99390289590428
 21
183.92868873142211
 31
0.0
  0
LINE
  5
E3FF
  8
0
 10
503.49390289590423
 20
186.3234548145488
 30
0.0
 11
503.49390289590423
 21
183.4853553980887
 31
0.0
  0
POLYLINE
  5
E402
  8
0
 66
     1
 10
0.0
 20
0.0
 30
0.0
  0
VERTEX
  5
145F5
  8
0
 10
503.75332260531968
 20
182.51718786206521
 30
0.0
  0
VERTEX
  5
145F6
  8
0
 10
503.6724779520618
 20
182.8417617577374
 30
0.0
  0
VERTEX
  5
145F7
  8
0
 10
503.55786761330859
 20
183.45132233650929
 30
0.0
  0
VERTEX
  5
145F8
  8
0
 10
503.50109302952433
 20
184.033730508085
 30
0.0
  0
VERTEX
  5
145F9
  8
0
 10
503.49390289590423
 20
184.32381307940449
 30
0.0
  0
SEQEND
  5
145FA
  8
0
  0
POLYLINE
  5
E403
  8
0
 66
     1
 10
0.0
 20
0.0
 30
0.0
  0
VERTEX
  5
145FB
  8
0
 10
503.49390289590423
 20
184.32381307940449
 30
0.0
  0
VERTEX
  5
145FC
  8
0
 10
503.49991814964818
 20
184.58909289833889
 30
0.0
  0
VERTEX
  5
145FD
  8
0
 10
503.54739862911492
 20
185.12049323010811
 30
0.0
  0
VERTEX
  5
145FE
  8
0
 10
503.64279847707797
 20
185.67141480527539
 30
0.0
  0
VERTEX
  5
145FF
  8
0
 10
503.70964964829682
 20
185.96137636107039
 30
0.0
  0
SEQEND
  5
14600
  8
0
  0
ARC
  5
E444
  8
0
 10
542.49390289590428
 20
236.65272591171711
 30
0.0
 40
2.0000000000000009
 50
0.0
 51
80.405931773148325
  0
ARC
  5
E445
  8
0
 10
542.49390289590428
 20
142.83465155112711
 30
0.0
 40
2.000000000000008
 50
279.59406822685168
 51
0.0
  0
ARC
  5
E446
  8
0
 10
529.49390289590417
 20
159.74368873142311
 30
0.0
 40
79.999999999998934
 50
80.405931773148325
 51
99.594068226851689
  0
ARC
  5
E447
  8
0
 10
529.49390289590417
 20
219.7436887314216
 30
0.0
 40
79.999999999999432
 50
260.40593177314832
 51
279.59406822685168
  0
ARC
  5
E448
  8
0
 10
516.49390289590417
 20
236.65272591171711
 30
0.0
 40
1.999999999999966
 50
99.594068226851689
 51
180.0
  0
ARC
  5
E449
  8
0
 10
516.49390289590417
 20
142.834651551127
 30
0.0
 40
1.9999999999999749
 50
180.0
 51
260.40593177314832
  0
LINE
  5
E454
  8
0
 10
544.49390289590417
 20
236.65272591171711
 30
0.0
 11
544.49390289590417
 21
142.83465155112711
 31
0.0
  0
LINE
  5
E456
  8
0
 10
514.49390289590428
 20
236.65272591171711
 30
0.0
 11
514.49390289590428
 21
142.83465155112711
 31
0.0
  0
LINE
  5
E45C
  8
0
 10
364.90231598404807
 20
264.44368873142201
 30
0.0
 11
364.90231598404807
 21
267.74368873142203
 31
0.0
  0
LINE
  5
E45D
  8
0
 10
342.90231598404807
 20
267.74368873142203
 30
0.0
 11
342.90231598404807
 21
264.44368873142201
 31
0.0
  0
ARC
  5
E45E
  8
0
 10
325.87731598404798
 20
261.44368873142213
 30
0.0
 40
2.9999999999999849
 50
90.0
 51
180.0
  0
ARC
  5
E45F
  8
0
 10
381.92731598404822
 20
261.44368873142201
 30
0.0
 40
2.999999999999992
 50
0.0
 51
90.0
  0
LINE
  5
E460
  8
0
 10
384.92731598404822
 20
260.94368873142201
 30
0.0
 11
384.92731598404822
 21
261.44368873142201
 31
0.0
  0
LINE
  5
E461
  8
0
 10
322.87731598404798
 20
261.44368873142201
 30
0.0
 11
322.87731598404798
 21
260.94368873142201
 31
0.0
  0
ARC
  5
E462
  8
0
 10
321.40231598404807
 20
256.94368873142201
 30
0.0
 40
4.0000000000000142
 50
90.0
 51
180.0
  0
ARC
  5
E463
  8
0
 10
386.40231598404807
 20
256.94368873142201
 30
0.0
 40
4.0000000000000284
 50
0.0
 51
90.0
  0
LINE
  5
E464
  8
0
 10
390.40231598404807
 20
255.94368873142199
 30
0.0
 11
390.40231598404807
 21
256.94368873142201
 31
0.0
  0
LINE
  5
E465
  8
0
 10
317.40231598404807
 20
256.94368873142201
 30
0.0
 11
317.40231598404807
 21
255.94368873142199
 31
0.0
  0
LINE
  5
E466
  8
0
 10
320.90231598404807
 20
255.94368873142199
 30
0.0
 11
320.90231598404807
 21
253.94368873142199
 31
0.0
  0
LINE
  5
E467
  8
2
 10
384.40231598404807
 20
252.67963626432839
 30
0.0
 11
384.40231598404807
 21
253.743688731422
 31
0.0
  0
LINE
  5
E469
  8
2
 10
359.90231598404807
 20
253.743688731422
 30
0.0
 11
359.90231598404807
 21
267.74368873142203
 31
0.0
  0
LINE
  5
E46A
  8
2
 10
347.90231598404807
 20
267.74368873142203
 30
0.0
 11
347.90231598404807
 21
253.743688731422
 31
0.0
  0
LINE
  5
E46B
  8
0
 10
342.90231598404802
 20
267.74368873142208
 30
0.0
 11
364.90231598404807
 21
267.74368873142203
 31
0.0
  0
LINE
  5
E46C
  8
0
 10
325.87731598404798
 20
264.44368873142201
 30
0.0
 11
381.92731598404822
 21
264.44368873142201
 31
0.0
  0
LINE
  5
E46E
  8
0
 10
321.40231598404807
 20
260.94368873142201
 30
0.0
 11
386.40231598404807
 21
260.94368873142201
 31
0.0
  0
LINE
  5
E470
  8
0
 10
317.40231598404807
 20
255.94368873142199
 30
0.0
 11
390.40231598404807
 21
255.94368873142199
 31
0.0
  0
LINE
  5
E471
  8
0
 10
328.04211490207672
 20
253.94368873142199
 30
0.0
 11
314.40231598404807
 21
253.94368873142199
 31
0.0
  0
LINE
  5
E472
  8
0
 10
328.04211490207672
 20
253.94368873142199
 30
0.0
 11
328.04211490207672
 21
180.7833212407734
 31
0.0
  0
LINE
  5
E473
  8
0
 10
314.40231598404807
 20
253.94368873142199
 30
0.0
 11
314.40231598404807
 21
250.243688731422
 31
0.0
  0
LINE
  5
E474
  8
0
 10
314.40231598404807
 20
250.243688731422
 30
0.0
 11
304.34538108035849
 21
191.42916620217801
 31
0.0
  0
POLYLINE
  5
E475
  8
0
 66
     1
 10
0.0
 20
0.0
 30
0.0
  0
VERTEX
  5
14601
  8
0
 10
331.54124455342981
 20
183.6631120177988
 30
0.0
  0
VERTEX
  5
14602
  8
0
 10
331.80266291900438
 20
184.00442532223809
 30
0.0
  0
VERTEX
  5
14603
  8
0
 10
332.33308678426511
 20
184.69695785264199
 30
0.0
  0
VERTEX
  5
14604
  8
0
 10
332.87342320679591
 20
185.40243242585069
 30
0.0
  0
VERTEX
  5
14605
  8
0
 10
333.1472312012325
 20
185.75992188975081
 30
0.0
  0
VERTEX
  5
14606
  8
0
 10
333.42342386452219
 20
186.1205248273526
 30
0.0
  0
VERTEX
  5
14607
  8
0
 10
333.98283599398337
 20
186.85090504386869
 30
0.0
  0
VERTEX
  5
14608
  8
0
 10
334.55140250649492
 20
187.5932374150164
 30
0.0
  0
VERTEX
  5
14609
  8
0
 10
335.12886210629671
 20
188.34718078756879
 30
0.0
  0
VERTEX
  5
1460A
  8
0
 10
335.7149494106402
 20
189.11238867223841
 30
0.0
  0
VERTEX
  5
1460B
  8
0
 10
336.30939507174622
 20
189.88850940291289
 30
0.0
  0
VERTEX
  5
1460C
  8
0
 10
336.60966706114277
 20
190.28055081402849
 30
0.0
  0
VERTEX
  5
1460D
  8
0
 10
336.91192590059148
 20
190.67518629826981
 30
0.0
  0
VERTEX
  5
1460E
  8
0
 10
337.52226499245722
 20
191.47205782569699
 30
0.0
  0
VERTEX
  5
1460F
  8
0
 10
338.14013185418571
 20
192.27875776744131
 30
0.0
  0
VERTEX
  5
14610
  8
0
 10
338.76524253308747
 20
193.09491538891149
 30
0.0
  0
VERTEX
  5
14611
  8
0
 10
339.39730974743537
 20
193.92015560905631
 30
0.0
  0
VERTEX
  5
14612
  8
0
 10
340.03604301849282
 20
194.7540991727401
 30
0.0
  0
VERTEX
  5
14613
  8
0
 10
340.35781780932263
 20
195.1742150926828
 30
0.0
  0
VERTEX
  5
14614
  8
0
 10
340.68114880400663
 20
195.5963628250372
 30
0.0
  0
VERTEX
  5
14615
  8
0
 10
341.33233063311172
 20
196.446559487364
 30
0.0
  0
VERTEX
  5
14616
  8
0
 10
341.98928924257922
 20
197.3042984353682
 30
0.0
  0
VERTEX
  5
14617
  8
0
 10
342.31984059047358
 20
197.7358732124062
 30
0.0
  0
VERTEX
  5
14618
  8
0
 10
342.65172271434898
 20
198.1691854784942
 30
0.0
  0
VERTEX
  5
14619
  8
0
 10
343.31932661428118
 20
199.04082314114049
 30
0.0
  0
VERTEX
  5
1461A
  8
0
 10
343.99179413206679
 20
199.91881084532781
 30
0.0
  0
VERTEX
  5
1461B
  8
0
 10
344.32975525437678
 20
200.36005997935061
 30
0.0
  0
VERTEX
  5
1461C
  8
0
 10
344.66881622222581
 20
200.8027450947921
 30
0.0
  0
VERTEX
  5
1461D
  8
0
 10
345.35008174613722
 20
201.69221966041931
 30
0.0
  0
VERTEX
  5
1461E
  8
0
 10
346.03527761502619
 20
202.58682576693539
 30
0.0
  0
VERTEX
  5
1461F
  8
0
 10
346.72408893385358
 20
203.4861522807677
 30
0.0
  0
VERTEX
  5
14620
  8
0
 10
347.41619914602921
 20
204.38978589898869
 30
0.0
  0
VERTEX
  5
14621
  8
0
 10
348.11129017889238
 20
205.2973113392575
 30
0.0
  0
VERTEX
  5
14622
  8
0
 10
348.45985372678518
 20
205.75240322263249
 30
0.0
  0
VERTEX
  5
14623
  8
0
 10
348.80904258988897
 20
206.2083115306711
 30
0.0
  0
VERTEX
  5
14624
  8
0
 10
349.50913571337702
 20
207.12236780543719
 30
0.0
  0
VERTEX
  5
14625
  8
0
 10
350.21124780799352
 20
208.0390600912811
 30
0.0
  0
VERTEX
  5
14626
  8
0
 10
350.91505620451971
 20
208.95796710449841
 30
0.0
  0
VERTEX
  5
14627
  8
0
 10
351.62023745416809
 20
209.8786665435635
 30
0.0
  0
VERTEX
  5
14628
  8
0
 10
352.32646747722953
 20
210.8007352832069
 30
0.0
  0
VERTEX
  5
14629
  8
0
 10
352.6798743680111
 20
211.26215073670431
 30
0.0
  0
VERTEX
  5
1462A
  8
0
 10
353.03342171201029
 20
211.7237495688706
 30
0.0
  0
VERTEX
  5
1462B
  8
0
 10
353.74077526399242
 20
212.64728521145241
 30
0.0
  0
VERTEX
  5
1462C
  8
0
 10
354.4482030551431
 20
213.57091778225049
 30
0.0
  0
VERTEX
  5
1462D
  8
0
 10
355.15537997331103
 20
214.49422280801789
 30
0.0
  0
VERTEX
  5
1462E
  8
0
 10
355.86198102163962
 20
215.41677596603719
 30
0.0
  0
VERTEX
  5
1462F
  8
0
 10
356.5676814679241
 20
216.3381532791264
 30
0.0
  0
VERTEX
  5
14630
  8
0
 10
356.92009259558108
 20
216.7982686433906
 30
0.0
  0
VERTEX
  5
14631
  8
0
 10
357.272156993848
 20
217.25793131048599
 30
0.0
  0
VERTEX
  5
14632
  8
0
 10
357.97508384403142
 20
218.17568735829721
 30
0.0
  0
VERTEX
  5
14633
  8
0
 10
358.67613897481851
 20
219.0909996499829
 30
0.0
  0
VERTEX
  5
14634
  8
0
 10
359.37500020273819
 20
220.00344753604159
 30
0.0
  0
VERTEX
  5
14635
  8
0
 10
360.07134635256938
 20
220.91261168336499
 30
0.0
  0
VERTEX
  5
14636
  8
0
 10
360.7648574049453
 20
221.81807426795041
 30
0.0
  0
VERTEX
  5
14637
  8
0
 10
361.1104501157933
 20
222.269287364132
 30
0.0
  0
VERTEX
  5
14638
  8
0
 10
361.45521464342119
 20
222.71941916692009
 30
0.0
  0
VERTEX
  5
14639
  8
0
 10
362.14210080095057
 20
223.61623214975839
 30
0.0
  0
VERTEX
  5
1463A
  8
0
 10
362.82520020568791
 20
224.50810106867979
 30
0.0
  0
VERTEX
  5
1463B
  8
0
 10
363.50419892606442
 20
225.3946160480391
 30
0.0
  0
VERTEX
  5
1463C
  8
0
 10
364.17878491505962
 20
226.27536967269759
 30
0.0
  0
VERTEX
  5
1463D
  8
0
 10
364.84864815360919
 20
227.14995717525889
 30
0.0
  0
VERTEX
  5
1463E
  8
0
 10
365.18171245011132
 20
227.58481291073809
 30
0.0
  0
VERTEX
  5
1463F
  8
0
 10
365.51348079308082
 20
228.01797662208759
 30
0.0
  0
VERTEX
  5
14640
  8
0
 10
366.17297729675101
 20
228.87902909802551
 30
0.0
  0
VERTEX
  5
14641
  8
0
 10
366.8268345802216
 20
229.7327188897209
 30
0.0
  0
VERTEX
  5
14642
  8
0
 10
367.15155450536668
 20
230.15668003883491
 30
0.0
  0
VERTEX
  5
14643
  8
0
 10
367.47475215070608
 20
230.57865366748641
 30
0.0
  0
VERTEX
  5
14644
  8
0
 10
368.11643224512949
 20
231.4164446656014
 30
0.0
  0
VERTEX
  5
14645
  8
0
 10
368.75157996696908
 20
232.24570686097709
 30
0.0
  0
VERTEX
  5
14646
  8
0
 10
369.06661285020982
 20
232.65702040488
 30
0.0
  0
VERTEX
  5
14647
  8
0
 10
369.37990342178091
 20
233.0660591501013
 30
0.0
  0
VERTEX
  5
14648
  8
0
 10
370.0011138513446
 20
233.87712452418199
 30
0.0
  0
VERTEX
  5
14649
  8
0
 10
370.6149257663688
 20
234.67853024240881
 30
0.0
  0
VERTEX
  5
1464A
  8
0
 10
371.22105707769327
 20
235.46990800325341
 30
0.0
  0
VERTEX
  5
1464B
  8
0
 10
371.8192292259273
 20
236.2508941137296
 30
0.0
  0
VERTEX
  5
1464C
  8
0
 10
372.40916730946861
 20
237.02112965653561
 30
0.0
  0
VERTEX
  5
1464D
  8
0
 10
372.70096370153078
 20
237.40210514989539
 30
0.0
  0
VERTEX
  5
1464E
  8
0
 10
372.99060021083818
 20
237.78026065500131
 30
0.0
  0
VERTEX
  5
1464F
  8
0
 10
373.56326072127831
 20
238.52793823576511
 30
0.0
  0
VERTEX
  5
14650
  8
0
 10
374.12688566355428
 20
239.2638187891055
 30
0.0
  0
VERTEX
  5
14651
  8
0
 10
374.68121601290107
 20
239.98756412685361
 30
0.0
  0
VERTEX
  5
14652
  8
0
 10
375.22599701606401
 20
240.6988416378139
 30
0.0
  0
VERTEX
  5
14653
  8
0
 10
375.76097830837631
 20
241.39732444062221
 30
0.0
  0
VERTEX
  5
14654
  8
0
 10
376.02471705236712
 20
241.7416672798185
 30
0.0
  0
VERTEX
  5
14655
  8
0
 10
376.28591402881739
 20
242.0826915339708
 30
0.0
  0
VERTEX
  5
14656
  8
0
 10
376.80056293300458
 20
242.75462794413011
 30
0.0
  0
VERTEX
  5
14657
  8
0
 10
377.30468850405992
 20
243.41282486970121
 30
0.0
  0
VERTEX
  5
14658
  8
0
 10
377.79805906130741
 20
244.0569798235318
 30
0.0
  0
VERTEX
  5
14659
  8
0
 10
378.28044786674758
 20
244.6867967717298
 30
0.0
  0
VERTEX
  5
1465A
  8
0
 10
378.75163322925619
 20
245.30198626971139
 30
0.0
  0
VERTEX
  5
1465B
  8
0
 10
378.98295674606112
 20
245.6040071080011
 30
0.0
  0
VERTEX
  5
1465C
  8
0
 10
379.21139860646832
 20
245.902265595221
 30
0.0
  0
VERTEX
  5
1465D
  8
0
 10
379.65953270429549
 20
246.48735887826169
 30
0.0
  0
VERTEX
  5
1465E
  8
0
 10
380.09582957402881
 20
247.05699722787671
 30
0.0
  0
VERTEX
  5
1465F
  8
0
 10
380.52008870698643
 20
247.61091885572361
 30
0.0
  0
VERTEX
  5
14660
  8
0
 10
380.9321151266617
 20
248.14886919638349
 30
0.0
  0
VERTEX
  5
14661
  8
0
 10
381.33171947832938
 20
248.67060102435261
 30
0.0
  0
VERTEX
  5
14662
  8
0
 10
381.5268057639837
 20
248.92530977314649
 30
0.0
  0
VERTEX
  5
14663
  8
0
 10
381.71871811606621
 20
249.1758745676587
 30
0.0
  0
VERTEX
  5
14664
  8
0
 10
382.09293318714708
 20
249.66445761805321
 30
0.0
  0
VERTEX
  5
14665
  8
0
 10
382.45419271378518
 20
250.13612563772699
 30
0.0
  0
VERTEX
  5
14666
  8
0
 10
382.80233067216432
 20
250.59066186250121
 30
0.0
  0
VERTEX
  5
14667
  8
0
 10
383.13718706873851
 20
251.0278574014452
 30
0.0
  0
VERTEX
  5
14668
  8
0
 10
383.45860801376188
 20
251.4475113328767
 30
0.0
  0
VERTEX
  5
14669
  8
0
 10
383.61423378786589
 20
251.6506996096403
 30
0.0
  0
VERTEX
  5
1466A
  8
0
 10
383.76644579201002
 20
251.8494307966991
 30
0.0
  0
VERTEX
  5
1466B
  8
0
 10
384.0605589306665
 20
252.23343108303371
 30
0.0
  0
VERTEX
  5
1466C
  8
0
 10
384.34081226433909
 20
252.59933571710761
 30
0.0
  0
VERTEX
  5
1466D
  8
0
 10
384.47570100515389
 20
252.77544928800381
 30
0.0
  0
VERTEX
  5
1466E
  8
0
 10
384.60707699717659
 20
252.94697654035531
 30
0.0
  0
VERTEX
  5
1466F
  8
0
 10
384.859230762062
 20
253.27619378769941
 30
0.0
  0
VERTEX
  5
14670
  8
0
 10
385.0971576768452
 20
253.5868361609742
 30
0.0
  0
VERTEX
  5
14671
  8
0
 10
385.21075163867857
 20
253.73514682152151
 30
0.0
  0
VERTEX
  5
14672
  8
0
 10
385.32074839760247
 20
253.8787608984569
 30
0.0
  0
VERTEX
  5
14673
  8
0
 10
385.52990016888498
 20
254.1518338404772
 30
0.0
  0
VERTEX
  5
14674
  8
0
 10
385.72451687094241
 20
254.40592949107281
 30
0.0
  0
VERTEX
  5
14675
  8
0
 10
385.90450906389879
 20
254.64093107566319
 30
0.0
  0
VERTEX
  5
14676
  8
0
 10
386.06979402885281
 20
254.8567305947162
 30
0.0
  0
VERTEX
  5
14677
  8
0
 10
386.22029580589651
 20
255.05322887338079
 30
0.0
  0
VERTEX
  5
14678
  8
0
 10
386.28998111829702
 20
255.14421147972519
 30
0.0
  0
VERTEX
  5
14679
  8
0
 10
386.35594522902147
 20
255.230335607065
 30
0.0
  0
VERTEX
  5
1467A
  8
0
 10
386.47667995790653
 20
255.38796940293739
 30
0.0
  0
VERTEX
  5
1467B
  8
0
 10
386.5824445065669
 20
255.52605781733209
 30
0.0
  0
VERTEX
  5
1467C
  8
0
 10
386.67319026885519
 20
255.64453738904231
 30
0.0
  0
VERTEX
  5
1467D
  8
0
 10
386.748875540798
 20
255.7433536684849
 30
0.0
  0
VERTEX
  5
1467E
  8
0
 10
386.80946553976082
 20
255.82246124272351
 30
0.0
  0
VERTEX
  5
1467F
  8
0
 10
386.8340908388555
 20
255.85461255002849
 30
0.0
  0
VERTEX
  5
14680
  8
0
 10
386.8549324204364
 20
255.8818237563396
 30
0.0
  0
VERTEX
  5
14681
  8
0
 10
386.8852552876383
 20
255.9214139281394
 30
0.0
  0
VERTEX
  5
14682
  8
0
 10
386.9004202059055
 20
255.94121356369249
 30
0.0
  0
VERTEX
  5
14683
  8
0
 10
386.90231598404807
 20
255.94368873142199
 30
0.0
  0
SEQEND
  5
14684
  8
0
  0
ARC
  5
E476
  8
0
 10
314.20231598404831
 20
189.743688731422
 30
0.0
 40
9.9999999999999982
 50
170.29660726674351
 51
270.0
  0
LINE
  5
E477
  8
0
 10
314.20231598404831
 20
179.743688731422
 30
0.0
 11
323.60231598404789
 21
179.743688731422
 31
0.0
  0
LINE
  5
E479
  8
2
 10
323.40231598404807
 20
253.743688731422
 30
0.0
 11
384.40231598404807
 21
253.743688731422
 31
0.0
  0
ARC
  5
E47A
  8
0
 10
323.60231598404789
 20
189.74368873142211
 30
0.0
 40
10.00000000000005
 50
270.0
 51
296.3580909938081
  0
POLYLINE
  5
E47B
  8
0
 66
     1
 10
0.0
 20
0.0
 30
0.0
  0
VERTEX
  5
14685
  8
0
 10
328.04211490207672
 20
180.7833212407734
 30
0.0
  0
VERTEX
  5
14686
  8
0
 10
328.13615557829189
 20
180.8305356118089
 30
0.0
  0
VERTEX
  5
14687
  8
0
 10
328.32508254503227
 20
180.92918500118009
 30
0.0
  0
VERTEX
  5
14688
  8
0
 10
328.51506168055539
 20
181.03364110115911
 30
0.0
  0
VERTEX
  5
14689
  8
0
 10
328.61041697100882
 20
181.0881168552024
 30
0.0
  0
VERTEX
  5
1468A
  8
0
 10
328.7060002973567
 20
181.14413022937751
 30
0.0
  0
VERTEX
  5
1468B
  8
0
 10
328.8978021832491
 20
181.26089285305309
 30
0.0
  0
VERTEX
  5
1468C
  8
0
 10
329.0903663085287
 20
181.3841849401694
 30
0.0
  0
VERTEX
  5
1468D
  8
0
 10
329.28358516530437
 20
181.51427924531021
 30
0.0
  0
VERTEX
  5
1468E
  8
0
 10
329.47734270722958
 20
181.65146647780691
 30
0.0
  0
VERTEX
  5
1468F
  8
0
 10
329.67154587939513
 20
181.79608226925819
 30
0.0
  0
VERTEX
  5
14690
  8
0
 10
329.76937139631627
 20
181.8717494822908
 30
0.0
  0
VERTEX
  5
14691
  8
0
 10
329.86796255104991
 20
181.9499942867177
 30
0.0
  0
VERTEX
  5
14692
  8
0
 10
330.0669492924149
 20
182.11423814908289
 30
0.0
  0
VERTEX
  5
14693
  8
0
 10
330.26751179471057
 20
182.28881349400021
 30
0.0
  0
VERTEX
  5
14694
  8
0
 10
330.468648983197
 20
182.4736494505928
 30
0.0
  0
VERTEX
  5
14695
  8
0
 10
330.6693649873946
 20
182.66860439381151
 30
0.0
  0
VERTEX
  5
14696
  8
0
 10
330.86866987572779
 20
182.87345575714269
 30
0.0
  0
VERTEX
  5
14697
  8
0
 10
330.9674852597841
 20
182.9794976090665
 30
0.0
  0
VERTEX
  5
14698
  8
0
 10
331.06558050483318
 20
183.08788805135441
 30
0.0
  0
VERTEX
  5
14699
  8
0
 10
331.2591357638521
 20
183.31149541501711
 30
0.0
  0
VERTEX
  5
1469A
  8
0
 10
331.44844504878529
 20
183.543829160473
 30
0.0
  0
VERTEX
  5
1469B
  8
0
 10
331.54124455342981
 20
183.6631120177988
 30
0.0
  0
SEQEND
  5
1469C
  8
0
  0
LINE
  5
E480
  8
0
 10
306.93563698083881
 20
253.743688731422
 30
0.0
 11
258.41897648244361
 21
240.743688731422
 31
0.0
  0
LINE
  5
E481
  8
0
 10
314.40231598404807
 20
253.743688731422
 30
0.0
 11
306.93563698083881
 21
253.743688731422
 31
0.0
  0
LINE
  5
E482
  8
0
 10
261.90231598404807
 20
227.743688731422
 30
0.0
 11
310.55494928612922
 21
227.743688731422
 31
0.0
  0
LINE
  5
E486
  8
0
 10
258.41897648244361
 20
240.743688731422
 30
0.0
 11
261.90231598404807
 21
227.743688731422
 31
0.0
  0
ARC
  5
E4A6
  8
0
 10
318.90231598404807
 20
189.74368873142211
 30
0.0
 40
49.999999999999908
 50
130.53580211130651
 51
36.611084727760051
  0
ARC
  5
E4A9
  8
0
 10
318.90231598404807
 20
189.743688731422
 30
0.0
 40
40.332662348034837
 50
109.5817191804796
 51
32.646452309755048
  0
ARC
  5
E4B2
  8
0
 10
318.90231598404807
 20
189.743688731422
 30
0.0
 40
17.206507021163009
 50
138.5539983683127
 51
359.60848541728632
  0
ARC
  5
E4BA
  8
0
 10
318.90231598404762
 20
189.74368873142211
 30
0.0
 40
14.659727048148159
 50
166.82074318662021
 51
173.80835380091389
  0
ARC
  5
E4BB
  8
0
 10
318.90231598404807
 20
189.743688731422
 30
0.0
 40
46.909037180294987
 50
125.89640336942399
 51
35.529832988039402
  0
LINE
  5
E4C5
  8
0
 10
304.2023159840478
 20
398.38045729116237
 30
0.0
 11
304.2023159840478
 21
398.48045729116239
 31
0.0
  0
LINE
  5
E4C6
  8
0
 10
304.2023159840478
 20
357.48045729116239
 30
0.0
 11
304.2023159840478
 21
357.58045729116242
 31
0.0
  0
CIRCLE
  5
E4CA
  8
0
 10
353.90231598404762
 20
377.98045729116239
 30
0.0
 40
11.0
  0
CIRCLE
  5
E4CB
  8
0
 10
353.90231598404762
 20
377.98045729116239
 30
0.0
 40
28.025000000000009
  0
CIRCLE
  5
E4CC
  8
0
 10
353.90231598404762
 20
377.98045729116239
 30
0.0
 40
31.025000000000009
  0
CIRCLE
  5
E4CD
  8
0
 10
353.90231598404762
 20
377.98045729116239
 30
0.0
 40
32.5
  0
CIRCLE
  5
E4CE
  8
0
 10
353.90231598404762
 20
377.98045729116239
 30
0.0
 40
36.5
  0
LINE
  5
E4D3
  8
0
 10
304.34538108035798
 20
398.48045729116239
 30
0.0
 11
304.34538108035798
 21
398.38045729116237
 31
0.0
  0
LINE
  5
E4D5
  8
0
 10
323.70297824296449
 20
398.48045729116239
 30
0.0
 11
304.2023159840478
 21
398.48045729116239
 31
0.0
  0
LINE
  5
E4DA
  8
0
 10
304.2023159840478
 20
357.48045729116239
 30
0.0
 11
323.70297824296449
 21
357.48045729116239
 31
0.0
  0
LINE
  5
E4E0
  8
0
 10
314.40231598404762
 20
357.58045729116242
 30
0.0
 11
258.41897648244321
 21
357.58045729116242
 31
0.0
  0
LINE
  5
E4E1
  8
0
 10
306.9356369808383
 20
398.38045729116237
 30
0.0
 11
306.9356369808383
 21
357.58045729116242
 31
0.0
  0
LINE
  5
E4E2
  8
0
 10
314.40231598404762
 20
398.38045729116237
 30
0.0
 11
258.41897648244321
 21
398.38045729116237
 31
0.0
  0
LINE
  5
E4EA
  8
0
 10
258.41897648244321
 20
398.38045729116237
 30
0.0
 11
258.41897648244321
 21
357.58045729116242
 31
0.0
  0
CIRCLE
  5
E4FB
  8
0
 10
353.90231598404762
 20
377.98045729116239
 30
0.0
 40
6.0
  0
LINE
  5
E4FC
  8
1
 10
231.08140195130539
 20
377.98045729116262
 30
0.0
 11
397.73989051518538
 21
377.98045729116239
 31
0.0
  0
LINE
  5
E4FD
  8
1
 10
353.90231598404762
 20
421.81803182229999
 30
0.0
 11
353.90231598404762
 21
334.14288276002469
 31
0.0
  0
LINE
  5
E4FF
  8
0
 10
313.08731598404762
 20
356.88045729116237
 30
0.0
 11
313.08731598404762
 21
357.48045729116239
 31
0.0
  0
LINE
  5
E500
  8
0
 10
322.90231598404762
 20
408.71345729116229
 30
0.0
 11
322.90231598404762
 21
406.48045729116239
 31
0.0
  0
LINE
  5
E501
  8
0
 10
314.90231598404762
 20
406.48045729116239
 30
0.0
 11
314.90231598404762
 21
408.71345729116229
 31
0.0
  0
LINE
  5
E502
  8
0
 10
322.13531598404779
 20
409.48045729116228
 30
0.0
 11
322.90231598404762
 21
408.71345729116229
 31
0.0
  0
LINE
  5
E503
  8
0
 10
314.90231598404762
 20
408.71345729116229
 30
0.0
 11
315.66931598404739
 21
409.48045729116228
 31
0.0
  0
LINE
  5
E506
  8
0
 10
324.71731598404767
 20
406.48045729116239
 30
0.0
 11
324.71731598404767
 21
403.98045729116239
 31
0.0
  0
LINE
  5
E507
  8
0
 10
313.08731598404762
 20
403.98045729116239
 30
0.0
 11
313.08731598404762
 21
406.48045729116239
 31
0.0
  0
LINE
  5
E50C
  8
0
 10
314.90231598404762
 20
408.71345729116229
 30
0.0
 11
322.90231598404762
 21
408.71345729116229
 31
0.0
  0
LINE
  5
E50D
  8
0
 10
315.66931598404739
 20
409.48045729116228
 30
0.0
 11
322.13531598404779
 21
409.48045729116228
 31
0.0
  0
LINE
  5
E50E
  8
0
 10
312.64398265071441
 20
352.18045729116238
 30
0.0
 11
325.16064931738077
 21
352.18045729116238
 31
0.0
  0
LINE
  5
E50F
  8
0
 10
312.64398265071441
 20
356.88045729116237
 30
0.0
 11
324.1218877603846
 21
356.88045729116237
 31
0.0
  0
POLYLINE
  5
E51B
  8
0
 66
     1
 10
0.0
 20
0.0
 30
0.0
  0
VERTEX
  5
1469D
  8
0
 10
322.03148265071422
 20
356.88045729116237
 30
0.0
  0
VERTEX
  5
1469E
  8
0
 10
321.52904489879887
 20
356.87326715754239
 30
0.0
  0
VERTEX
  5
1469F
  8
0
 10
320.52028435488643
 20
356.81649257375813
 30
0.0
  0
VERTEX
  5
146A0
  8
0
 10
319.46449446216229
 20
356.70188223500497
 30
0.0
  0
VERTEX
  5
146A1
  8
0
 10
318.90231598404762
 20
356.62103758174692
 30
0.0
  0
SEQEND
  5
146A2
  8
0
  0
POLYLINE
  5
E51C
  8
0
 66
     1
 10
0.0
 20
0.0
 30
0.0
  0
VERTEX
  5
146A3
  8
0
 10
318.90231598404762
 20
352.43987700057801
 30
0.0
  0
VERTEX
  5
146A4
  8
0
 10
319.46449446216229
 20
352.35903234731978
 30
0.0
  0
VERTEX
  5
146A5
  8
0
 10
320.52028435488643
 20
352.24442200856669
 30
0.0
  0
VERTEX
  5
146A6
  8
0
 10
321.52904489879887
 20
352.18764742478231
 30
0.0
  0
VERTEX
  5
146A7
  8
0
 10
322.03148265071422
 20
352.18045729116238
 30
0.0
  0
SEQEND
  5
146A8
  8
0
  0
POLYLINE
  5
E51D
  8
0
 66
     1
 10
0.0
 20
0.0
 30
0.0
  0
VERTEX
  5
146A9
  8
0
 10
322.03148265071422
 20
352.18045729116238
 30
0.0
  0
VERTEX
  5
146AA
  8
0
 10
322.53392040262997
 20
352.18764742478231
 30
0.0
  0
VERTEX
  5
146AB
  8
0
 10
323.54268094654208
 20
352.24442200856669
 30
0.0
  0
VERTEX
  5
146AC
  8
0
 10
324.59847083926621
 20
352.35903234731978
 30
0.0
  0
VERTEX
  5
146AD
  8
0
 10
325.16064931738077
 20
352.43987700057801
 30
0.0
  0
SEQEND
  5
146AE
  8
0
  0
POLYLINE
  5
E51F
  8
0
 66
     1
 10
0.0
 20
0.0
 30
0.0
  0
VERTEX
  5
146AF
  8
0
 10
324.2093631633752
 20
356.75013621118637
 30
0.0
  0
VERTEX
  5
146B0
  8
0
 10
323.83453755500932
 20
356.79009767041589
 30
0.0
  0
VERTEX
  5
146B1
  8
0
 10
323.10592816757338
 20
356.847823620687
 30
0.0
  0
VERTEX
  5
146B2
  8
0
 10
322.39019119098521
 20
356.87678860020708
 30
0.0
  0
VERTEX
  5
146B3
  8
0
 10
322.03148265071422
 20
356.88045729116237
 30
0.0
  0
SEQEND
  5
146B4
  8
0
  0
POLYLINE
  5
E520
  8
0
 66
     1
 10
0.0
 20
0.0
 30
0.0
  0
VERTEX
  5
146B5
  8
0
 10
315.77314931738101
 20
356.88045729116237
 30
0.0
  0
VERTEX
  5
146B6
  8
0
 10
315.27071156546532
 20
356.87326715754239
 30
0.0
  0
VERTEX
  5
146B7
  8
0
 10
314.26195102155322
 20
356.81649257375813
 30
0.0
  0
VERTEX
  5
146B8
  8
0
 10
313.20616112882908
 20
356.70188223500497
 30
0.0
  0
VERTEX
  5
146B9
  8
0
 10
312.64398265071441
 20
356.62103758174692
 30
0.0
  0
SEQEND
  5
146BA
  8
0
  0
POLYLINE
  5
E522
  8
0
 66
     1
 10
0.0
 20
0.0
 30
0.0
  0
VERTEX
  5
146BB
  8
0
 10
312.64398265071441
 20
352.43987700057789
 30
0.0
  0
VERTEX
  5
146BC
  8
0
 10
313.20616112882908
 20
352.35903234731978
 30
0.0
  0
VERTEX
  5
146BD
  8
0
 10
314.26195102155322
 20
352.24442200856669
 30
0.0
  0
VERTEX
  5
146BE
  8
0
 10
315.27071156546532
 20
352.18764742478231
 30
0.0
  0
VERTEX
  5
146BF
  8
0
 10
315.77314931738101
 20
352.18045729116238
 30
0.0
  0
SEQEND
  5
146C0
  8
0
  0
POLYLINE
  5
E523
  8
0
 66
     1
 10
0.0
 20
0.0
 30
0.0
  0
VERTEX
  5
146C1
  8
0
 10
315.77314931738101
 20
352.18045729116238
 30
0.0
  0
VERTEX
  5
146C2
  8
0
 10
316.27558706929631
 20
352.18764742478231
 30
0.0
  0
VERTEX
  5
146C3
  8
0
 10
317.28434761320892
 20
352.24442200856669
 30
0.0
  0
VERTEX
  5
146C4
  8
0
 10
318.34013750593289
 20
352.35903234731978
 30
0.0
  0
VERTEX
  5
146C5
  8
0
 10
318.90231598404762
 20
352.43987700057801
 30
0.0
  0
SEQEND
  5
146C6
  8
0
  0
LINE
  5
E524
  8
0
 10
318.90231598404762
 20
352.43987700057801
 30
0.0
 11
318.90231598404762
 21
356.62103758174692
 31
0.0
  0
POLYLINE
  5
E525
  8
0
 66
     1
 10
0.0
 20
0.0
 30
0.0
  0
VERTEX
  5
146C7
  8
0
 10
318.90231598404762
 20
356.62103758174692
 30
0.0
  0
VERTEX
  5
146C8
  8
0
 10
318.34013750593289
 20
356.70188223500497
 30
0.0
  0
VERTEX
  5
146C9
  8
0
 10
317.28434761320892
 20
356.81649257375813
 30
0.0
  0
VERTEX
  5
146CA
  8
0
 10
316.27558706929631
 20
356.87326715754239
 30
0.0
  0
VERTEX
  5
146CB
  8
0
 10
315.77314931738101
 20
356.88045729116237
 30
0.0
  0
SEQEND
  5
146CC
  8
0
  0
LINE
  5
E52A
  8
0
 10
313.08731598404762
 20
406.48045729116239
 30
0.0
 11
324.71731598404767
 21
406.48045729116239
 31
0.0
  0
LINE
  5
E52B
  8
0
 10
312.64398265071441
 20
403.98045729116239
 30
0.0
 11
325.16064931738077
 21
403.98045729116239
 31
0.0
  0
POLYLINE
  5
E536
  8
0
 66
     1
 10
0.0
 20
0.0
 30
0.0
  0
VERTEX
  5
146CD
  8
0
 10
322.03148265071422
 20
403.98045729116239
 30
0.0
  0
VERTEX
  5
146CE
  8
0
 10
321.52904489879887
 20
403.97326715754252
 30
0.0
  0
VERTEX
  5
146CF
  8
0
 10
320.52028435488643
 20
403.91649257375809
 30
0.0
  0
VERTEX
  5
146D0
  8
0
 10
319.46449446216229
 20
403.801882235005
 30
0.0
  0
VERTEX
  5
146D1
  8
0
 10
318.90231598404762
 20
403.72103758174683
 30
0.0
  0
SEQEND
  5
146D2
  8
0
  0
POLYLINE
  5
E537
  8
0
 66
     1
 10
0.0
 20
0.0
 30
0.0
  0
VERTEX
  5
146D3
  8
0
 10
318.90231598404762
 20
398.73987700057791
 30
0.0
  0
VERTEX
  5
146D4
  8
0
 10
319.4644944621586
 20
398.65903234732031
 30
0.0
  0
VERTEX
  5
146D5
  8
0
 10
320.52028435487642
 20
398.54442200856761
 30
0.0
  0
VERTEX
  5
146D6
  8
0
 10
321.5290448987821
 20
398.48764742478278
 30
0.0
  0
VERTEX
  5
146D7
  8
0
 10
322.03148265069422
 20
398.48045729116239
 30
0.0
  0
SEQEND
  5
146D8
  8
0
  0
POLYLINE
  5
E538
  8
0
 66
     1
 10
0.0
 20
0.0
 30
0.0
  0
VERTEX
  5
146D9
  8
0
 10
322.03148265071422
 20
398.48045729116239
 30
0.0
  0
VERTEX
  5
146DA
  8
0
 10
322.31785590109121
 20
398.4827964763208
 30
0.0
  0
VERTEX
  5
146DB
  8
0
 10
322.88835196928858
 20
398.50128507181
 30
0.0
  0
VERTEX
  5
146DC
  8
0
 10
323.46356212106502
 20
398.5380075987249
 30
0.0
  0
VERTEX
  5
146DD
  8
0
 10
323.75579457023611
 20
398.5632781626407
 30
0.0
  0
SEQEND
  5
146DE
  8
0
  0
POLYLINE
  5
E53A
  8
0
 66
     1
 10
0.0
 20
0.0
 30
0.0
  0
VERTEX
  5
146DF
  8
0
 10
325.16064931738077
 20
403.72103758174683
 30
0.0
  0
VERTEX
  5
146E0
  8
0
 10
324.59847083926621
 20
403.801882235005
 30
0.0
  0
VERTEX
  5
146E1
  8
0
 10
323.54268094654208
 20
403.91649257375809
 30
0.0
  0
VERTEX
  5
146E2
  8
0
 10
322.53392040262997
 20
403.97326715754241
 30
0.0
  0
VERTEX
  5
146E3
  8
0
 10
322.03148265071422
 20
403.98045729116239
 30
0.0
  0
SEQEND
  5
146E4
  8
0
  0
POLYLINE
  5
E53B
  8
0
 66
     1
 10
0.0
 20
0.0
 30
0.0
  0
VERTEX
  5
146E5
  8
0
 10
315.77314931738101
 20
403.98045729116239
 30
0.0
  0
VERTEX
  5
146E6
  8
0
 10
315.27071156546532
 20
403.97326715754252
 30
0.0
  0
VERTEX
  5
146E7
  8
0
 10
314.26195102155322
 20
403.91649257375809
 30
0.0
  0
VERTEX
  5
146E8
  8
0
 10
313.20616112882908
 20
403.801882235005
 30
0.0
  0
VERTEX
  5
146E9
  8
0
 10
312.64398265071441
 20
403.72103758174683
 30
0.0
  0
SEQEND
  5
146EA
  8
0
  0
POLYLINE
  5
E53D
  8
0
 66
     1
 10
0.0
 20
0.0
 30
0.0
  0
VERTEX
  5
146EB
  8
0
 10
312.64398265071441
 20
398.73987700057791
 30
0.0
  0
VERTEX
  5
146EC
  8
0
 10
313.20616112882499
 20
398.65903234732031
 30
0.0
  0
VERTEX
  5
146ED
  8
0
 10
314.26195102154128
 20
398.54442200856772
 30
0.0
  0
VERTEX
  5
146EE
  8
0
 10
315.27071156544662
 20
398.48764742478278
 30
0.0
  0
VERTEX
  5
146EF
  8
0
 10
315.77314931735827
 20
398.48045729116239
 30
0.0
  0
SEQEND
  5
146F0
  8
0
  0
POLYLINE
  5
E53E
  8
0
 66
     1
 10
0.0
 20
0.0
 30
0.0
  0
VERTEX
  5
146F1
  8
0
 10
315.77314931738101
 20
398.48045729116239
 30
0.0
  0
VERTEX
  5
146F2
  8
0
 10
316.27558706929631
 20
398.48764742478232
 30
0.0
  0
VERTEX
  5
146F3
  8
0
 10
317.28434761320892
 20
398.5444220085667
 30
0.0
  0
VERTEX
  5
146F4
  8
0
 10
318.34013750593289
 20
398.65903234731979
 30
0.0
  0
VERTEX
  5
146F5
  8
0
 10
318.90231598404762
 20
398.73987700057791
 30
0.0
  0
SEQEND
  5
146F6
  8
0
  0
LINE
  5
E53F
  8
0
 10
318.90231598404762
 20
398.73987700057791
 30
0.0
 11
318.90231598404762
 21
403.72103758174683
 31
0.0
  0
POLYLINE
  5
E540
  8
0
 66
     1
 10
0.0
 20
0.0
 30
0.0
  0
VERTEX
  5
146F7
  8
0
 10
318.90231598404762
 20
403.72103758174683
 30
0.0
  0
VERTEX
  5
146F8
  8
0
 10
318.34013750593289
 20
403.801882235005
 30
0.0
  0
VERTEX
  5
146F9
  8
0
 10
317.28434761320892
 20
403.91649257375809
 30
0.0
  0
VERTEX
  5
146FA
  8
0
 10
316.27558706929631
 20
403.97326715754252
 30
0.0
  0
VERTEX
  5
146FB
  8
0
 10
315.77314931738101
 20
403.98045729116239
 30
0.0
  0
SEQEND
  5
146FC
  8
0
  0
LINE
  5
E54A
  8
1
 10
318.90231598404762
 20
344.84288276002468
 30
0.0
 11
318.90231598404762
 21
416.81803182229999
 31
0.0
  0
CIRCLE
  5
129F1
  8
0
 10
318.90231598404807
 20
189.7436887314235
 30
0.0
 40
6.2583333333333311
  0
LINE
  5
129F2
  8
0
 10
312.6439826507148
 20
193.3569391661018
 30
0.0
 11
318.90231598404807
 21
196.9701896007802
 31
0.0
  0
LINE
  5
129F3
  8
0
 10
312.6439826507148
 20
193.3569391661018
 30
0.0
 11
312.6439826507148
 21
186.13043829674501
 31
0.0
  0
LINE
  5
129F4
  8
0
 10
312.6439826507148
 20
186.13043829674501
 30
0.0
 11
318.90231598404807
 21
182.51718786206661
 31
0.0
  0
LINE
  5
129F5
  8
0
 10
325.16064931738129
 20
193.3569391661018
 30
0.0
 11
318.90231598404807
 21
196.9701896007802
 31
0.0
  0
LINE
  5
129F6
  8
0
 10
325.16064931738129
 20
193.3569391661018
 30
0.0
 11
325.16064931738129
 21
186.13043829674501
 31
0.0
  0
LINE
  5
129F7
  8
0
 10
325.16064931738129
 20
186.13043829674501
 30
0.0
 11
318.90231598404807
 21
182.51718786206661
 31
0.0
  0
LINE
  5
129F9
  8
1
 10
257.08611600360558
 20
189.7436887314235
 30
0.0
 11
380.71851596449051
 21
189.7436887314235
 31
0.0
  0
LINE
  5
129FA
  8
1
 10
318.90231598404807
 20
127.927488750981
 30
0.0
 11
318.90231598404807
 21
251.55988871186599
 31
0.0
  0
LINE
  5
12A08
  8
1
 10
353.90231598404807
 20
279.55988871186582
 30
0.0
 11
353.90231598404807
 21
221.69241257874981
 31
0.0
  0
LINE
  5
12B79
  8
0
 10
314.40231598404762
 20
398.48045729116239
 30
0.0
 11
314.40231598404762
 21
357.48045729116239
 31
0.0
  0
LINE
  5
12B7D
  8
0
 10
238.41897648244321
 20
361.95893660784583
 30
0.0
 11
238.41897648244321
 21
394.00197797447942
 31
0.0
  0
LINE
  5
12B7E
  8
0
 10
242.96313674647081
 20
358.98045729116131
 30
0.0
 11
242.96313674647081
 21
396.98045729116131
 31
0.0
  0
LINE
  5
12B7F
  8
0
 10
255.41897648244321
 20
361.98045729116131
 30
0.0
 11
255.41897648244321
 21
393.98045729116149
 31
0.0
  0
LINE
  5
12B80
  8
0
 10
258.41897648244321
 20
358.98045729116131
 30
0.0
 11
240.0130861810589
 21
358.98045729116131
 31
0.0
  0
LINE
  5
12B81
  8
0
 10
255.41897648244321
 20
361.98045729116131
 30
0.0
 11
258.41897648244321
 21
361.98045729116131
 31
0.0
  0
LINE
  5
12B82
  8
0
 10
258.41897648244321
 20
396.98045729116131
 30
0.0
 11
240.0130861810585
 21
396.98045729116131
 31
0.0
  0
LINE
  5
12B83
  8
0
 10
255.41897648244409
 20
393.98045729116149
 30
0.0
 11
258.41897648244412
 21
393.9804572911612
 31
0.0
  0
ARC
  5
12B84
  8
0
 10
242.75541587608501
 20
362.36400831760631
 30
0.0
 40
4.3553174057440378
 50
185.33657785304879
 51
230.97562584383911
  0
ARC
  5
12B85
  8
0
 10
242.7554158760845
 20
393.59690626471621
 30
0.0
 40
4.3553174057440378
 50
129.02437415616089
 51
174.66342214695109
  0
LINE
  5
12BC6
  8
0
 10
544.49390289590417
 20
195.74368873142211
 30
0.0
 11
546.99390289590428
 21
195.74368873142211
 31
0.0
  0
LINE
  5
12BC7
  8
3
 10
497.99390289590428
 20
192.97668873142209
 30
0.0
 11
500.21400007388178
 21
192.97668873142209
 31
0.0
  0
LINE
  5
12BC8
  8
3
 10
497.99390289590428
 20
186.51068873142211
 30
0.0
 11
500.99390289590428
 21
186.51068873142211
 31
0.0
  0
ARC
  5
12BCD
  8
0
 10
80.285729072263621
 20
261.44368873142213
 30
0.0
 40
2.9999999999999849
 50
90.0
 51
180.0
  0
ARC
  5
12BCE
  8
0
 10
136.3357290722638
 20
261.44368873142213
 30
0.0
 40
2.9999999999999849
 50
0.0
 51
90.0
  0
LINE
  5
12BCF
  8
0
 10
139.3357290722638
 20
260.94368873142213
 30
0.0
 11
139.3357290722638
 21
261.44368873142213
 31
0.0
  0
LINE
  5
12BD0
  8
0
 10
77.285729072263621
 20
261.44368873142213
 30
0.0
 11
77.285729072263621
 21
260.94368873142213
 31
0.0
  0
ARC
  5
12BD1
  8
0
 10
75.810729072263712
 20
256.94368873142213
 30
0.0
 40
4.0000000000000142
 50
90.0
 51
180.0
  0
ARC
  5
12BD2
  8
0
 10
140.81072907226371
 20
256.94368873142213
 30
0.0
 40
4.0000000000000142
 50
0.0
 51
90.0
  0
LINE
  5
12BD3
  8
0
 10
144.81072907226371
 20
255.9436887314221
 30
0.0
 11
144.81072907226371
 21
256.94368873142213
 31
0.0
  0
LINE
  5
12BD4
  8
0
 10
71.810729072263712
 20
256.94368873142213
 30
0.0
 11
71.810729072263712
 21
255.9436887314221
 31
0.0
  0
LINE
  5
12BD5
  8
0
 10
141.31072907226371
 20
212.85819616578581
 30
0.0
 11
141.31072907226371
 21
255.9436887314221
 31
0.0
  0
LINE
  5
12BD6
  8
0
 10
75.310729072263712
 20
255.9436887314221
 30
0.0
 11
75.310729072263712
 21
212.85819616578581
 31
0.0
  0
LINE
  5
12BD9
  8
0
 10
80.285729072263621
 20
264.44368873142201
 30
0.0
 11
136.3357290722638
 21
264.44368873142201
 31
0.0
  0
LINE
  5
12BDA
  8
0
 10
75.810729072263712
 20
260.94368873142213
 30
0.0
 11
140.81072907226371
 21
260.94368873142213
 31
0.0
  0
LINE
  5
12BDB
  8
0
 10
71.810729072263712
 20
255.9436887314221
 30
0.0
 11
144.81072907226371
 21
255.9436887314221
 31
0.0
  0
LINE
  5
12BDC
  8
0
 10
128.81072907226371
 20
253.9436887314221
 30
0.0
 11
87.810729072263726
 21
253.9436887314221
 31
0.0
  0
LINE
  5
12BDD
  8
0
 10
128.81072907226371
 20
179.74368873142211
 30
0.0
 11
128.81072907226371
 21
253.9436887314221
 31
0.0
  0
LINE
  5
12BDE
  8
0
 10
87.810729072263726
 20
253.9436887314221
 30
0.0
 11
87.810729072263726
 21
179.74368873142211
 31
0.0
  0
POLYLINE
  5
12BDF
  8
0
 66
     1
 10
0.0
 20
0.0
 30
0.0
  0
VERTEX
  5
146FD
  8
0
 10
78.743437041051038
 20
193.74368873142211
 30
0.0
  0
VERTEX
  5
146FE
  8
0
 10
78.374219249828911
 20
194.72907731530611
 30
0.0
  0
VERTEX
  5
146FF
  8
0
 10
77.825665161509278
 20
196.36076292916721
 30
0.0
  0
VERTEX
  5
14700
  8
0
 10
77.570887464119096
 20
197.1873643318913
 30
0.0
  0
VERTEX
  5
14701
  8
0
 10
77.329256473116857
 20
198.02066778037079
 30
0.0
  0
VERTEX
  5
14702
  8
0
 10
76.885842303081063
 20
199.70595256365701
 30
0.0
  0
VERTEX
  5
14703
  8
0
 10
76.496181121493464
 20
201.41373456081109
 30
0.0
  0
VERTEX
  5
14704
  8
0
 10
76.160939452729494
 20
203.1410925716186
 30
0.0
  0
VERTEX
  5
14705
  8
0
 10
75.880690735339144
 20
204.88507191064559
 30
0.0
  0
VERTEX
  5
14706
  8
0
 10
75.655914341172775
 20
206.64268946129559
 30
0.0
  0
VERTEX
  5
14707
  8
0
 10
75.564452142522441
 20
207.52567382277979
 30
0.0
  0
VERTEX
  5
14708
  8
0
 10
75.486994755398428
 20
208.41093877849869
 30
0.0
  0
VERTEX
  5
14709
  8
0
 10
75.374220918837182
 20
210.18679523130501
 30
0.0
  0
VERTEX
  5
1470A
  8
0
 10
75.31778573371821
 20
211.96722117658479
 30
0.0
  0
VERTEX
  5
1470B
  8
0
 10
75.310729072263712
 20
212.8581961657859
 30
0.0
  0
SEQEND
  5
1470C
  8
0
  0
POLYLINE
  5
12BE0
  8
0
 66
     1
 10
0.0
 20
0.0
 30
0.0
  0
VERTEX
  5
1470D
  8
0
 10
141.31072907226371
 20
212.85819616578581
 30
0.0
  0
VERTEX
  5
1470E
  8
0
 10
141.30367241080921
 20
211.96722117658479
 30
0.0
  0
VERTEX
  5
1470F
  8
0
 10
141.24723722569021
 20
210.18679523130501
 30
0.0
  0
VERTEX
  5
14710
  8
0
 10
141.134463389129
 20
208.41093877849869
 30
0.0
  0
VERTEX
  5
14711
  8
0
 10
141.05700600200501
 20
207.52567382277979
 30
0.0
  0
VERTEX
  5
14712
  8
0
 10
140.96554380335459
 20
206.64268946129559
 30
0.0
  0
VERTEX
  5
14713
  8
0
 10
140.74076740918821
 20
204.88507191064559
 30
0.0
  0
VERTEX
  5
14714
  8
0
 10
140.46051869179789
 20
203.1410925716186
 30
0.0
  0
VERTEX
  5
14715
  8
0
 10
140.1252770230339
 20
201.41373456081109
 30
0.0
  0
VERTEX
  5
14716
  8
0
 10
139.7356158414463
 20
199.70595256365701
 30
0.0
  0
VERTEX
  5
14717
  8
0
 10
139.29220167141051
 20
198.0206677803707
 30
0.0
  0
VERTEX
  5
14718
  8
0
 10
139.0505706804083
 20
197.1873643318913
 30
0.0
  0
VERTEX
  5
14719
  8
0
 10
138.79579298301809
 20
196.36076292916709
 30
0.0
  0
VERTEX
  5
1471A
  8
0
 10
138.24723889469851
 20
194.729077315306
 30
0.0
  0
VERTEX
  5
1471B
  8
0
 10
137.6474777207813
 20
193.1284019743955
 30
0.0
  0
VERTEX
  5
1471C
  8
0
 10
136.9975353664895
 20
191.56147489826159
 30
0.0
  0
VERTEX
  5
1471D
  8
0
 10
136.29852357310341
 20
190.03097635155069
 30
0.0
  0
VERTEX
  5
1471E
  8
0
 10
135.551638016303
 20
188.53952428707541
 30
0.0
  0
VERTEX
  5
1471F
  8
0
 10
135.16063867565521
 20
187.80924065320349
 30
0.0
  0
VERTEX
  5
14720
  8
0
 10
134.75815626093751
 20
187.08966986774621
 30
0.0
  0
VERTEX
  5
14721
  8
0
 10
134.11072907226389
 20
186.00451945366331
 30
0.0
  0
SEQEND
  5
14722
  8
0
  0
POLYLINE
  5
12BE2
  8
0
 66
     1
 10
0.0
 20
0.0
 30
0.0
  0
VERTEX
  5
14723
  8
0
 10
87.810729072263726
 20
180.7833212407734
 30
0.0
  0
VERTEX
  5
14724
  8
0
 10
87.692655012234809
 20
180.83053561180901
 30
0.0
  0
VERTEX
  5
14725
  8
0
 10
87.458747641087939
 20
180.92918500118009
 30
0.0
  0
VERTEX
  5
14726
  8
0
 10
87.227861171292716
 20
181.03364110115919
 30
0.0
  0
VERTEX
  5
14727
  8
0
 10
87.113563122207765
 20
181.08811685520249
 30
0.0
  0
VERTEX
  5
14728
  8
0
 10
87.000035141361423
 20
181.14413022937759
 30
0.0
  0
VERTEX
  5
14729
  8
0
 10
86.775309652487977
 20
181.26089285305309
 30
0.0
  0
VERTEX
  5
1472A
  8
0
 10
86.553726675345388
 20
181.3841849401694
 30
0.0
  0
VERTEX
  5
1472B
  8
0
 10
86.335331627069536
 20
181.51427924531029
 30
0.0
  0
VERTEX
  5
1472C
  8
0
 10
86.120175216474294
 20
181.65146647780691
 30
0.0
  0
VERTEX
  5
1472D
  8
0
 10
85.908278756830455
 20
181.79608226925819
 30
0.0
  0
VERTEX
  5
1472E
  8
0
 10
85.802930745339836
 20
181.87174948229091
 30
0.0
  0
VERTEX
  5
1472F
  8
0
 10
85.697682947123212
 20
181.9499942867177
 30
0.0
  0
VERTEX
  5
14730
  8
0
 10
85.488036534454295
 20
182.11423814908301
 30
0.0
  0
VERTEX
  5
14731
  8
0
 10
85.280400569793528
 20
182.28881349400029
 30
0.0
  0
VERTEX
  5
14732
  8
0
 10
85.075771553619234
 20
182.4736494505928
 30
0.0
  0
VERTEX
  5
14733
  8
0
 10
85.030950388125788
 20
182.51718786206521
 30
0.0
  0
SEQEND
  5
14734
  8
0
  0
LINE
  5
12BE3
  8
0
 10
87.810729072263726
 20
179.74368873142211
 30
0.0
 11
90.810729072263712
 21
179.74368873142211
 31
0.0
  0
POLYLINE
  5
12BE4
  8
0
 66
     1
 10
0.0
 20
0.0
 30
0.0
  0
VERTEX
  5
14735
  8
0
 10
131.59050775640159
 20
182.51718786206521
 30
0.0
  0
VERTEX
  5
14736
  8
0
 10
131.54568659090819
 20
182.4736494505928
 30
0.0
  0
VERTEX
  5
14737
  8
0
 10
131.3410575747339
 20
182.28881349400029
 30
0.0
  0
VERTEX
  5
14738
  8
0
 10
131.1334216100731
 20
182.11423814908301
 30
0.0
  0
VERTEX
  5
14739
  8
0
 10
130.92377519740421
 20
181.9499942867177
 30
0.0
  0
VERTEX
  5
1473A
  8
0
 10
130.81852739918759
 20
181.87174948229091
 30
0.0
  0
VERTEX
  5
1473B
  8
0
 10
130.7131793876969
 20
181.79608226925831
 30
0.0
  0
VERTEX
  5
1473C
  8
0
 10
130.50128292805309
 20
181.65146647780699
 30
0.0
  0
VERTEX
  5
1473D
  8
0
 10
130.28612651745789
 20
181.51427924531029
 30
0.0
  0
VERTEX
  5
1473E
  8
0
 10
130.06773146918201
 20
181.3841849401694
 30
0.0
  0
VERTEX
  5
1473F
  8
0
 10
129.84614849203939
 20
181.26089285305309
 30
0.0
  0
VERTEX
  5
14740
  8
0
 10
129.621423003166
 20
181.14413022937759
 30
0.0
  0
VERTEX
  5
14741
  8
0
 10
129.50789502231959
 20
181.08811685520249
 30
0.0
  0
VERTEX
  5
14742
  8
0
 10
129.39359697323471
 20
181.03364110115919
 30
0.0
  0
VERTEX
  5
14743
  8
0
 10
129.16271050343951
 20
180.92918500118009
 30
0.0
  0
VERTEX
  5
14744
  8
0
 10
128.92880313229259
 20
180.83053561180901
 30
0.0
  0
VERTEX
  5
14745
  8
0
 10
128.81072907226371
 20
180.7833212407734
 30
0.0
  0
SEQEND
  5
14746
  8
0
  0
LINE
  5
12BE6
  8
0
 10
125.8107290722637
 20
179.74368873142211
 30
0.0
 11
128.81072907226371
 21
179.74368873142211
 31
0.0
  0
LINE
  5
12BEB
  8
0
 10
90.810729072263712
 20
179.74368873142211
 30
0.0
 11
90.810729072264166
 21
235.43109668683221
 31
0.0
  0
LINE
  5
12BEC
  8
0
 10
128.81072907226371
 20
183.92868873142211
 30
0.0
 11
129.41072907226359
 21
183.92868873142211
 31
0.0
  0
LINE
  5
12BED
  8
0
 10
129.41072907226359
 20
195.558688731422
 30
0.0
 11
128.81072907226371
 21
195.558688731422
 31
0.0
  0
LINE
  5
12BEE
  8
0
 10
77.577729072263537
 20
185.74368873142211
 30
0.0
 11
79.810729072263712
 21
185.74368873142211
 31
0.0
  0
LINE
  5
12BEF
  8
0
 10
79.810729072263712
 20
193.74368873142211
 30
0.0
 11
77.577729072263537
 21
193.74368873142211
 31
0.0
  0
LINE
  5
12BF0
  8
0
 10
76.810729072263712
 20
186.51068873142211
 30
0.0
 11
77.577729072263537
 21
185.74368873142211
 31
0.0
  0
LINE
  5
12BF1
  8
0
 10
77.577729072263537
 20
193.74368873142211
 30
0.0
 11
76.810729072263712
 21
192.97668873142209
 31
0.0
  0
LINE
  5
12BF2
  8
0
 10
134.11072907226389
 20
196.00202206475541
 30
0.0
 11
133.85130936284801
 21
196.97018960077889
 31
0.0
  0
LINE
  5
12BF3
  8
0
 10
133.85130936284801
 20
182.51718786206521
 30
0.0
 11
134.11072907226389
 21
183.4853553980887
 31
0.0
  0
LINE
  5
12BF4
  8
0
 10
129.67014878167899
 20
196.97018960077889
 30
0.0
 11
129.41072907226359
 21
196.00202206475541
 31
0.0
  0
LINE
  5
12BF5
  8
0
 10
129.41072907226359
 20
183.4853553980887
 30
0.0
 11
129.67014878167899
 21
182.51718786206521
 31
0.0
  0
LINE
  5
12BF6
  8
0
 10
79.810729072263712
 20
183.92868873142211
 30
0.0
 11
82.310729072263712
 21
183.92868873142211
 31
0.0
  0
LINE
  5
12BF7
  8
0
 10
82.310729072263712
 20
195.558688731422
 30
0.0
 11
79.810729072263712
 21
195.558688731422
 31
0.0
  0
LINE
  5
12BF8
  8
0
 10
87.810729072263726
 20
196.00202206475541
 30
0.0
 11
87.551309362848315
 21
196.97018960077889
 31
0.0
  0
LINE
  5
12BF9
  8
0
 10
87.551309362848315
 20
182.51718786206521
 30
0.0
 11
87.810729072263726
 21
183.4853553980887
 31
0.0
  0
LINE
  5
12BFA
  8
0
 10
82.570148781679109
 20
196.97018960077889
 30
0.0
 11
82.310729072263712
 21
196.00202206475541
 31
0.0
  0
LINE
  5
12BFB
  8
0
 10
82.310729072263712
 20
183.4853553980887
 30
0.0
 11
82.570148781679109
 21
182.51718786206521
 31
0.0
  0
LINE
  5
12BFC
  8
0
 10
90.810729072263712
 20
183.743688731422
 30
0.0
 11
93.310729072263712
 21
183.743688731422
 31
0.0
  0
LINE
  5
12BFD
  8
0
 10
123.3107290722637
 20
183.743688731422
 30
0.0
 11
125.8107290722637
 21
183.743688731422
 31
0.0
  0
LINE
  5
12BFE
  8
0
 10
93.310729072263712
 20
195.74368873142211
 30
0.0
 11
90.810729072296908
 21
195.74368873142211
 31
0.0
  0
LINE
  5
12BFF
  8
0
 10
77.577729072263537
 20
193.74368873142211
 30
0.0
 11
77.577729072263537
 21
185.74368873142211
 31
0.0
  0
LINE
  5
12C00
  8
0
 10
76.810729072263712
 20
192.97668873142209
 30
0.0
 11
76.810729072263712
 21
186.51068873142211
 31
0.0
  0
LINE
  5
12C01
  8
0
 10
134.11072907226389
 20
196.00202206475541
 30
0.0
 11
134.11072907226389
 21
183.4853553980887
 31
0.0
  0
LINE
  5
12C02
  8
0
 10
129.41072907226359
 20
196.00202206475541
 30
0.0
 11
129.41072907226359
 21
183.4853553980887
 31
0.0
  0
POLYLINE
  5
12C03
  8
0
 66
     1
 10
0.0
 20
0.0
 30
0.0
  0
VERTEX
  5
14747
  8
0
 10
134.11072907226389
 20
184.32381307940449
 30
0.0
  0
VERTEX
  5
14748
  8
0
 10
134.10353893864379
 20
184.033730508085
 30
0.0
  0
VERTEX
  5
14749
  8
0
 10
134.0467643548595
 20
183.45132233650929
 30
0.0
  0
VERTEX
  5
1474A
  8
0
 10
133.9321540161063
 20
182.8417617577374
 30
0.0
  0
VERTEX
  5
1474B
  8
0
 10
133.85130936284801
 20
182.51718786206521
 30
0.0
  0
SEQEND
  5
1474C
  8
0
  0
POLYLINE
  5
12C04
  8
0
 66
     1
 10
0.0
 20
0.0
 30
0.0
  0
VERTEX
  5
1474D
  8
0
 10
129.67014878167899
 20
182.51718786206521
 30
0.0
  0
VERTEX
  5
1474E
  8
0
 10
129.58930412842119
 20
182.8417617577374
 30
0.0
  0
VERTEX
  5
1474F
  8
0
 10
129.47469378966801
 20
183.45132233650929
 30
0.0
  0
VERTEX
  5
14750
  8
0
 10
129.41791920588361
 20
184.033730508085
 30
0.0
  0
VERTEX
  5
14751
  8
0
 10
129.41072907226359
 20
184.32381307940449
 30
0.0
  0
SEQEND
  5
14752
  8
0
  0
POLYLINE
  5
12C05
  8
0
 66
     1
 10
0.0
 20
0.0
 30
0.0
  0
VERTEX
  5
14753
  8
0
 10
129.41072907226359
 20
184.32381307940449
 30
0.0
  0
VERTEX
  5
14754
  8
0
 10
129.41791920588361
 20
184.61389565072389
 30
0.0
  0
VERTEX
  5
14755
  8
0
 10
129.47469378966801
 20
185.1963038222996
 30
0.0
  0
VERTEX
  5
14756
  8
0
 10
129.58930412842119
 20
185.8058644010714
 30
0.0
  0
VERTEX
  5
14757
  8
0
 10
129.67014878167899
 20
186.13043829674359
 30
0.0
  0
SEQEND
  5
14758
  8
0
  0
LINE
  5
12C06
  8
0
 10
133.85130936284801
 20
182.51718786206521
 30
0.0
 11
129.67014878167899
 21
182.51718786206521
 31
0.0
  0
POLYLINE
  5
12C07
  8
0
 66
     1
 10
0.0
 20
0.0
 30
0.0
  0
VERTEX
  5
14759
  8
0
 10
133.85130936284801
 20
186.13043829674359
 30
0.0
  0
VERTEX
  5
1475A
  8
0
 10
133.9321540161063
 20
186.77958608808811
 30
0.0
  0
VERTEX
  5
1475B
  8
0
 10
134.0467643548595
 20
187.99870724563181
 30
0.0
  0
VERTEX
  5
1475C
  8
0
 10
134.10353893864379
 20
189.16352358878311
 30
0.0
  0
VERTEX
  5
1475D
  8
0
 10
134.11072907226389
 20
189.74368873142211
 30
0.0
  0
SEQEND
  5
1475E
  8
0
  0
POLYLINE
  5
12C08
  8
0
 66
     1
 10
0.0
 20
0.0
 30
0.0
  0
VERTEX
  5
1475F
  8
0
 10
134.11072907226389
 20
189.74368873142211
 30
0.0
  0
VERTEX
  5
14760
  8
0
 10
134.10353893864379
 20
190.323853874061
 30
0.0
  0
VERTEX
  5
14761
  8
0
 10
134.0467643548595
 20
191.4886702172123
 30
0.0
  0
VERTEX
  5
14762
  8
0
 10
133.9321540161063
 20
192.70779137475611
 30
0.0
  0
VERTEX
  5
14763
  8
0
 10
133.85130936284801
 20
193.35693916610049
 30
0.0
  0
SEQEND
  5
14764
  8
0
  0
POLYLINE
  5
12C09
  8
0
 66
     1
 10
0.0
 20
0.0
 30
0.0
  0
VERTEX
  5
14765
  8
0
 10
129.67014878167899
 20
193.35693916610049
 30
0.0
  0
VERTEX
  5
14766
  8
0
 10
129.58930412842119
 20
192.70779137475611
 30
0.0
  0
VERTEX
  5
14767
  8
0
 10
129.47469378966801
 20
191.4886702172123
 30
0.0
  0
VERTEX
  5
14768
  8
0
 10
129.41791920588361
 20
190.323853874061
 30
0.0
  0
VERTEX
  5
14769
  8
0
 10
129.41072907226359
 20
189.74368873142211
 30
0.0
  0
SEQEND
  5
1476A
  8
0
  0
POLYLINE
  5
12C0A
  8
0
 66
     1
 10
0.0
 20
0.0
 30
0.0
  0
VERTEX
  5
1476B
  8
0
 10
129.41072907226359
 20
189.74368873142211
 30
0.0
  0
VERTEX
  5
1476C
  8
0
 10
129.41791920588361
 20
189.16352358878311
 30
0.0
  0
VERTEX
  5
1476D
  8
0
 10
129.47469378966801
 20
187.99870724563181
 30
0.0
  0
VERTEX
  5
1476E
  8
0
 10
129.58930412842119
 20
186.77958608808811
 30
0.0
  0
VERTEX
  5
1476F
  8
0
 10
129.67014878167899
 20
186.13043829674359
 30
0.0
  0
SEQEND
  5
14770
  8
0
  0
POLYLINE
  5
12C0B
  8
0
 66
     1
 10
0.0
 20
0.0
 30
0.0
  0
VERTEX
  5
14771
  8
0
 10
129.41072907226359
 20
195.16356438343971
 30
0.0
  0
VERTEX
  5
14772
  8
0
 10
129.41791920588361
 20
195.45364695475911
 30
0.0
  0
VERTEX
  5
14773
  8
0
 10
129.47469378966801
 20
196.03605512633479
 30
0.0
  0
VERTEX
  5
14774
  8
0
 10
129.58930412842119
 20
196.64561570510671
 30
0.0
  0
VERTEX
  5
14775
  8
0
 10
129.67014878167899
 20
196.97018960077889
 30
0.0
  0
SEQEND
  5
14776
  8
0
  0
POLYLINE
  5
12C0C
  8
0
 66
     1
 10
0.0
 20
0.0
 30
0.0
  0
VERTEX
  5
14777
  8
0
 10
133.85130936284801
 20
196.97018960077889
 30
0.0
  0
VERTEX
  5
14778
  8
0
 10
133.9321540161063
 20
196.64561570510671
 30
0.0
  0
VERTEX
  5
14779
  8
0
 10
134.0467643548595
 20
196.03605512633479
 30
0.0
  0
VERTEX
  5
1477A
  8
0
 10
134.10353893864379
 20
195.45364695475911
 30
0.0
  0
VERTEX
  5
1477B
  8
0
 10
134.11072907226389
 20
195.16356438343971
 30
0.0
  0
SEQEND
  5
1477C
  8
0
  0
POLYLINE
  5
12C0D
  8
0
 66
     1
 10
0.0
 20
0.0
 30
0.0
  0
VERTEX
  5
1477D
  8
0
 10
134.11072907226389
 20
195.16356438343971
 30
0.0
  0
VERTEX
  5
1477E
  8
0
 10
134.10353893864379
 20
194.87348181212019
 30
0.0
  0
VERTEX
  5
1477F
  8
0
 10
134.0467643548595
 20
194.29107364054451
 30
0.0
  0
VERTEX
  5
14780
  8
0
 10
133.9321540161063
 20
193.6815130617727
 30
0.0
  0
VERTEX
  5
14781
  8
0
 10
133.85130936284801
 20
193.35693916610049
 30
0.0
  0
SEQEND
  5
14782
  8
0
  0
POLYLINE
  5
12C0E
  8
0
 66
     1
 10
0.0
 20
0.0
 30
0.0
  0
VERTEX
  5
14783
  8
0
 10
129.67014878167899
 20
193.35693916610049
 30
0.0
  0
VERTEX
  5
14784
  8
0
 10
129.58930412842119
 20
193.6815130617727
 30
0.0
  0
VERTEX
  5
14785
  8
0
 10
129.47469378966801
 20
194.29107364054451
 30
0.0
  0
VERTEX
  5
14786
  8
0
 10
129.41791920588361
 20
194.87348181212019
 30
0.0
  0
VERTEX
  5
14787
  8
0
 10
129.41072907226359
 20
195.16356438343971
 30
0.0
  0
SEQEND
  5
14788
  8
0
  0
LINE
  5
12C0F
  8
0
 10
133.85130936284801
 20
196.97018960077889
 30
0.0
 11
129.67014878167899
 21
196.97018960077889
 31
0.0
  0
LINE
  5
12C10
  8
0
 10
133.85130936284801
 20
193.35693916610049
 30
0.0
 11
129.67014878167899
 21
193.35693916610049
 31
0.0
  0
LINE
  5
12C11
  8
0
 10
133.85130936284801
 20
186.13043829674359
 30
0.0
 11
129.67014878167899
 21
186.13043829674359
 31
0.0
  0
LINE
  5
12C12
  8
0
 10
79.810729072263712
 20
195.558688731422
 30
0.0
 11
79.810729072263712
 21
183.92868873142211
 31
0.0
  0
LINE
  5
12C13
  8
0
 10
82.310729072263712
 20
196.00202206475541
 30
0.0
 11
82.310729072263712
 21
186.3234548145488
 31
0.0
  0
LINE
  5
12C14
  8
0
 10
82.310729072263712
 20
186.3234548145488
 30
0.0
 11
82.310729072263712
 21
183.4853553980887
 31
0.0
  0
POLYLINE
  5
12C15
  8
0
 66
     1
 10
0.0
 20
0.0
 30
0.0
  0
VERTEX
  5
14789
  8
0
 10
87.551309362848315
 20
186.13043829674359
 30
0.0
  0
VERTEX
  5
1478A
  8
0
 10
87.632154016106128
 20
185.8058644010714
 30
0.0
  0
VERTEX
  5
1478B
  8
0
 10
87.746764354859337
 20
185.1963038222996
 30
0.0
  0
VERTEX
  5
1478C
  8
0
 10
87.803538938643669
 20
184.61389565072389
 30
0.0
  0
VERTEX
  5
1478D
  8
0
 10
87.810729072263726
 20
184.32381307940449
 30
0.0
  0
SEQEND
  5
1478E
  8
0
  0
POLYLINE
  5
12C16
  8
0
 66
     1
 10
0.0
 20
0.0
 30
0.0
  0
VERTEX
  5
1478F
  8
0
 10
87.810729072263726
 20
184.32381307940449
 30
0.0
  0
VERTEX
  5
14790
  8
0
 10
87.803538938643669
 20
184.033730508085
 30
0.0
  0
VERTEX
  5
14791
  8
0
 10
87.746764354859337
 20
183.45132233650929
 30
0.0
  0
VERTEX
  5
14792
  8
0
 10
87.632154016106128
 20
182.8417617577374
 30
0.0
  0
VERTEX
  5
14793
  8
0
 10
87.551309362848315
 20
182.51718786206521
 30
0.0
  0
SEQEND
  5
14794
  8
0
  0
POLYLINE
  5
12C17
  8
0
 66
     1
 10
0.0
 20
0.0
 30
0.0
  0
VERTEX
  5
14795
  8
0
 10
82.570148781679109
 20
182.51718786206521
 30
0.0
  0
VERTEX
  5
14796
  8
0
 10
82.489304128421281
 20
182.8417617577374
 30
0.0
  0
VERTEX
  5
14797
  8
0
 10
82.374693789668072
 20
183.45132233650929
 30
0.0
  0
VERTEX
  5
14798
  8
0
 10
82.317919205883754
 20
184.033730508085
 30
0.0
  0
VERTEX
  5
14799
  8
0
 10
82.310729072263712
 20
184.32381307940449
 30
0.0
  0
SEQEND
  5
1479A
  8
0
  0
LINE
  5
12C18
  8
0
 10
87.551309362848315
 20
182.51718786206521
 30
0.0
 11
82.570148781679109
 21
182.51718786206521
 31
0.0
  0
POLYLINE
  5
12C19
  8
0
 66
     1
 10
0.0
 20
0.0
 30
0.0
  0
VERTEX
  5
1479B
  8
0
 10
87.551309362848315
 20
186.13043829674359
 30
0.0
  0
VERTEX
  5
1479C
  8
0
 10
87.632154016106128
 20
186.77958608808811
 30
0.0
  0
VERTEX
  5
1479D
  8
0
 10
87.746764354859337
 20
187.99870724563181
 30
0.0
  0
VERTEX
  5
1479E
  8
0
 10
87.803538938643669
 20
189.16352358878311
 30
0.0
  0
VERTEX
  5
1479F
  8
0
 10
87.810729072263726
 20
189.74368873142211
 30
0.0
  0
SEQEND
  5
147A0
  8
0
  0
POLYLINE
  5
12C1A
  8
0
 66
     1
 10
0.0
 20
0.0
 30
0.0
  0
VERTEX
  5
147A1
  8
0
 10
87.810729072263726
 20
189.74368873142211
 30
0.0
  0
VERTEX
  5
147A2
  8
0
 10
87.803538938643669
 20
190.323853874061
 30
0.0
  0
VERTEX
  5
147A3
  8
0
 10
87.746764354859337
 20
191.4886702172123
 30
0.0
  0
VERTEX
  5
147A4
  8
0
 10
87.632154016106128
 20
192.70779137475611
 30
0.0
  0
VERTEX
  5
147A5
  8
0
 10
87.551309362848315
 20
193.35693916610049
 30
0.0
  0
SEQEND
  5
147A6
  8
0
  0
POLYLINE
  5
12C1B
  8
0
 66
     1
 10
0.0
 20
0.0
 30
0.0
  0
VERTEX
  5
147A7
  8
0
 10
82.570148781679109
 20
193.35693916610049
 30
0.0
  0
VERTEX
  5
147A8
  8
0
 10
82.489304128421281
 20
192.70779137475611
 30
0.0
  0
VERTEX
  5
147A9
  8
0
 10
82.374693789668072
 20
191.4886702172123
 30
0.0
  0
VERTEX
  5
147AA
  8
0
 10
82.317919205883754
 20
190.323853874061
 30
0.0
  0
VERTEX
  5
147AB
  8
0
 10
82.310729072263712
 20
189.74368873142211
 30
0.0
  0
SEQEND
  5
147AC
  8
0
  0
POLYLINE
  5
12C1C
  8
0
 66
     1
 10
0.0
 20
0.0
 30
0.0
  0
VERTEX
  5
147AD
  8
0
 10
82.310729072263712
 20
189.74368873142211
 30
0.0
  0
VERTEX
  5
147AE
  8
0
 10
82.317919205883754
 20
189.16352358878311
 30
0.0
  0
VERTEX
  5
147AF
  8
0
 10
82.374693789668072
 20
187.99870724563181
 30
0.0
  0
VERTEX
  5
147B0
  8
0
 10
82.489304128421281
 20
186.77958608808811
 30
0.0
  0
VERTEX
  5
147B1
  8
0
 10
82.570148781679109
 20
186.13043829674359
 30
0.0
  0
SEQEND
  5
147B2
  8
0
  0
POLYLINE
  5
12C1D
  8
0
 66
     1
 10
0.0
 20
0.0
 30
0.0
  0
VERTEX
  5
147B3
  8
0
 10
82.310729072263712
 20
195.16356438343971
 30
0.0
  0
VERTEX
  5
147B4
  8
0
 10
82.317919205883754
 20
195.45364695475911
 30
0.0
  0
VERTEX
  5
147B5
  8
0
 10
82.374693789668072
 20
196.03605512633479
 30
0.0
  0
VERTEX
  5
147B6
  8
0
 10
82.489304128421281
 20
196.64561570510671
 30
0.0
  0
VERTEX
  5
147B7
  8
0
 10
82.570148781679109
 20
196.97018960077889
 30
0.0
  0
SEQEND
  5
147B8
  8
0
  0
POLYLINE
  5
12C1E
  8
0
 66
     1
 10
0.0
 20
0.0
 30
0.0
  0
VERTEX
  5
147B9
  8
0
 10
87.551309362848315
 20
196.97018960077889
 30
0.0
  0
VERTEX
  5
147BA
  8
0
 10
87.632154016106128
 20
196.64561570510671
 30
0.0
  0
VERTEX
  5
147BB
  8
0
 10
87.746764354859337
 20
196.03605512633479
 30
0.0
  0
VERTEX
  5
147BC
  8
0
 10
87.803538938643669
 20
195.45364695475911
 30
0.0
  0
VERTEX
  5
147BD
  8
0
 10
87.810729072263726
 20
195.16356438343971
 30
0.0
  0
SEQEND
  5
147BE
  8
0
  0
POLYLINE
  5
12C1F
  8
0
 66
     1
 10
0.0
 20
0.0
 30
0.0
  0
VERTEX
  5
147BF
  8
0
 10
87.810729072263726
 20
195.16356438343971
 30
0.0
  0
VERTEX
  5
147C0
  8
0
 10
87.803538938643669
 20
194.87348181212019
 30
0.0
  0
VERTEX
  5
147C1
  8
0
 10
87.746764354859337
 20
194.29107364054451
 30
0.0
  0
VERTEX
  5
147C2
  8
0
 10
87.632154016106128
 20
193.6815130617727
 30
0.0
  0
VERTEX
  5
147C3
  8
0
 10
87.551309362848315
 20
193.35693916610049
 30
0.0
  0
SEQEND
  5
147C4
  8
0
  0
POLYLINE
  5
12C20
  8
0
 66
     1
 10
0.0
 20
0.0
 30
0.0
  0
VERTEX
  5
147C5
  8
0
 10
82.570148781679109
 20
193.35693916610049
 30
0.0
  0
VERTEX
  5
147C6
  8
0
 10
82.489304128421281
 20
193.6815130617727
 30
0.0
  0
VERTEX
  5
147C7
  8
0
 10
82.374693789668072
 20
194.29107364054451
 30
0.0
  0
VERTEX
  5
147C8
  8
0
 10
82.317919205883754
 20
194.87348181212019
 30
0.0
  0
VERTEX
  5
147C9
  8
0
 10
82.310729072263712
 20
195.16356438343971
 30
0.0
  0
SEQEND
  5
147CA
  8
0
  0
LINE
  5
12C21
  8
0
 10
87.551309362848315
 20
196.97018960077889
 30
0.0
 11
82.570148781679109
 21
196.97018960077889
 31
0.0
  0
LINE
  5
12C22
  8
0
 10
87.551309362848315
 20
193.35693916610049
 30
0.0
 11
82.570148781679109
 21
193.35693916610049
 31
0.0
  0
LINE
  5
12C23
  8
0
 10
87.551309362848315
 20
186.13043829674359
 30
0.0
 11
82.570148781679109
 21
186.13043829674359
 31
0.0
  0
ARC
  5
12C25
  8
0
 10
121.3107290722637
 20
142.83465155112711
 30
0.0
 40
2.000000000000008
 50
279.59406822682519
 51
0.0
  0
ARC
  5
12C27
  8
0
 10
108.3107290722637
 20
219.7436887314216
 30
0.0
 40
79.999999999999432
 50
260.40593177312189
 51
279.59406822682519
  0
ARC
  5
12C29
  8
0
 10
95.310729072263726
 20
142.834651551127
 30
0.0
 40
1.9999999999999749
 50
180.0
 51
260.40593177312189
  0
LINE
  5
12C2A
  8
0
 10
123.3107290722637
 20
235.43109668683209
 30
0.0
 11
123.3107290722637
 21
142.83465155112711
 31
0.0
  0
LINE
  5
12C2B
  8
0
 10
93.310729072263712
 20
235.43109668683209
 30
0.0
 11
93.310729072263712
 21
142.83465155112711
 31
0.0
  0
LINE
  5
12C2C
  8
1
 10
108.3107290722278
 20
279.55988871186582
 30
0.0
 11
108.3107290722278
 21
127.9274887509811
 31
0.0
  0
LINE
  5
12C2D
  8
1
 10
147.14830360336549
 20
189.74368873142211
 30
0.0
 11
69.473154541090025
 21
189.74368873142211
 31
0.0
  0
POLYLINE
  5
12C2E
  8
0
 66
     1
 10
0.0
 20
0.0
 30
0.0
  0
VERTEX
  5
147CB
  8
0
 10
128.8107290721918
 20
180.7833212407734
 30
0.0
  0
VERTEX
  5
147CC
  8
0
 10
128.92880313222071
 20
180.83053561180901
 30
0.0
  0
VERTEX
  5
147CD
  8
0
 10
129.16271050336761
 20
180.92918500118009
 30
0.0
  0
VERTEX
  5
147CE
  8
0
 10
129.3935969731628
 20
181.03364110115919
 30
0.0
  0
VERTEX
  5
147CF
  8
0
 10
129.50789502224779
 20
181.08811685520249
 30
0.0
  0
VERTEX
  5
147D0
  8
0
 10
129.62142300309409
 20
181.14413022937759
 30
0.0
  0
VERTEX
  5
147D1
  8
0
 10
129.8461484919676
 20
181.26089285305309
 30
0.0
  0
VERTEX
  5
147D2
  8
0
 10
130.06773146911021
 20
181.3841849401694
 30
0.0
  0
VERTEX
  5
147D3
  8
0
 10
130.28612651738601
 20
181.51427924531029
 30
0.0
  0
VERTEX
  5
147D4
  8
0
 10
130.50128292798121
 20
181.65146647780691
 30
0.0
  0
VERTEX
  5
147D5
  8
0
 10
130.7131793876251
 20
181.79608226925819
 30
0.0
  0
VERTEX
  5
147D6
  8
0
 10
130.81852739911571
 20
181.87174948229091
 30
0.0
  0
VERTEX
  5
147D7
  8
0
 10
130.9237751973323
 20
181.9499942867177
 30
0.0
  0
VERTEX
  5
147D8
  8
0
 10
131.13342161000119
 20
182.11423814908301
 30
0.0
  0
VERTEX
  5
147D9
  8
0
 10
131.34105757466199
 20
182.28881349400029
 30
0.0
  0
VERTEX
  5
147DA
  8
0
 10
131.54568659083631
 20
182.4736494505928
 30
0.0
  0
VERTEX
  5
147DB
  8
0
 10
131.59050775632971
 20
182.51718786206521
 30
0.0
  0
SEQEND
  5
147DC
  8
0
  0
POLYLINE
  5
12C2F
  8
0
 66
     1
 10
0.0
 20
0.0
 30
0.0
  0
VERTEX
  5
147DD
  8
0
 10
134.11072907226389
 20
184.32381307940449
 30
0.0
  0
VERTEX
  5
147DE
  8
0
 10
134.10353893864379
 20
184.61389565072389
 30
0.0
  0
VERTEX
  5
147DF
  8
0
 10
134.0467643548595
 20
185.1963038222996
 30
0.0
  0
VERTEX
  5
147E0
  8
0
 10
133.9321540161063
 20
185.8058644010714
 30
0.0
  0
VERTEX
  5
147E1
  8
0
 10
133.85130936284801
 20
186.13043829674359
 30
0.0
  0
SEQEND
  5
147E2
  8
0
  0
POLYLINE
  5
12C30
  8
0
 66
     1
 10
0.0
 20
0.0
 30
0.0
  0
VERTEX
  5
147E3
  8
0
 10
82.570148781679109
 20
186.13043829674359
 30
0.0
  0
VERTEX
  5
147E4
  8
0
 10
82.489304128421281
 20
185.8058644010714
 30
0.0
  0
VERTEX
  5
147E5
  8
0
 10
82.374693789668072
 20
185.1963038222996
 30
0.0
  0
VERTEX
  5
147E6
  8
0
 10
82.317919205883754
 20
184.61389565072389
 30
0.0
  0
VERTEX
  5
147E7
  8
0
 10
82.310729072263712
 20
184.32381307940449
 30
0.0
  0
SEQEND
  5
147E8
  8
0
  0
LINE
  5
12C31
  8
3
 10
76.810729072263712
 20
192.97668873142209
 30
0.0
 11
79.810729072263712
 21
192.97668873142209
 31
0.0
  0
LINE
  5
12C32
  8
3
 10
76.810729072263712
 20
186.51068873142211
 30
0.0
 11
79.810729072263712
 21
186.51068873142211
 31
0.0
  0
LINE
  5
12C72
  8
0
 10
238.4189764824437
 20
241.8660415674309
 30
0.0
 11
241.63291453087589
 21
238.0358193518361
 31
0.0
  0
LINE
  5
12C73
  8
0
 10
240.3340875902409
 20
243.47301059164749
 30
0.0
 11
238.4189764824437
 21
241.8660415674309
 31
0.0
  0
LINE
  5
12C74
  8
0
 10
242.96313674647121
 20
240.3398318146034
 30
0.0
 11
240.3340875902409
 21
243.47301059164749
 31
0.0
  0
LINE
  5
12C75
  8
0
 10
259.12854318207468
 20
238.09554975703921
 30
0.0
 11
242.96313674647121
 21
240.3398318146034
 31
0.0
  0
LINE
  5
12C76
  8
0
 10
258.4451107954992
 20
240.64615414727689
 30
0.0
 11
258.13956915287332
 21
240.82552289941131
 31
0.0
  0
LINE
  5
12C77
  8
0
 10
241.63291453087589
 20
238.0358193518361
 30
0.0
 11
259.84248123050702
 21
235.43109668683209
 31
0.0
  0
LINE
  5
12C78
  8
0
 10
255.8733567628947
 20
244.60214967266381
 30
0.0
 11
258.41739045640998
 21
244.2518263272226
 31
0.0
  0
LINE
  5
12C79
  8
0
 10
255.4224384707945
 20
241.4917089785518
 30
0.0
 11
255.8733567628947
 21
244.60214967266381
 31
0.0
  0
LINE
  5
12C7A
  8
0
 10
258.0738180705743
 20
241.20457816917801
 30
0.0
 11
258.41739045640998
 21
244.2518263272228
 31
0.0
  0
LINE
  5
12C7B
  8
0
 10
255.4224384707945
 20
241.4917089785518
 30
0.0
 11
256.16038546334812
 21
238.5076261956178
 31
0.0
  0
LINE
  5
12C7C
  8
0
 10
258.0738180705743
 20
241.20457816917801
 30
0.0
 11
258.13956915287332
 21
240.82552289941131
 31
0.0
  0
LINE
  5
12C7D
  8
0
 10
511.99390289590423
 20
235.43109668683209
 30
0.0
 11
514.49390289590428
 21
235.43109668683209
 31
0.0
  0
LINE
  5
12C7E
  8
0
 10
544.49390289590417
 20
235.43109668683209
 30
0.0
 11
546.99390289590428
 21
235.43109668683209
 31
0.0
  0
LINE
  5
12C81
  8
0
 10
89.310729072228696
 20
243.47301059164761
 30
0.0
 11
127.31072907222909
 21
243.47301059164749
 31
0.0
  0
LINE
  5
12C82
  8
0
 10
92.310729072227787
 20
244.6021496726639
 30
0.0
 11
124.3107290722278
 21
244.6021496726639
 31
0.0
  0
LINE
  5
12C83
  8
0
 10
124.3107290722278
 20
244.6021496726639
 30
0.0
 11
124.3107290722278
 21
243.47301059164761
 31
0.0
  0
LINE
  5
12C84
  8
0
 10
92.310729072227787
 20
244.6021496726639
 30
0.0
 11
92.310729072227787
 21
243.47301059164761
 31
0.0
  0
LINE
  5
12C85
  8
0
 10
89.310729072228696
 20
235.43109668683221
 30
0.0
 11
89.310729072228696
 21
243.47301059164761
 31
0.0
  0
LINE
  5
12C86
  8
0
 10
127.3107290722287
 20
235.43109668683221
 30
0.0
 11
127.3107290722287
 21
243.47301059164761
 31
0.0
  0
LINE
  5
12C87
  8
0
 10
127.3107290722287
 20
238.0358193518361
 30
0.0
 11
89.310729072228696
 21
238.0358193518361
 31
0.0
  0
LINE
  5
12C90
  8
0
 10
127.3107290722287
 20
235.43109668683221
 30
0.0
 11
89.310729072228696
 21
235.43109668683221
 31
0.0
  0
LINE
  5
12C92
  8
0
 10
125.8107290722632
 20
235.43109668683221
 30
0.0
 11
125.8107290722637
 21
179.74368873142211
 31
0.0
  0
LINE
  5
12C93
  8
0
 10
87.810729072263726
 20
227.743688731422
 30
0.0
 11
90.810729072264607
 21
227.743688731422
 31
0.0
  0
LINE
  5
12CD8
  8
0
 10
498.46890289590408
 20
260.94368873142213
 30
0.0
 11
498.46890289590408
 21
261.44368873142213
 31
0.0
  0
LINE
  5
12CD9
  8
0
 10
560.51890289590438
 20
261.44368873142213
 30
0.0
 11
560.51890289590438
 21
260.94368873142213
 31
0.0
  0
LINE
  5
12CDC
  8
0
 10
492.99390289590428
 20
255.9436887314221
 30
0.0
 11
492.99390289590428
 21
256.94368873142213
 31
0.0
  0
LINE
  5
12CDD
  8
0
 10
565.99390289590417
 20
256.94368873142213
 30
0.0
 11
565.99390289590417
 21
255.9436887314221
 31
0.0
  0
POLYLINE
  5
12CEB
  8
0
 66
     1
 10
0.0
 20
0.0
 30
0.0
  0
VERTEX
  5
147E9
  8
0
 10
496.49390289590428
 20
212.85819616578581
 30
0.0
  0
VERTEX
  5
147EA
  8
0
 10
496.50095955735878
 20
211.96722117658479
 30
0.0
  0
VERTEX
  5
147EB
  8
0
 10
496.5573947424777
 20
210.18679523130501
 30
0.0
  0
VERTEX
  5
147EC
  8
0
 10
496.670168579039
 20
208.41093877849869
 30
0.0
  0
VERTEX
  5
147ED
  8
0
 10
496.74762596616301
 20
207.52567382277979
 30
0.0
  0
VERTEX
  5
147EE
  8
0
 10
496.83908816481329
 20
206.64268946129559
 30
0.0
  0
VERTEX
  5
147EF
  8
0
 10
497.06386455897967
 20
204.88507191064559
 30
0.0
  0
VERTEX
  5
147F0
  8
0
 10
497.34411327637002
 20
203.1410925716186
 30
0.0
  0
VERTEX
  5
147F1
  8
0
 10
497.67935494513398
 20
201.41373456081109
 30
0.0
  0
VERTEX
  5
147F2
  8
0
 10
498.06901612672158
 20
199.70595256365701
 30
0.0
  0
VERTEX
  5
147F3
  8
0
 10
498.51243029675737
 20
198.0206677803707
 30
0.0
  0
VERTEX
  5
147F4
  8
0
 10
498.75406128775961
 20
197.1873643318913
 30
0.0
  0
VERTEX
  5
147F5
  8
0
 10
499.00883898514979
 20
196.36076292916709
 30
0.0
  0
VERTEX
  5
147F6
  8
0
 10
499.55739307346943
 20
194.729077315306
 30
0.0
  0
VERTEX
  5
147F7
  8
0
 10
500.15715424738659
 20
193.1284019743955
 30
0.0
  0
VERTEX
  5
147F8
  8
0
 10
500.80709660167838
 20
191.56147489826159
 30
0.0
  0
VERTEX
  5
147F9
  8
0
 10
501.50610839506447
 20
190.03097635155069
 30
0.0
  0
VERTEX
  5
147FA
  8
0
 10
502.25299395186488
 20
188.53952428707541
 30
0.0
  0
VERTEX
  5
147FB
  8
0
 10
502.64399329251268
 20
187.80924065320349
 30
0.0
  0
VERTEX
  5
147FC
  8
0
 10
503.04647570723091
 20
187.08966986774621
 30
0.0
  0
VERTEX
  5
147FD
  8
0
 10
503.8851963924489
 20
185.6838931027491
 30
0.0
  0
VERTEX
  5
147FE
  8
0
 10
504.76772135658069
 20
184.32459860543281
 30
0.0
  0
VERTEX
  5
147FF
  8
0
 10
505.22494155688582
 20
183.66311201779891
 30
0.0
  0
SEQEND
  5
14800
  8
0
  0
LINE
  5
12CFC
  8
0
 10
560.22690289590435
 20
185.74368873142211
 30
0.0
 11
557.99390289590417
 21
185.74368873142211
 31
0.0
  0
LINE
  5
12CFD
  8
0
 10
559.06858605522621
 20
193.74368873142211
 30
0.0
 11
560.22690289590435
 21
193.74368873142211
 31
0.0
  0
LINE
  5
12CFE
  8
0
 10
560.99390289590417
 20
186.51068873142211
 30
0.0
 11
560.22690289590435
 21
185.74368873142211
 31
0.0
  0
LINE
  5
12CFF
  8
0
 10
560.22690289590435
 20
193.74368873142211
 30
0.0
 11
560.99390289590417
 21
192.97668873142209
 31
0.0
  0
LINE
  5
12D01
  8
0
 10
557.99390289590417
 20
183.92868873142211
 30
0.0
 11
555.49390289590428
 21
183.92868873142211
 31
0.0
  0
LINE
  5
12D02
  8
0
 10
555.49390289590428
 20
183.4853553980887
 30
0.0
 11
555.23448318648877
 21
182.51718786206521
 31
0.0
  0
LINE
  5
12D06
  8
0
 10
560.22690289590435
 20
193.74368873142211
 30
0.0
 11
560.22690289590435
 21
185.74368873142211
 31
0.0
  0
LINE
  5
12D07
  8
0
 10
560.99390289590417
 20
192.97668873142209
 30
0.0
 11
560.99390289590417
 21
186.51068873142211
 31
0.0
  0
LINE
  5
12D0C
  8
0
 10
557.99390289590417
 20
191.14009161769471
 30
0.0
 11
557.99390289590417
 21
183.92868873142211
 31
0.0
  0
LINE
  5
12D0D
  8
0
 10
555.49390289590428
 20
186.3234548145488
 30
0.0
 11
555.49390289590428
 21
183.4853553980887
 31
0.0
  0
POLYLINE
  5
12D0E
  8
0
 66
     1
 10
0.0
 20
0.0
 30
0.0
  0
VERTEX
  5
14801
  8
0
 10
555.23448318648877
 20
182.51718786206521
 30
0.0
  0
VERTEX
  5
14802
  8
0
 10
555.3153278397466
 20
182.8417617577374
 30
0.0
  0
VERTEX
  5
14803
  8
0
 10
555.42993817849992
 20
183.45132233650929
 30
0.0
  0
VERTEX
  5
14804
  8
0
 10
555.48671276228424
 20
184.033730508085
 30
0.0
  0
VERTEX
  5
14805
  8
0
 10
555.49390289590428
 20
184.32381307940449
 30
0.0
  0
SEQEND
  5
14806
  8
0
  0
POLYLINE
  5
12D0F
  8
0
 66
     1
 10
0.0
 20
0.0
 30
0.0
  0
VERTEX
  5
14807
  8
0
 10
555.49390289590428
 20
184.32381307940449
 30
0.0
  0
VERTEX
  5
14808
  8
0
 10
555.48788764216033
 20
184.58909289833889
 30
0.0
  0
VERTEX
  5
14809
  8
0
 10
555.44040716269365
 20
185.12049323010811
 30
0.0
  0
VERTEX
  5
1480A
  8
0
 10
555.34500731473054
 20
185.67141480527539
 30
0.0
  0
VERTEX
  5
1480B
  8
0
 10
555.27815614351175
 20
185.96137636107039
 30
0.0
  0
SEQEND
  5
1480C
  8
0
  0
LINE
  5
12D1F
  8
3
 10
560.99390289590417
 20
192.97668873142209
 30
0.0
 11
558.77380571792673
 21
192.97668873142209
 31
0.0
  0
LINE
  5
12D20
  8
3
 10
560.99390289590417
 20
186.51068873142211
 30
0.0
 11
557.99390289590417
 21
186.51068873142211
 31
0.0
  0
LINE
  5
12D23
  8
1
 10
529.49390289590519
 20
279.55988871186582
 30
0.0
 11
529.49390289590519
 21
127.9274887509811
 31
0.0
  0
LINE
  5
12D24
  8
1
 10
568.33147742704296
 20
189.74368873142211
 30
0.0
 11
490.65632836476738
 21
189.74368873142211
 31
0.0
  0
LINE
  5
12F9A
  8
0
 10
128.81072907219371
 20
227.743688731422
 30
0.0
 11
125.8107290721927
 21
227.743688731422
 31
0.0
  0
LINE
  5
12F9B
  8
0
 10
87.810729072263726
 20
240.743688731422
 30
0.0
 11
89.310729072228696
 21
240.743688731422
 31
0.0
  0
LINE
  5
12F9C
  8
0
 10
127.3107290722287
 20
240.743688731422
 30
0.0
 11
128.81072907226371
 21
240.743688731422
 31
0.0
  0
LINE
  5
1420A
  8
0
 10
123.3107290721918
 20
195.74368873142211
 30
0.0
 11
125.81072907215859
 21
195.74368873142211
 31
0.0
  0
LINE
  5
1420B
  8
0
 10
555.23448318648877
 20
182.51718786206521
 30
0.0
 11
552.77368158004219
 21
182.51718786206521
 31
0.0
  0
LINE
  5
1420C
  8
0
 10
503.75332260531968
 20
182.51718786206521
 30
0.0
 11
506.2141242117662
 21
182.51718786206521
 31
0.0
  0
LINE
  5
14213
  8
0
 10
325.16064931738077
 20
403.98045729116239
 30
0.0
 11
325.16064931738077
 21
400.4786038197592
 31
0.0
  0
LINE
  5
14214
  8
0
 10
312.64398265071441
 20
403.98045729116239
 30
0.0
 11
312.64398265071441
 21
398.48045729116239
 31
0.0
  0
LINE
  5
14215
  8
0
 10
312.64398265071441
 20
356.88045729116237
 30
0.0
 11
312.64398265071441
 21
352.18045729116238
 31
0.0
  0
LINE
  5
14216
  8
0
 10
325.16064931738077
 20
352.18045729116238
 30
0.0
 11
325.16064931738077
 21
355.48231076256548
 31
0.0
  0
LINE
  5
14217
  8
3
 10
315.66931598404739
 20
409.48045729116228
 30
0.0
 11
315.66931598404739
 21
406.48045729116239
 31
0.0
  0
LINE
  5
14218
  8
3
 10
322.13531598404779
 20
409.48045729116228
 30
0.0
 11
322.13531598404779
 21
406.48045729116239
 31
0.0
  0
TEXT
  5
142B0
  8
0
 62
     3
 10
0.0
 20
0.0
 30
0.0
 40
10.0
  1
CAG1-100FBF
  7
STANDARD1
  0
LINE
  5
142D3
  8
0
 10
540.49390289590508
 20
264.44368873142201
 30
0.0
 11
540.49390289590508
 21
267.74368873142208
 31
0.0
  0
LINE
  5
142D4
  8
0
 10
518.49390289590519
 20
267.74368873142208
 30
0.0
 11
518.49390289590519
 21
264.44368873142213
 31
0.0
  0
LINE
  5
142D5
  8
0
 10
518.49390289590519
 20
267.74368873142208
 30
0.0
 11
540.49390289590508
 21
267.74368873142203
 31
0.0
  0
LINE
  5
142D6
  8
0
 10
119.3107290722278
 20
264.44368873142201
 30
0.0
 11
119.3107290722278
 21
267.74368873142203
 31
0.0
  0
LINE
  5
142D7
  8
0
 10
97.310729072227787
 20
267.74368873142203
 30
0.0
 11
97.310729072227787
 21
264.44368873142201
 31
0.0
  0
LINE
  5
142D8
  8
0
 10
97.310729072227744
 20
267.74368873142208
 30
0.0
 11
119.3107290722278
 21
267.74368873142203
 31
0.0
  0
ENDSEC
  0
EOF
