  0
SECTION
  2
HEADER
  9
$ACADVER
  1
AC1009
  9
$INSBASE
 10
0.0
 20
0.0
 30
0.0
  9
$EXTMIN
 10
0.0
 20
-2.960436562073669
 30
0.0
  9
$EXTMAX
 10
576.14225191323362
 20
432.296657271605
 30
0.0
  9
$LIMMIN
 10
0.0
 20
0.0
  9
$LIMMAX
 10
375.0
 20
270.0
  9
$ORTHOMODE
 70
     1
  9
$REGENMODE
 70
     1
  9
$FILLMODE
 70
     1
  9
$QTEXTMODE
 70
     0
  9
$MIRRTEXT
 70
     1
  9
$DRAGMODE
 70
     2
  9
$LTSCALE
 40
10.0
  9
$OSMODE
 70
  3071
  9
$ATTMODE
 70
     1
  9
$TEXTSIZE
 40
5.0
  9
$TRACEWID
 40
0.05
  9
$TEXTSTYLE
  7
STANDARD
  9
$CLAYER
  8
0
  9
$CELTYPE
  6
BYLAYER
  9
$CECOLOR
 62
     6
  9
$DIMSCALE
 40
1.0
  9
$DIMASZ
 40
3.0
  9
$DIMEXO
 40
2.0
  9
$DIMDLI
 40
0.38
  9
$DIMRND
 40
0.0
  9
$DIMDLE
 40
0.0
  9
$DIMEXE
 40
2.0
  9
$DIMTP
 40
0.0
  9
$DIMTM
 40
0.0
  9
$DIMTXT
 40
3.2000000000000002
  9
$DIMCEN
 40
0.0
  9
$DIMTSZ
 40
0.0
  9
$DIMTOL
 70
     0
  9
$DIMLIM
 70
     0
  9
$DIMTIH
 70
     0
  9
$DIMTOH
 70
     0
  9
$DIMSE1
 70
     0
  9
$DIMSE2
 70
     0
  9
$DIMTAD
 70
     1
  9
$DIMZIN
 70
     8
  9
$DIMBLK
  1

  9
$DIMASO
 70
     0
  9
$DIMSHO
 70
     0
  9
$DIMPOST
  1

  9
$DIMAPOST
  1

  9
$DIMALT
 70
     0
  9
$DIMALTD
 70
     2
  9
$DIMALTF
 40
25.399999999999999
  9
$DIMLFAC
 40
1.0
  9
$DIMTOFL
 70
     0
  9
$DIMTVP
 40
1.6000000000000001
  9
$DIMTIX
 70
     1
  9
$DIMSOXD
 70
     0
  9
$DIMSAH
 70
     0
  9
$DIMBLK1
  1

  9
$DIMBLK2
  1

  9
$DIMSTYLE
  2
STANDARD
  9
$DIMCLRD
 70
     0
  9
$DIMCLRE
 70
     0
  9
$DIMCLRT
 70
     0
  9
$DIMTFAC
 40
1.0
  9
$DIMGAP
 40
1.1999999999999991
  9
$LUNITS
 70
     2
  9
$LUPREC
 70
     4
  9
$SKETCHINC
 40
0.1
  9
$FILLETRAD
 40
0.0
  9
$AUNITS
 70
     0
  9
$AUPREC
 70
     4
  9
$MENU
  1
ACAD
  9
$ELEVATION
 40
0.0
  9
$PELEVATION
 40
0.0
  9
$THICKNESS
 40
0.0
  9
$LIMCHECK
 70
     0
  9
$BLIPMODE
 70
     0
  9
$CHAMFERA
 40
0.0
  9
$CHAMFERB
 40
0.0
  9
$SKPOLY
 70
     0
  9
$TDCREATE
 40
2448055.7149187499
  9
$TDUPDATE
 40
2456598.5775750582
  9
$TDINDWG
 40
2.0661329050999999
  9
$TDUSRTIMER
 40
2.0661329050999999
  9
$USRTIMER
 70
     1
  9
$ANGBASE
 50
0.0
  9
$ANGDIR
 70
     0
  9
$PDMODE
 70
     0
  9
$PDSIZE
 40
0.0
  9
$PLINEWID
 40
0.0
  9
$COORDS
 70
     1
  9
$SPLFRAME
 70
     0
  9
$SPLINETYPE
 70
     6
  9
$SPLINESEGS
 70
     8
  9
$ATTDIA
 70
     0
  9
$ATTREQ
 70
     1
  9
$HANDLING
 70
     1
  9
$HANDSEED
  5
14512
  9
$SURFTAB1
 70
     6
  9
$SURFTAB2
 70
     6
  9
$SURFTYPE
 70
     6
  9
$SURFU
 70
     6
  9
$SURFV
 70
     6
  9
$UCSNAME
  2

  9
$UCSORG
 10
0.0
 20
0.0
 30
0.0
  9
$UCSXDIR
 10
1.0
 20
0.0
 30
0.0
  9
$UCSYDIR
 10
0.0
 20
1.0
 30
0.0
  9
$PUCSNAME
  2

  9
$PUCSORG
 10
0.0
 20
0.0
 30
0.0
  9
$PUCSXDIR
 10
1.0
 20
0.0
 30
0.0
  9
$PUCSYDIR
 10
0.0
 20
1.0
 30
0.0
  9
$USERI1
 70
     0
  9
$USERI2
 70
     0
  9
$USERI3
 70
     0
  9
$USERI4
 70
     0
  9
$USERI5
 70
     0
  9
$USERR1
 40
0.0
  9
$USERR2
 40
0.0
  9
$USERR3
 40
0.0
  9
$USERR4
 40
0.0
  9
$USERR5
 40
0.0
  9
$WORLDVIEW
 70
     1
  9
$SHADEDGE
 70
     3
  9
$SHADEDIF
 70
    70
  9
$TILEMODE
 70
     1
  9
$MAXACTVP
 70
    16
  9
$PLIMCHECK
 70
     0
  9
$PEXTMIN
 10
1.0000000000000000E+020
 20
1.0000000000000000E+020
 30
1.0000000000000000E+020
  9
$PEXTMAX
 10
-1.0000000000000000E+020
 20
-1.0000000000000000E+020
 30
-1.0000000000000000E+020
  9
$PLIMMIN
 10
0.0
 20
0.0
  9
$PLIMMAX
 10
12.0
 20
9.0
  9
$UNITMODE
 70
     0
  9
$VISRETAIN
 70
     0
  9
$PLINEGEN
 70
     1
  9
$PSLTSCALE
 70
     0
  0
ENDSEC
  0
SECTION
  2
TABLES
  0
TABLE
  2
VPORT
 70
     1
  0
VPORT
  2
*ACTIVE
 70
     0
 10
0.0
 20
0.0
 11
1.0
 21
1.0
 12
300.1325816075377
 22
214.66415685180439
 13
0.0
 23
0.0
 14
5.0
 24
5.0
 15
10.0
 25
10.0
 16
0.0
 26
0.0
 36
1.0
 17
0.0
 27
0.0
 37
0.0
 40
439.19534678478038
 41
1.831871345029239
 42
50.0
 43
0.0
 44
0.0
 50
0.0
 51
0.0
 71
     0
 72
   500
 73
     1
 74
     1
 75
     0
 76
     0
 77
     0
 78
     2
  0
ENDTAB
  0
TABLE
  2
LTYPE
 70
     3
  0
LTYPE
  2
CONTINUOUS
 70
     0
  3
実線
 72
    65
 73
     0
 40
0.0
  0
LTYPE
  2
CENTER
 70
     0
  3
____ _ ____ _ ____ _ ____ _ ____ _ ____ _ ____
 72
    65
 73
     4
 40
2.0
 49
1.25
 49
-0.25
 49
0.25
 49
-0.25
  0
LTYPE
  2
PHANTOM2
 70
     0
  3
___ _ _ ___ _ _ ___ _ _ ___ _ _
 72
    65
 73
     6
 40
1.25
 49
0.625
 49
-0.125
 49
0.125
 49
-0.125
 49
0.125
 49
-0.125
  0
ENDTAB
  0
TABLE
  2
LAYER
 70
     4
  0
LAYER
  2
0
 70
     0
 62
     7
  6
CONTINUOUS
  0
LAYER
  2
1
 70
     0
 62
     1
  6
CENTER
  0
LAYER
  2
DEFPOINTS
 70
     0
 62
     7
  6
CONTINUOUS
  0
LAYER
  2
3
 70
     0
 62
     3
  6
CONTINUOUS
  0
ENDTAB
  0
TABLE
  2
STYLE
 70
     3
  0
STYLE
  2
STANDARD
 70
     0
 40
0.0
 41
1.0
 50
0.0
 71
     0
 42
5.0
  3
simplex.shx
  4
bigfont.shx
  0
STYLE
  2
07500
 70
     0
 40
0.0
 41
0.75
 50
0.0
 71
     0
 42
0.2
  3
simplex.shx
  4
bigfont.shx
  0
STYLE
  2
STANDARD1
 70
     0
 40
0.0
 41
1.0
 50
0.0
 71
     0
 42
3.0
  3
txt
  4

  0
ENDTAB
  0
TABLE
  2
VIEW
 70
     2
  0
VIEW
  2
ALL
 70
     0
 40
270.0
 10
220.99159663865549
 20
135.0
 41
0.0
 11
0.0
 21
0.0
 31
1.0
 12
0.0
 22
0.0
 32
0.0
 42
0.0
 43
0.0
 44
0.0
 50
0.0
 71
     0
  0
VIEW
  2
OLE1
 70
     0
 40
168.2487151179721
 10
2892.3009567448912
 20
702.51600084347126
 41
162.5749581879237
 11
0.0
 21
0.0
 31
1.0
 12
0.0
 22
0.0
 32
0.0
 42
50.0
 43
0.0
 44
0.0
 50
0.0
 71
     0
  0
ENDTAB
  0
TABLE
  2
UCS
 70
     0
  0
ENDTAB
  0
TABLE
  2
APPID
 70
    48
  0
APPID
  2
ACAD
 70
     0
  0
APPID
  2
DCO15
 70
     0
  0
APPID
  2
GENIUS_GENOREF_13
 70
     0
  0
APPID
  2
GENIUS_GENOENT_13
 70
     0
  0
APPID
  2
GENIUS_GENBH_13
 70
     0
  0
APPID
  2
GENIUS_GENOBJ_13
 70
     0
  0
APPID
  2
GENIUS_GENODEF_13
 70
     0
  0
APPID
  2
GENIUS_GENOLIS_13
 70
     0
  0
APPID
  2
GENIUS_GENOBJ-NBEHI-BHF_13
 70
     0
  0
APPID
  2
GENIUS_GENOBJ-NBEHI-BHB_13
 70
     0
  0
APPID
  2
GENIUS_GENOBJ-F-PART_13
 70
     0
  0
APPID
  2
GENIUS_GEFSTDP_13
 70
     0
  0
APPID
  2
GENIUS_GENOBJ-N-RSSYM_13
 70
     0
  0
APPID
  2
GENIUS_GENSYMENT_13
 70
     0
  0
APPID
  2
GENIUS_GENOBJ-N-TIT_13
 70
     0
  0
APPID
  2
GENIUS_GENTITLE_13
 70
     0
  0
APPID
  2
GENIUS_GENZVEED_13
 70
     0
  0
APPID
  2
GENIUS_GENOBJ-N-LEADER_13
 70
     0
  0
APPID
  2
GENIUS_GENOBJ-N-FIL_13
 70
     0
  0
APPID
  2
GENIUS_GENOBJ-N-SEC_13
 70
     0
  0
APPID
  2
GENIUS_GENOBJ-N-CRS_13
 70
     0
  0
APPID
  2
GENIUS_GENOBJ-N-ZOO_13
 70
     0
  0
APPID
  2
GENIUS_GENZOO_13
 70
     0
  0
APPID
  2
GENIUS_GENOBJ-F-TOL_13
 70
     0
  0
APPID
  2
GENIUS_GENFIL_13
 70
     0
  0
APPID
  2
GENIUS_GENOBJ-N-CHA_13
 70
     0
  0
APPID
  2
_CALL_MAC$
 70
     0
  0
APPID
  2
ASM_BASE
 70
     0
  0
APPID
  2
ASM_EXPLO_VER_2_00
 70
     0
  0
APPID
  2
ASM_CADM_VER_12_00
 70
     0
  0
APPID
  2
ASM_BASEFORO
 70
     0
  0
APPID
  2
ASM_BASETRAVI
 70
     0
  0
APPID
  2
ASM_BASETRAVI1
 70
     0
  0
APPID
  2
ASM_GRUPPI
 70
     0
  0
APPID
  2
ASM_CADM_ALBERO
 70
     0
  0
APPID
  2
ASM_GOLE
 70
     0
  0
APPID
  2
ACAD_MLEADERVER
 70
     0
  0
APPID
  2
ACAD_DSTYLE_DIMJAG
 70
     0
  0
APPID
  2
ACAD_DSTYLE_DIMTALN
 70
     0
  0
APPID
  2
ACAD_EXEMPT_FROM_CAD_STANDARDS
 70
     0
  0
APPID
  2
ACAD_DSTYLE_DIMRADIAL_EXTENSION
 70
     0
  0
APPID
  2
ACAD_PSEXT
 70
     0
  0
APPID
  2
ACAD_DSTYLE_DIMBREAK
 70
     0
  0
APPID
  2
ACAECLAYERSTANDARD
 70
     0
  0
APPID
  2
ACCMTRANSPARENCY
 70
     0
  0
APPID
  2
GRADIENTCOLOR1ACI
 70
     0
  0
APPID
  2
GRADIENTCOLOR2ACI
 70
     0
  0
APPID
  2
ACAD_NAV_VCDISPLAY
 70
     0
  0
ENDTAB
  0
TABLE
  2
DIMSTYLE
 70
     1
  0
DIMSTYLE
  2
STANDARD
 70
     0
  3

  4

  5

  6

  7

 40
1.0
 41
0.18
 42
0.0625
 43
0.38
 44
0.18
 45
0.0
 46
0.0
 47
0.0
 48
0.0
140
0.18
141
0.09
142
0.0
143
25.399999999999999
144
1.0
145
0.0
146
1.0
147
0.09
 71
     0
 72
     0
 73
     1
 74
     1
 75
     0
 76
     0
 77
     0
 78
     0
170
     0
171
     2
172
     0
173
     0
174
     0
175
     0
176
     0
177
     0
178
     0
  0
ENDTAB
  0
ENDSEC
  0
SECTION
  2
BLOCKS
  0
BLOCK
  8
0
  2
$MODEL_SPACE
 70
     0
 10
0.0
 20
0.0
 30
0.0
  3
$MODEL_SPACE
  1

  0
ENDBLK
  5
36
  8
0
  0
BLOCK
 67
     1
  8
0
  2
$PAPER_SPACE
 70
     0
 10
0.0
 20
0.0
 30
0.0
  3
$PAPER_SPACE
  1

  0
ENDBLK
  5
34
 67
     1
  8
0
  0
ENDSEC
  0
SECTION
  2
ENTITIES
  0
LINE
  5
B302
  8
0
 10
303.90231598404739
 20
344.48045729116291
 30
0.0
 11
303.9023159840483
 21
411.48045729116279
 31
0.0
  0
ARC
  5
B303
  8
0
 10
312.90231598404739
 20
344.48045729116291
 30
0.0
 40
8.9999999999999911
 50
180.0
 51
270.0
  0
LINE
  5
B304
  8
0
 10
394.90231598404739
 20
335.48045729116188
 30
0.0
 11
312.90231598404739
 21
335.48045729116279
 31
0.0
  0
ARC
  5
B305
  8
0
 10
394.90231598404739
 20
344.48045729116188
 30
0.0
 40
9.0000000000000142
 50
270.0
 51
0.0
  0
LINE
  5
B306
  8
0
 10
403.9023159840483
 20
411.48045729116183
 30
0.0
 11
403.90231598404728
 21
344.48045729116183
 31
0.0
  0
ARC
  5
B307
  8
0
 10
394.9023159840483
 20
411.48045729116183
 30
0.0
 40
9.0
 50
0.0
 51
90.0
  0
LINE
  5
B308
  8
0
 10
312.9023159840483
 20
420.48045729116279
 30
0.0
 11
394.9023159840483
 21
420.48045729116188
 31
0.0
  0
ARC
  5
B309
  8
0
 10
312.9023159840483
 20
411.48045729116279
 30
0.0
 40
8.9999999999999947
 50
90.0
 51
180.0
  0
LINE
  5
B30A
  8
0
 10
398.17139082527552
 20
406.55743234408618
 30
0.0
 11
395.67139082527552
 21
399.05743234408612
 31
0.0
  0
ARC
  5
B30B
  8
0
 10
391.40231598404807
 20
400.48045729116188
 30
0.0
 40
4.499999999999968
 50
161.56505117707999
 51
341.56505117708002
  0
LINE
  5
B30C
  8
0
 10
387.13324114282068
 20
401.90348223823759
 30
0.0
 11
389.63324114282091
 21
409.4034822382377
 31
0.0
  0
ARC
  5
B30D
  8
0
 10
393.90231598404807
 20
407.98045729116183
 30
0.0
 40
4.499999999999968
 50
341.56505117708002
 51
161.56505117707999
  0
LINE
  5
B30E
  8
0
 10
389.63324114282
 20
346.55743234408618
 30
0.0
 11
387.13324114282022
 21
354.05743234408618
 31
0.0
  0
ARC
  5
B30F
  8
0
 10
391.40231598404762
 20
355.48045729116188
 30
0.0
 40
4.4999999999999938
 50
18.434948822919949
 51
198.43494882291989
  0
LINE
  5
B310
  8
0
 10
395.67139082527501
 20
356.9034822382377
 30
0.0
 11
398.17139082527501
 21
349.40348223823759
 31
0.0
  0
ARC
  5
B311
  8
0
 10
393.90231598404739
 20
347.98045729116188
 30
0.0
 40
4.4999999999999929
 50
198.43494882291989
 51
18.434948822919949
  0
LINE
  5
B312
  8
0
 10
312.13324114282068
 20
399.05743234408709
 30
0.0
 11
309.63324114282068
 21
406.55743234408709
 31
0.0
  0
ARC
  5
B313
  8
0
 10
313.90231598404807
 20
407.98045729116268
 30
0.0
 40
4.4999999999999956
 50
18.434948822919949
 51
198.43494882291989
  0
LINE
  5
B314
  8
0
 10
318.17139082527569
 20
409.4034822382385
 30
0.0
 11
320.67139082527552
 21
401.9034822382385
 31
0.0
  0
ARC
  5
B315
  8
0
 10
316.40231598404807
 20
400.48045729116279
 30
0.0
 40
4.4999999999999956
 50
198.43494882291989
 51
18.434948822919949
  0
LINE
  5
B316
  8
0
 10
320.67139082527501
 20
354.05743234408698
 30
0.0
 11
318.17139082527478
 21
346.55743234408698
 31
0.0
  0
ARC
  5
B317
  8
0
 10
313.90231598404739
 20
347.98045729116279
 30
0.0
 40
4.5
 50
161.56505117707999
 51
341.56505117708002
  0
LINE
  5
B318
  8
0
 10
309.63324114282022
 20
349.40348223823872
 30
0.0
 11
312.13324114282022
 21
356.90348223823861
 31
0.0
  0
ARC
  5
B319
  8
0
 10
316.40231598404762
 20
355.48045729116279
 30
0.0
 40
4.4999999999999956
 50
341.56505117708002
 51
161.56505117707999
  0
LINE
  5
B32E
  8
0
 10
320.43344485819699
 20
357.48045729116279
 30
0.0
 11
312.3711871098983
 21
357.48045729116291
 31
0.0
  0
LINE
  5
B331
  8
0
 10
320.43344485819739
 20
398.48045729116279
 30
0.0
 11
312.37118710989881
 21
398.48045729116279
 31
0.0
  0
LINE
  5
B332
  8
0
 10
315.40231598404762
 20
357.48045729116279
 30
0.0
 11
315.40231598404762
 21
359.86793948485888
 31
0.0
  0
LINE
  5
B334
  8
0
 10
315.40231598404807
 20
396.09297509746671
 30
0.0
 11
315.40231598404807
 21
398.48045729116279
 31
0.0
  0
LINE
  5
B343
  8
0
 10
303.90231598404762
 20
357.58045729116287
 30
0.0
 11
258.41897648244299
 21
357.5804572911635
 31
0.0
  0
LINE
  5
B345
  8
0
 10
315.40231598404762
 20
357.58045729116282
 30
0.0
 11
312.42236623562121
 21
357.58045729116287
 31
0.0
  0
LINE
  5
B347
  8
0
 10
303.90231598404807
 20
398.38045729116288
 30
0.0
 11
258.41897648244338
 21
398.38045729116351
 31
0.0
  0
LINE
  5
B348
  8
0
 10
315.40231598404807
 20
398.38045729116283
 30
0.0
 11
312.42236623562172
 21
398.38045729116283
 31
0.0
  0
LINE
  5
B34E
  8
0
 10
258.41897648244338
 20
398.38045729116351
 30
0.0
 11
258.41897648244299
 21
357.5804572911635
 31
0.0
  0
LINE
  5
B372
  8
0
 10
313.08731598404762
 20
352.6804572911629
 30
0.0
 11
313.08731598404762
 21
353.2804572911628
 31
0.0
  0
LINE
  5
B374
  8
0
 10
314.9023159840483
 20
410.28045729116269
 30
0.0
 11
314.9023159840483
 21
412.21345729116268
 31
0.0
  0
LINE
  5
B376
  8
0
 10
314.9023159840483
 20
412.21345729116268
 30
0.0
 11
315.02660560567188
 21
412.33774691278637
 31
0.0
  0
LINE
  5
B379
  8
0
 10
314.90231598404807
 20
400.28045729116269
 30
0.0
 11
314.90231598404807
 21
402.28045729116269
 31
0.0
  0
LINE
  5
B37B
  8
0
 10
313.08731598404802
 20
407.78045729116269
 30
0.0
 11
313.08731598404819
 21
410.2804572911628
 31
0.0
  0
LINE
  5
B37D
  8
0
 10
314.90231598404762
 20
353.28045729116269
 30
0.0
 11
314.90231598404762
 21
355.28045729116269
 31
0.0
  0
LINE
  5
B37F
  8
0
 10
312.90231598404762
 20
355.2804572911628
 30
0.0
 11
312.90231598404762
 21
357.48045729116291
 31
0.0
  0
LINE
  5
B381
  8
0
 10
312.90231598404807
 20
398.48045729116279
 30
0.0
 11
312.90231598404807
 21
400.28045729116269
 31
0.0
  0
LINE
  5
B382
  8
0
 10
313.08731598404762
 20
353.2804572911628
 30
0.0
 11
320.41391857242797
 21
353.28045729116269
 31
0.0
  0
LINE
  5
B385
  8
0
 10
314.9023159840483
 20
412.21345729116268
 30
0.0
 11
315.42603014971968
 21
412.21345729116268
 31
0.0
  0
LINE
  5
B387
  8
0
 10
312.64398265071401
 20
347.98045729116279
 30
0.0
 11
318.64570751336828
 21
347.98045729116279
 31
0.0
  0
LINE
  5
B389
  8
0
 10
312.64398265071418
 20
352.6804572911629
 30
0.0
 11
320.21352636728398
 21
352.6804572911629
 31
0.0
  0
POLYLINE
  5
B393
  8
0
 66
     1
 10
0.0
 20
0.0
 30
0.0
  0
VERTEX
  5
14118
  8
0
 10
312.64398265071401
 20
347.98045729116279
 30
0.0
  0
VERTEX
  5
14119
  8
0
 10
312.64398265071418
 20
347.98764742478278
 30
0.0
  0
VERTEX
  5
1411A
  8
0
 10
312.64398265071418
 20
348.04442200856721
 30
0.0
  0
VERTEX
  5
1411B
  8
0
 10
312.64398265071401
 20
348.15903234732019
 30
0.0
  0
VERTEX
  5
1411C
  8
0
 10
312.64398265071401
 20
348.2398770005783
 30
0.0
  0
SEQEND
  5
1411D
  8
0
  0
POLYLINE
  5
B394
  8
0
 66
     1
 10
0.0
 20
0.0
 30
0.0
  0
VERTEX
  5
1411E
  8
0
 10
312.64398265071441
 20
352.42103758174733
 30
0.0
  0
VERTEX
  5
1411F
  8
0
 10
312.64398265071441
 20
352.50188223500561
 30
0.0
  0
VERTEX
  5
14120
  8
0
 10
312.64398265071418
 20
352.61649257375848
 30
0.0
  0
VERTEX
  5
14121
  8
0
 10
312.64398265071418
 20
352.67326715754302
 30
0.0
  0
VERTEX
  5
14122
  8
0
 10
312.64398265071418
 20
352.6804572911629
 30
0.0
  0
SEQEND
  5
14123
  8
0
  0
POLYLINE
  5
B396
  8
0
 66
     1
 10
0.0
 20
0.0
 30
0.0
  0
VERTEX
  5
14124
  8
0
 10
320.18556314299212
 20
352.58586650925997
 30
0.0
  0
VERTEX
  5
14125
  8
0
 10
319.98016825084301
 20
352.56436891165112
 30
0.0
  0
VERTEX
  5
14126
  8
0
 10
319.56048250280361
 20
352.51439912792
 30
0.0
  0
VERTEX
  5
14127
  8
0
 10
319.12612217220573
 20
352.45471522666622
 30
0.0
  0
VERTEX
  5
14128
  8
0
 10
318.90231598404762
 20
352.42103758174721
 30
0.0
  0
SEQEND
  5
14129
  8
0
  0
POLYLINE
  5
B39A
  8
0
 66
     1
 10
0.0
 20
0.0
 30
0.0
  0
VERTEX
  5
1412A
  8
0
 10
315.77314931738101
 20
352.6804572911629
 30
0.0
  0
VERTEX
  5
1412B
  8
0
 10
315.27071156546549
 20
352.67326715754291
 30
0.0
  0
VERTEX
  5
1412C
  8
0
 10
314.26195102155322
 20
352.61649257375848
 30
0.0
  0
VERTEX
  5
1412D
  8
0
 10
313.20616112882908
 20
352.50188223500561
 30
0.0
  0
VERTEX
  5
1412E
  8
0
 10
312.64398265071418
 20
352.42103758174733
 30
0.0
  0
SEQEND
  5
1412F
  8
0
  0
LINE
  5
B39B
  8
0
 10
312.64398265071401
 20
348.2398770005783
 30
0.0
 11
312.64398265071418
 21
352.42103758174733
 31
0.0
  0
POLYLINE
  5
B39C
  8
0
 66
     1
 10
0.0
 20
0.0
 30
0.0
  0
VERTEX
  5
14130
  8
0
 10
312.64398265071401
 20
348.2398770005783
 30
0.0
  0
VERTEX
  5
14131
  8
0
 10
313.20616112882891
 20
348.15903234732019
 30
0.0
  0
VERTEX
  5
14132
  8
0
 10
314.26195102155287
 20
348.04442200856721
 30
0.0
  0
VERTEX
  5
14133
  8
0
 10
315.27071156546532
 20
347.98764742478272
 30
0.0
  0
VERTEX
  5
14134
  8
0
 10
315.77314931738078
 20
347.98045729116279
 30
0.0
  0
SEQEND
  5
14135
  8
0
  0
POLYLINE
  5
B39D
  8
0
 66
     1
 10
0.0
 20
0.0
 30
0.0
  0
VERTEX
  5
14136
  8
0
 10
315.77314931738078
 20
347.98045729116279
 30
0.0
  0
VERTEX
  5
14137
  8
0
 10
316.24860917315192
 20
347.98689745714069
 30
0.0
  0
VERTEX
  5
14138
  8
0
 10
317.20180238048351
 20
348.03773707955833
 30
0.0
  0
VERTEX
  5
14139
  8
0
 10
318.1933888467895
 20
348.14005590597333
 30
0.0
  0
VERTEX
  5
1413A
  8
0
 10
318.7174737055841
 20
348.2119246144228
 30
0.0
  0
SEQEND
  5
1413B
  8
0
  0
LINE
  5
B3A0
  8
0
 10
318.90231598404762
 20
348.75020782040508
 30
0.0
 11
318.90231598404762
 21
352.42103758174721
 31
0.0
  0
POLYLINE
  5
B3A1
  8
0
 66
     1
 10
0.0
 20
0.0
 30
0.0
  0
VERTEX
  5
1413C
  8
0
 10
318.90231598404762
 20
352.42103758174721
 30
0.0
  0
VERTEX
  5
1413D
  8
0
 10
318.34013750593272
 20
352.5018822350055
 30
0.0
  0
VERTEX
  5
1413E
  8
0
 10
317.28434761320892
 20
352.61649257375848
 30
0.0
  0
VERTEX
  5
1413F
  8
0
 10
316.27558706929648
 20
352.67326715754291
 30
0.0
  0
VERTEX
  5
14140
  8
0
 10
315.77314931738101
 20
352.6804572911629
 30
0.0
  0
SEQEND
  5
14141
  8
0
  0
LINE
  5
B3A6
  8
0
 10
313.08731598404819
 20
410.2804572911628
 30
0.0
 11
317.77011367206978
 21
410.28045729116269
 31
0.0
  0
LINE
  5
B3A7
  8
0
 10
312.64398265071458
 20
402.2804572911628
 30
0.0
 11
320.547353322074
 21
402.28045729116269
 31
0.0
  0
LINE
  5
B3A9
  8
0
 10
312.64398265071458
 20
407.78045729116269
 30
0.0
 11
318.71235658525097
 21
407.78045729116269
 31
0.0
  0
POLYLINE
  5
B3B3
  8
0
 66
     1
 10
0.0
 20
0.0
 30
0.0
  0
VERTEX
  5
14142
  8
0
 10
312.64398265071458
 20
402.2804572911628
 30
0.0
  0
VERTEX
  5
14143
  8
0
 10
312.6439826507148
 20
402.28764742478268
 30
0.0
  0
VERTEX
  5
14144
  8
0
 10
312.64398265071458
 20
402.34442200856711
 30
0.0
  0
VERTEX
  5
14145
  8
0
 10
312.6439826507148
 20
402.45903234732009
 30
0.0
  0
VERTEX
  5
14146
  8
0
 10
312.64398265071458
 20
402.53987700057837
 30
0.0
  0
SEQEND
  5
14147
  8
0
  0
POLYLINE
  5
B3B4
  8
0
 66
     1
 10
0.0
 20
0.0
 30
0.0
  0
VERTEX
  5
14148
  8
0
 10
312.64398265071458
 20
407.52103758174729
 30
0.0
  0
VERTEX
  5
14149
  8
0
 10
312.6439826507148
 20
407.60188223500552
 30
0.0
  0
VERTEX
  5
1414A
  8
0
 10
312.64398265071458
 20
407.7164925737585
 30
0.0
  0
VERTEX
  5
1414B
  8
0
 10
312.64398265071458
 20
407.77326715754299
 30
0.0
  0
VERTEX
  5
1414C
  8
0
 10
312.64398265071458
 20
407.78045729116269
 30
0.0
  0
SEQEND
  5
1414D
  8
0
  0
POLYLINE
  5
B3B6
  8
0
 66
     1
 10
0.0
 20
0.0
 30
0.0
  0
VERTEX
  5
1414E
  8
0
 10
318.90231598404807
 20
402.53987700057831
 30
0.0
  0
VERTEX
  5
1414F
  8
0
 10
319.1878083963345
 20
402.49725687608168
 30
0.0
  0
VERTEX
  5
14150
  8
0
 10
319.73793884348578
 20
402.42442431505481
 30
0.0
  0
VERTEX
  5
14151
  8
0
 10
320.26637371080329
 20
402.36714602352282
 30
0.0
  0
VERTEX
  5
14152
  8
0
 10
320.52458829175953
 20
402.34406482801347
 30
0.0
  0
SEQEND
  5
14153
  8
0
  0
POLYLINE
  5
B3BA
  8
0
 66
     1
 10
0.0
 20
0.0
 30
0.0
  0
VERTEX
  5
14154
  8
0
 10
315.77314931738152
 20
407.78045729116269
 30
0.0
  0
VERTEX
  5
14155
  8
0
 10
315.27071156546589
 20
407.77326715754288
 30
0.0
  0
VERTEX
  5
14156
  8
0
 10
314.26195102155361
 20
407.7164925737585
 30
0.0
  0
VERTEX
  5
14157
  8
0
 10
313.20616112882948
 20
407.60188223500552
 30
0.0
  0
VERTEX
  5
14158
  8
0
 10
312.64398265071458
 20
407.52103758174729
 30
0.0
  0
SEQEND
  5
14159
  8
0
  0
LINE
  5
B3BB
  8
0
 10
312.64398265071458
 20
402.53987700057837
 30
0.0
 11
312.64398265071458
 21
407.52103758174729
 31
0.0
  0
POLYLINE
  5
B3BC
  8
0
 66
     1
 10
0.0
 20
0.0
 30
0.0
  0
VERTEX
  5
1415A
  8
0
 10
312.64398265071458
 20
402.53987700057837
 30
0.0
  0
VERTEX
  5
1415B
  8
0
 10
313.20616112882948
 20
402.45903234732009
 30
0.0
  0
VERTEX
  5
1415C
  8
0
 10
314.26195102155361
 20
402.34442200856711
 30
0.0
  0
VERTEX
  5
1415D
  8
0
 10
315.27071156546589
 20
402.28764742478262
 30
0.0
  0
VERTEX
  5
1415E
  8
0
 10
315.77314931738152
 20
402.28045729116269
 30
0.0
  0
SEQEND
  5
1415F
  8
0
  0
POLYLINE
  5
B3BD
  8
0
 66
     1
 10
0.0
 20
0.0
 30
0.0
  0
VERTEX
  5
14160
  8
0
 10
315.77314931738152
 20
402.28045729116269
 30
0.0
  0
VERTEX
  5
14161
  8
0
 10
316.27558706929699
 20
402.28764742478262
 30
0.0
  0
VERTEX
  5
14162
  8
0
 10
317.28434761320932
 20
402.34442200856711
 30
0.0
  0
VERTEX
  5
14163
  8
0
 10
318.34013750593323
 20
402.45903234732009
 30
0.0
  0
VERTEX
  5
14164
  8
0
 10
318.90231598404807
 20
402.53987700057831
 30
0.0
  0
SEQEND
  5
14165
  8
0
  0
LINE
  5
B3BE
  8
0
 10
318.90231598404807
 20
402.53987700057831
 30
0.0
 11
318.90231598404807
 21
407.21070676192051
 31
0.0
  0
POLYLINE
  5
B3C1
  8
0
 66
     1
 10
0.0
 20
0.0
 30
0.0
  0
VERTEX
  5
14166
  8
0
 10
318.78944124368809
 20
407.538261025819
 30
0.0
  0
VERTEX
  5
14167
  8
0
 10
318.25062799296961
 20
407.61356670406963
 30
0.0
  0
VERTEX
  5
14168
  8
0
 10
317.23408137344109
 20
407.72060503965491
 30
0.0
  0
VERTEX
  5
14169
  8
0
 10
316.25917040733469
 20
407.7737284191179
 30
0.0
  0
VERTEX
  5
1416A
  8
0
 10
315.77314931738152
 20
407.78045729116269
 30
0.0
  0
SEQEND
  5
1416B
  8
0
  0
LINE
  5
B3C5
  8
0
 10
312.90231598404762
 20
355.2804572911628
 30
0.0
 11
320.90027753885738
 21
355.28045729116269
 31
0.0
  0
LINE
  5
B3C7
  8
0
 10
312.90231598404807
 20
400.28045729116269
 30
0.0
 11
320.90027753885789
 21
400.28045729116269
 31
0.0
  0
LINE
  5
B425
  8
0
 10
498.1140171853184
 20
264.44368873142213
 30
0.0
 11
498.1140171853184
 21
265.24368873142208
 31
0.0
  0
LINE
  5
B426
  8
0
 10
567.71401718531843
 20
265.24368873142208
 30
0.0
 11
567.71401718531843
 21
264.44368873142213
 31
0.0
  0
LINE
  5
B427
  8
0
 10
498.4127965213404
 20
255.9436887314221
 30
0.0
 11
496.91401718531841
 21
264.44368873142213
 31
0.0
  0
LINE
  5
B428
  8
0
 10
568.91401718531847
 20
264.44368873142213
 30
0.0
 11
567.41523784929655
 21
255.9436887314221
 31
0.0
  0
LINE
  5
B429
  8
0
 10
499.91401718531841
 20
210.54845231651149
 30
0.0
 11
499.91401718531841
 21
255.9436887314221
 31
0.0
  0
LINE
  5
B42A
  8
0
 10
565.91401718531836
 20
255.9436887314221
 30
0.0
 11
565.91401718531836
 21
210.54845231651149
 31
0.0
  0
LINE
  5
B431
  8
0
 10
490.41401718531841
 20
267.74368873142208
 30
0.0
 11
490.41401718531841
 21
265.24368873142208
 31
0.0
  0
LINE
  5
B433
  8
0
 10
575.41401718531836
 20
267.74368873142208
 30
0.0
 11
490.41401718531841
 21
267.74368873142208
 31
0.0
  0
LINE
  5
B435
  8
0
 10
575.41401718531836
 20
265.24368873142208
 30
0.0
 11
490.41401718531841
 21
265.24368873142208
 31
0.0
  0
LINE
  5
B436
  8
0
 10
575.41401718531836
 20
267.74368873142208
 30
0.0
 11
575.41401718531836
 21
265.24368873142208
 31
0.0
  0
LINE
  5
B449
  8
0
 10
568.91401718531847
 20
264.44368873142213
 30
0.0
 11
496.91401718531841
 21
264.44368873142213
 31
0.0
  0
LINE
  5
B44A
  8
0
 10
567.41523784929655
 20
255.9436887314221
 30
0.0
 11
498.4127965213404
 21
255.9436887314221
 31
0.0
  0
POLYLINE
  5
B44E
  8
0
 66
     1
 10
0.0
 20
0.0
 30
0.0
  0
VERTEX
  5
1416C
  8
0
 10
556.95101857212967
 20
183.35092258491591
 30
0.0
  0
VERTEX
  5
1416D
  8
0
 10
557.41977495906463
 20
183.9630988419855
 30
0.0
  0
VERTEX
  5
1416E
  8
0
 10
558.32476748249633
 20
185.22223864821649
 30
0.0
  0
VERTEX
  5
1416F
  8
0
 10
559.18508165370451
 20
186.52590817047391
 30
0.0
  0
VERTEX
  5
14170
  8
0
 10
559.59800851370358
 20
187.1937282204911
 30
0.0
  0
VERTEX
  5
14171
  8
0
 10
559.99920482866673
 20
187.87181523692431
 30
0.0
  0
VERTEX
  5
14172
  8
0
 10
560.76570557849732
 20
189.25759341173739
 30
0.0
  0
VERTEX
  5
14173
  8
0
 10
561.48323620625411
 20
190.680806155863
 30
0.0
  0
VERTEX
  5
14174
  8
0
 10
562.15053511652013
 20
192.13895111106561
 30
0.0
  0
VERTEX
  5
14175
  8
0
 10
562.7664290335988
 20
193.629464499687
 30
0.0
  0
VERTEX
  5
14176
  8
0
 10
563.32983506442201
 20
195.14972563239681
 30
0.0
  0
VERTEX
  5
14177
  8
0
 10
563.5915419042783
 20
195.92017820761711
 30
0.0
  0
VERTEX
  5
14178
  8
0
 10
563.83976260254155
 20
196.69706151601079
 30
0.0
  0
VERTEX
  5
14179
  8
0
 10
564.29531506986041
 20
198.2687515532694
 30
0.0
  0
VERTEX
  5
1417A
  8
0
 10
564.69569149303607
 20
199.8620323263182
 30
0.0
  0
VERTEX
  5
1417B
  8
0
 10
565.04018791178999
 20
201.47410245547579
 30
0.0
  0
VERTEX
  5
1417C
  8
0
 10
565.32819861664325
 20
203.10212752474919
 30
0.0
  0
VERTEX
  5
1417D
  8
0
 10
565.55921721390075
 20
204.74324506543411
 30
0.0
  0
VERTEX
  5
1417E
  8
0
 10
565.65322360353241
 20
205.5678125581249
 30
0.0
  0
VERTEX
  5
1417F
  8
0
 10
565.73283751601912
 20
206.39456958904
 30
0.0
  0
VERTEX
  5
14180
  8
0
 10
565.84875425578161
 20
208.0531976606886
 30
0.0
  0
VERTEX
  5
14181
  8
0
 10
565.90676362303395
 20
209.7162130040663
 30
0.0
  0
VERTEX
  5
14182
  8
0
 10
565.91401718531836
 20
210.54845231651149
 30
0.0
  0
SEQEND
  5
14183
  8
0
  0
POLYLINE
  5
B44F
  8
0
 66
     1
 10
0.0
 20
0.0
 30
0.0
  0
VERTEX
  5
14184
  8
0
 10
565.91401718531836
 20
210.54845231651149
 30
0.0
  0
VERTEX
  5
14185
  8
0
 10
565.91052683891303
 20
211.12577577218539
 30
0.0
  0
VERTEX
  5
14186
  8
0
 10
565.88260849751975
 20
212.27993421025221
 30
0.0
  0
VERTEX
  5
14187
  8
0
 10
565.82679543643735
 20
213.43262764177319
 30
0.0
  0
VERTEX
  5
14188
  8
0
 10
565.78844222234591
 20
214.00812012979699
 30
0.0
  0
VERTEX
  5
14189
  8
0
 10
565.74313487908762
 20
214.58288077302581
 30
0.0
  0
VERTEX
  5
1418A
  8
0
 10
565.63169761065433
 20
215.72972037502461
 30
0.0
  0
VERTEX
  5
1418B
  8
0
 10
565.49257791819173
 20
216.87217610697081
 30
0.0
  0
VERTEX
  5
1418C
  8
0
 10
565.32589351084926
 20
218.00928133725759
 30
0.0
  0
VERTEX
  5
1418D
  8
0
 10
565.1317854202764
 20
219.1400739613365
 30
0.0
  0
VERTEX
  5
1418E
  8
0
 10
564.91041788129633
 20
220.26359721575409
 30
0.0
  0
VERTEX
  5
1418F
  8
0
 10
564.78956945285756
 20
220.82233550053749
 30
0.0
  0
VERTEX
  5
14190
  8
0
 10
564.66197819294769
 20
221.3789004876698
 30
0.0
  0
VERTEX
  5
14191
  8
0
 10
564.38667656000985
 20
222.4850401191683
 30
0.0
  0
VERTEX
  5
14192
  8
0
 10
564.08474591514926
 20
223.58108020568949
 30
0.0
  0
VERTEX
  5
14193
  8
0
 10
563.7564417218349
 20
224.6660933878961
 30
0.0
  0
VERTEX
  5
14194
  8
0
 10
563.40204175819088
 20
225.73916163631321
 30
0.0
  0
VERTEX
  5
14195
  8
0
 10
563.02184588196792
 20
226.7993770280722
 30
0.0
  0
VERTEX
  5
14196
  8
0
 10
562.8221741575278
 20
227.32438412956711
 30
0.0
  0
VERTEX
  5
14197
  8
0
 10
562.61617577683455
 20
227.84584251510441
 30
0.0
  0
VERTEX
  5
14198
  8
0
 10
562.18537468019986
 20
228.87767268313331
 30
0.0
  0
VERTEX
  5
14199
  8
0
 10
561.72980709280091
 20
229.89399450082331
 30
0.0
  0
VERTEX
  5
1419A
  8
0
 10
561.49285551020478
 20
230.39607052396681
 30
0.0
  0
VERTEX
  5
1419B
  8
0
 10
561.24985847029859
 20
230.8939480584516
 30
0.0
  0
VERTEX
  5
1419C
  8
0
 10
560.74593489714357
 20
231.87668729547761
 30
0.0
  0
VERTEX
  5
1419D
  8
0
 10
560.21846274298832
 20
232.8413807163941
 30
0.0
  0
VERTEX
  5
1419E
  8
0
 10
559.9460346468552
 20
233.31670455948819
 30
0.0
  0
VERTEX
  5
1419F
  8
0
 10
559.66788830193559
 20
233.78721209425649
 30
0.0
  0
VERTEX
  5
141A0
  8
0
 10
559.09467741492915
 20
234.71338116129149
 30
0.0
  0
VERTEX
  5
141A1
  8
0
 10
558.49931507560666
 20
235.61910428600359
 30
0.0
  0
VERTEX
  5
141A2
  8
0
 10
557.88230501994565
 20
236.50361513620601
 30
0.0
  0
VERTEX
  5
141A3
  8
0
 10
557.24416930005248
 20
237.3661653274136
 30
0.0
  0
VERTEX
  5
141A4
  8
0
 10
556.5854478424551
 20
238.20602505605169
 30
0.0
  0
VERTEX
  5
141A5
  8
0
 10
556.24854096447461
 20
238.617223166298
 30
0.0
  0
VERTEX
  5
141A6
  8
0
 10
555.90669799126988
 20
239.02248371694171
 30
0.0
  0
VERTEX
  5
141A7
  8
0
 10
555.20849403663533
 20
239.81485050454509
 30
0.0
  0
VERTEX
  5
141A8
  8
0
 10
554.49142672880168
 20
240.58245499745291
 30
0.0
  0
VERTEX
  5
141A9
  8
0
 10
553.75610277830083
 20
241.32464772563
 30
0.0
  0
VERTEX
  5
141AA
  8
0
 10
553.00314434260622
 20
242.0408007199311
 30
0.0
  0
VERTEX
  5
141AB
  8
0
 10
552.23318849972657
 20
242.7303080434254
 30
0.0
  0
VERTEX
  5
141AC
  8
0
 10
551.84203958490286
 20
243.06488637432031
 30
0.0
  0
VERTEX
  5
141AD
  8
0
 10
551.44688670917367
 20
243.39258630408
 30
0.0
  0
VERTEX
  5
141AE
  8
0
 10
550.64490426076372
 20
244.02707514836729
 30
0.0
  0
VERTEX
  5
141AF
  8
0
 10
549.827919711714
 20
244.63323773538039
 30
0.0
  0
VERTEX
  5
141B0
  8
0
 10
548.9966243125175
 20
245.2105611910543
 30
0.0
  0
VERTEX
  5
141B1
  8
0
 10
548.15172142207462
 20
245.75855704210781
 30
0.0
  0
VERTEX
  5
141B2
  8
0
 10
547.29392591258215
 20
246.27676162934159
 30
0.0
  0
VERTEX
  5
141B3
  8
0
 10
546.86041982276151
 20
246.5245541876057
 30
0.0
  0
VERTEX
  5
141B4
  8
0
 10
546.42396356467953
 20
246.7647364999396
 30
0.0
  0
VERTEX
  5
141B5
  8
0
 10
545.54257045336635
 20
247.22206877844411
 30
0.0
  0
VERTEX
  5
141B6
  8
0
 10
544.65049232520926
 20
247.64837151608921
 30
0.0
  0
VERTEX
  5
141B7
  8
0
 10
543.74848396736593
 20
248.0432840181989
 30
0.0
  0
VERTEX
  5
141B8
  8
0
 10
542.83730856895954
 20
248.40647214936999
 30
0.0
  0
VERTEX
  5
141B9
  8
0
 10
541.91773707534469
 20
248.7376286161844
 30
0.0
  0
VERTEX
  5
141BA
  8
0
 10
541.45504567370165
 20
248.89110635032389
 30
0.0
  0
VERTEX
  5
141BB
  8
0
 10
540.99054753581117
 20
249.03647322720991
 30
0.0
  0
VERTEX
  5
141BC
  8
0
 10
540.05652444527561
 20
249.3027531300705
 30
0.0
  0
VERTEX
  5
141BD
  8
0
 10
539.11645808052197
 20
249.53624302538381
 30
0.0
  0
VERTEX
  5
141BE
  8
0
 10
538.17114383154671
 20
249.7367453573882
 30
0.0
  0
VERTEX
  5
141BF
  8
0
 10
537.22138152858008
 20
249.90409048109319
 30
0.0
  0
VERTEX
  5
141C0
  8
0
 10
536.26797476535069
 20
250.03813680581729
 30
0.0
  0
VERTEX
  5
141C1
  8
0
 10
535.79015669599107
 20
250.09263637254381
 30
0.0
  0
VERTEX
  5
141C2
  8
0
 10
535.31173021916459
 20
250.13877091498699
 30
0.0
  0
VERTEX
  5
141C3
  8
0
 10
534.35345696837453
 20
250.20590766209929
 30
0.0
  0
VERTEX
  5
141C4
  8
0
 10
533.39396580782068
 20
250.23949024276351
 30
0.0
  0
VERTEX
  5
141C5
  8
0
 10
532.91401718531836
 20
250.24368873142211
 30
0.0
  0
VERTEX
  5
141C6
  8
0
 10
532.43406856281615
 20
250.23949024276351
 30
0.0
  0
VERTEX
  5
141C7
  8
0
 10
531.47457740226241
 20
250.20590766209929
 30
0.0
  0
VERTEX
  5
141C8
  8
0
 10
530.51630415147224
 20
250.13877091498699
 30
0.0
  0
VERTEX
  5
141C9
  8
0
 10
530.03787767464576
 20
250.09263637254381
 30
0.0
  0
VERTEX
  5
141CA
  8
0
 10
529.5600596052858
 20
250.03813680581729
 30
0.0
  0
VERTEX
  5
141CB
  8
0
 10
528.60665284205675
 20
249.90409048109319
 30
0.0
  0
VERTEX
  5
141CC
  8
0
 10
527.65689053909011
 20
249.7367453573882
 30
0.0
  0
VERTEX
  5
141CD
  8
0
 10
526.71157629011475
 20
249.53624302538381
 30
0.0
  0
VERTEX
  5
141CE
  8
0
 10
525.77150992536087
 20
249.3027531300705
 30
0.0
  0
VERTEX
  5
141CF
  8
0
 10
524.83748683482565
 20
249.03647322720991
 30
0.0
  0
VERTEX
  5
141D0
  8
0
 10
524.37298869693518
 20
248.89110635032389
 30
0.0
  0
VERTEX
  5
141D1
  8
0
 10
523.91029729529214
 20
248.7376286161844
 30
0.0
  0
VERTEX
  5
141D2
  8
0
 10
522.9907258016774
 20
248.40647214936999
 30
0.0
  0
VERTEX
  5
141D3
  8
0
 10
522.07955040327101
 20
248.0432840181989
 30
0.0
  0
VERTEX
  5
141D4
  8
0
 10
521.17754204542757
 20
247.6483715160893
 30
0.0
  0
VERTEX
  5
141D5
  8
0
 10
520.28546391727059
 20
247.22206877844411
 30
0.0
  0
VERTEX
  5
141D6
  8
0
 10
519.4040708059573
 20
246.76473649993969
 30
0.0
  0
VERTEX
  5
141D7
  8
0
 10
518.96761454787543
 20
246.5245541876057
 30
0.0
  0
VERTEX
  5
141D8
  8
0
 10
518.53410845805479
 20
246.27676162934159
 30
0.0
  0
VERTEX
  5
141D9
  8
0
 10
517.67631294856233
 20
245.75855704210781
 30
0.0
  0
VERTEX
  5
141DA
  8
0
 10
516.83141005811945
 20
245.2105611910543
 30
0.0
  0
VERTEX
  5
141DB
  8
0
 10
516.00011465892294
 20
244.63323773538039
 30
0.0
  0
VERTEX
  5
141DC
  8
0
 10
515.18313010987322
 20
244.02707514836729
 30
0.0
  0
VERTEX
  5
141DD
  8
0
 10
514.38114766146316
 20
243.39258630408
 30
0.0
  0
VERTEX
  5
141DE
  8
0
 10
513.98599478573385
 20
243.06488637432031
 30
0.0
  0
VERTEX
  5
141DF
  8
0
 10
513.59484587091026
 20
242.7303080434254
 30
0.0
  0
VERTEX
  5
141E0
  8
0
 10
512.82489002803072
 20
242.0408007199311
 30
0.0
  0
VERTEX
  5
141E1
  8
0
 10
512.07193159233611
 20
241.32464772563
 30
0.0
  0
VERTEX
  5
141E2
  8
0
 10
511.33660764183509
 20
240.58245499745291
 30
0.0
  0
VERTEX
  5
141E3
  8
0
 10
510.61954033400161
 20
239.81485050454509
 30
0.0
  0
VERTEX
  5
141E4
  8
0
 10
509.92133637936689
 20
239.02248371694171
 30
0.0
  0
VERTEX
  5
141E5
  8
0
 10
509.57949340616233
 20
238.617223166298
 30
0.0
  0
VERTEX
  5
141E6
  8
0
 10
509.24258652818179
 20
238.20602505605169
 30
0.0
  0
VERTEX
  5
141E7
  8
0
 10
508.5838650705843
 20
237.36616532741371
 30
0.0
  0
VERTEX
  5
141E8
  8
0
 10
507.94572935069112
 20
236.50361513620601
 30
0.0
  0
VERTEX
  5
141E9
  8
0
 10
507.32871929503011
 20
235.61910428600359
 30
0.0
  0
VERTEX
  5
141EA
  8
0
 10
506.73335695570762
 20
234.71338116129149
 30
0.0
  0
VERTEX
  5
141EB
  8
0
 10
506.16014606870129
 20
233.78721209425649
 30
0.0
  0
VERTEX
  5
141EC
  8
0
 10
505.88199972378169
 20
233.31670455948819
 30
0.0
  0
VERTEX
  5
141ED
  8
0
 10
505.60957162764862
 20
232.8413807163941
 30
0.0
  0
VERTEX
  5
141EE
  8
0
 10
505.08209947349332
 20
231.87668729547761
 30
0.0
  0
VERTEX
  5
141EF
  8
0
 10
504.57817590033818
 20
230.8939480584516
 30
0.0
  0
VERTEX
  5
141F0
  8
0
 10
504.33517886043199
 20
230.39607052396681
 30
0.0
  0
VERTEX
  5
141F1
  8
0
 10
504.09822727783597
 20
229.89399450082331
 30
0.0
  0
VERTEX
  5
141F2
  8
0
 10
503.64265969043697
 20
228.87767268313331
 30
0.0
  0
VERTEX
  5
141F3
  8
0
 10
503.21185859380228
 20
227.84584251510441
 30
0.0
  0
VERTEX
  5
141F4
  8
0
 10
503.00586021310909
 20
227.32438412956711
 30
0.0
  0
VERTEX
  5
141F5
  8
0
 10
502.80618848866902
 20
226.7993770280722
 30
0.0
  0
VERTEX
  5
141F6
  8
0
 10
502.4259926124459
 20
225.73916163631321
 30
0.0
  0
VERTEX
  5
141F7
  8
0
 10
502.07159264880192
 20
224.6660933878961
 30
0.0
  0
VERTEX
  5
141F8
  8
0
 10
501.74328845548752
 20
223.58108020568949
 30
0.0
  0
VERTEX
  5
141F9
  8
0
 10
501.44135781062698
 20
222.4850401191683
 30
0.0
  0
VERTEX
  5
141FA
  8
0
 10
501.16605617768909
 20
221.3789004876698
 30
0.0
  0
VERTEX
  5
141FB
  8
0
 10
501.03846491777921
 20
220.82233550053749
 30
0.0
  0
VERTEX
  5
141FC
  8
0
 10
500.91761648934062
 20
220.26359721575409
 30
0.0
  0
VERTEX
  5
141FD
  8
0
 10
500.69624895036048
 20
219.1400739613365
 30
0.0
  0
VERTEX
  5
141FE
  8
0
 10
500.50214085978757
 20
218.00928133725759
 30
0.0
  0
VERTEX
  5
141FF
  8
0
 10
500.3354564524451
 20
216.87217610697081
 30
0.0
  0
VERTEX
  5
14200
  8
0
 10
500.19633675998261
 20
215.72972037502461
 30
0.0
  0
VERTEX
  5
14201
  8
0
 10
500.08489949154932
 20
214.58288077302581
 30
0.0
  0
VERTEX
  5
14202
  8
0
 10
500.03959214829092
 20
214.00812012979699
 30
0.0
  0
VERTEX
  5
14203
  8
0
 10
500.00123893419948
 20
213.43262764177319
 30
0.0
  0
VERTEX
  5
14204
  8
0
 10
499.94542587311702
 20
212.27993421025221
 30
0.0
  0
VERTEX
  5
14205
  8
0
 10
499.9175075317238
 20
211.12577577218539
 30
0.0
  0
VERTEX
  5
14206
  8
0
 10
499.91401718531841
 20
210.54845231651149
 30
0.0
  0
SEQEND
  5
14207
  8
0
  0
POLYLINE
  5
B450
  8
0
 66
     1
 10
0.0
 20
0.0
 30
0.0
  0
VERTEX
  5
14208
  8
0
 10
499.91401718531841
 20
210.54845231651149
 30
0.0
  0
VERTEX
  5
14209
  8
0
 10
499.92127074760282
 20
209.7162130040663
 30
0.0
  0
VERTEX
  5
1420A
  8
0
 10
499.97928011485533
 20
208.0531976606886
 30
0.0
  0
VERTEX
  5
1420B
  8
0
 10
500.09519685461783
 20
206.39456958904
 30
0.0
  0
VERTEX
  5
1420C
  8
0
 10
500.17481076710442
 20
205.5678125581249
 30
0.0
  0
VERTEX
  5
1420D
  8
0
 10
500.26881715673608
 20
204.74324506543411
 30
0.0
  0
VERTEX
  5
1420E
  8
0
 10
500.49983575399358
 20
203.10212752474899
 30
0.0
  0
VERTEX
  5
1420F
  8
0
 10
500.78784645884679
 20
201.47410245547579
 30
0.0
  0
VERTEX
  5
14210
  8
0
 10
501.13234287760082
 20
199.86203232631809
 30
0.0
  0
VERTEX
  5
14211
  8
0
 10
501.53271930077648
 20
198.2687515532694
 30
0.0
  0
VERTEX
  5
14212
  8
0
 10
501.98827176809522
 20
196.69706151601079
 30
0.0
  0
VERTEX
  5
14213
  8
0
 10
502.23649246635858
 20
195.92017820761711
 30
0.0
  0
VERTEX
  5
14214
  8
0
 10
502.49819930621487
 20
195.14972563239681
 30
0.0
  0
VERTEX
  5
14215
  8
0
 10
503.06160533703809
 20
193.629464499687
 30
0.0
  0
VERTEX
  5
14216
  8
0
 10
503.6774992541167
 20
192.13895111106561
 30
0.0
  0
VERTEX
  5
14217
  8
0
 10
504.34479816438278
 20
190.680806155863
 30
0.0
  0
VERTEX
  5
14218
  8
0
 10
505.06232879213951
 20
189.2575934117373
 30
0.0
  0
VERTEX
  5
14219
  8
0
 10
505.82882954197021
 20
187.87181523692431
 30
0.0
  0
VERTEX
  5
1421A
  8
0
 10
506.2300258569332
 20
187.1937282204911
 30
0.0
  0
VERTEX
  5
1421B
  8
0
 10
506.64295271693231
 20
186.52590817047391
 30
0.0
  0
VERTEX
  5
1421C
  8
0
 10
507.50326688814062
 20
185.22223864821649
 30
0.0
  0
VERTEX
  5
1421D
  8
0
 10
508.40825941157232
 20
183.96309884198541
 30
0.0
  0
VERTEX
  5
1421E
  8
0
 10
508.87701579850727
 20
183.35092258491591
 30
0.0
  0
SEQEND
  5
1421F
  8
0
  0
LINE
  5
B451
  8
0
 10
553.41401718531836
 20
179.74368873142211
 30
0.0
 11
553.41401718531836
 21
180.7833212407734
 31
0.0
  0
POLYLINE
  5
B452
  8
0
 66
     1
 10
0.0
 20
0.0
 30
0.0
  0
VERTEX
  5
14220
  8
0
 10
553.41401718531836
 20
180.7833212407734
 30
0.0
  0
VERTEX
  5
14221
  8
0
 10
553.52340757401862
 20
180.82700566841791
 30
0.0
  0
VERTEX
  5
14222
  8
0
 10
553.74026723531642
 20
180.91798883817609
 30
0.0
  0
VERTEX
  5
14223
  8
0
 10
553.95453895763671
 20
181.01393279588649
 30
0.0
  0
VERTEX
  5
14224
  8
0
 10
554.06069452560769
 20
181.06382038651989
 30
0.0
  0
VERTEX
  5
14225
  8
0
 10
554.16619132708206
 20
181.1150157972136
 30
0.0
  0
VERTEX
  5
14226
  8
0
 10
554.37519267607809
 20
181.2214263266527
 30
0.0
  0
VERTEX
  5
14227
  8
0
 10
554.58151023304924
 20
181.33336402505719
 30
0.0
  0
VERTEX
  5
14228
  8
0
 10
554.78510910177476
 20
181.45104058392431
 30
0.0
  0
VERTEX
  5
14229
  8
0
 10
554.98595107023084
 20
181.57468057690841
 30
0.0
  0
VERTEX
  5
1422A
  8
0
 10
555.18399325304722
 20
181.70452219574071
 30
0.0
  0
VERTEX
  5
1422B
  8
0
 10
555.28194937551257
 20
181.77184692560539
 30
0.0
  0
VERTEX
  5
1422C
  8
0
 10
555.37953008560908
 20
181.84106539043529
 30
0.0
  0
VERTEX
  5
1422D
  8
0
 10
555.57446589241079
 20
181.98613228153209
 30
0.0
  0
VERTEX
  5
1422E
  8
0
 10
555.76837691572484
 20
182.14006893429519
 30
0.0
  0
VERTEX
  5
1422F
  8
0
 10
555.96042893906326
 20
182.30286459435811
 30
0.0
  0
VERTEX
  5
14230
  8
0
 10
556.14983635624708
 20
182.47445647909061
 30
0.0
  0
VERTEX
  5
14231
  8
0
 10
556.33586803682965
 20
182.65472982621941
 30
0.0
  0
VERTEX
  5
14232
  8
0
 10
556.42740363930193
 20
182.74807024470479
 30
0.0
  0
VERTEX
  5
14233
  8
0
 10
556.51784381404332
 20
182.843510317106
 30
0.0
  0
VERTEX
  5
14234
  8
0
 10
556.69513079266096
 20
183.04055507846761
 30
0.0
  0
VERTEX
  5
14235
  8
0
 10
556.86714947117775
 20
183.24555405675051
 30
0.0
  0
VERTEX
  5
14236
  8
0
 10
556.95101857212967
 20
183.35092258491591
 30
0.0
  0
SEQEND
  5
14237
  8
0
  0
LINE
  5
B454
  8
0
 10
553.41401718531836
 20
179.74368873142211
 30
0.0
 11
550.41401718531836
 21
179.74368873142211
 31
0.0
  0
POLYLINE
  5
B456
  8
0
 66
     1
 10
0.0
 20
0.0
 30
0.0
  0
VERTEX
  5
14238
  8
0
 10
508.87701579850727
 20
183.35092258491591
 30
0.0
  0
VERTEX
  5
14239
  8
0
 10
508.96088489945919
 20
183.24555405675051
 30
0.0
  0
VERTEX
  5
1423A
  8
0
 10
509.13290357797581
 20
183.04055507846761
 30
0.0
  0
VERTEX
  5
1423B
  8
0
 10
509.31019055659362
 20
182.843510317106
 30
0.0
  0
VERTEX
  5
1423C
  8
0
 10
509.40063073133501
 20
182.74807024470479
 30
0.0
  0
VERTEX
  5
1423D
  8
0
 10
509.49216633380718
 20
182.65472982621941
 30
0.0
  0
VERTEX
  5
1423E
  8
0
 10
509.67819801438981
 20
182.47445647909061
 30
0.0
  0
VERTEX
  5
1423F
  8
0
 10
509.86760543157362
 20
182.30286459435811
 30
0.0
  0
VERTEX
  5
14240
  8
0
 10
510.05965745491193
 20
182.14006893429519
 30
0.0
  0
VERTEX
  5
14241
  8
0
 10
510.25356847822599
 20
181.98613228153209
 30
0.0
  0
VERTEX
  5
14242
  8
0
 10
510.44850428502781
 20
181.84106539043529
 30
0.0
  0
VERTEX
  5
14243
  8
0
 10
510.54608499512432
 20
181.77184692560539
 30
0.0
  0
VERTEX
  5
14244
  8
0
 10
510.64404111758961
 20
181.70452219574071
 30
0.0
  0
VERTEX
  5
14245
  8
0
 10
510.8420833004061
 20
181.57468057690841
 30
0.0
  0
VERTEX
  5
14246
  8
0
 10
511.04292526886178
 20
181.45104058392431
 30
0.0
  0
VERTEX
  5
14247
  8
0
 10
511.24652413758753
 20
181.33336402505719
 30
0.0
  0
VERTEX
  5
14248
  8
0
 10
511.4528416945588
 20
181.2214263266527
 30
0.0
  0
VERTEX
  5
14249
  8
0
 10
511.66184304355488
 20
181.1150157972136
 30
0.0
  0
VERTEX
  5
1424A
  8
0
 10
511.7673398450292
 20
181.06382038651989
 30
0.0
  0
VERTEX
  5
1424B
  8
0
 10
511.87349541300023
 20
181.01393279588649
 30
0.0
  0
VERTEX
  5
1424C
  8
0
 10
512.08776713532052
 20
180.91798883817609
 30
0.0
  0
VERTEX
  5
1424D
  8
0
 10
512.30462679661832
 20
180.82700566841791
 30
0.0
  0
VERTEX
  5
1424E
  8
0
 10
512.41401718531836
 20
180.7833212407734
 30
0.0
  0
SEQEND
  5
1424F
  8
0
  0
LINE
  5
B457
  8
0
 10
512.41401718531836
 20
180.7833212407734
 30
0.0
 11
512.41401718531836
 21
179.74368873142211
 31
0.0
  0
LINE
  5
B458
  8
0
 10
515.41401718531836
 20
179.74368873142211
 30
0.0
 11
512.41401718531836
 21
179.74368873142211
 31
0.0
  0
POLYLINE
  5
B459
  8
0
 66
     1
 10
0.0
 20
0.0
 30
0.0
  0
VERTEX
  5
14250
  8
0
 10
550.41401718531642
 20
181.27625022784929
 30
0.0
  0
VERTEX
  5
14251
  8
0
 10
550.50866271008169
 20
181.31844418363141
 30
0.0
  0
VERTEX
  5
14252
  8
0
 10
550.69621577996691
 20
181.40531424274951
 30
0.0
  0
VERTEX
  5
14253
  8
0
 10
550.88139271664659
 20
181.49554662300761
 30
0.0
  0
VERTEX
  5
14254
  8
0
 10
550.97306039903833
 20
181.54193912548101
 30
0.0
  0
VERTEX
  5
14255
  8
0
 10
551.06409844702534
 20
181.5891902177363
 30
0.0
  0
VERTEX
  5
14256
  8
0
 10
551.24423919914011
 20
181.6862899780561
 30
0.0
  0
VERTEX
  5
14257
  8
0
 10
551.42172372408925
 20
181.7868872598074
 30
0.0
  0
VERTEX
  5
14258
  8
0
 10
551.59646358548775
 20
181.8910197948835
 30
0.0
  0
VERTEX
  5
14259
  8
0
 10
551.7683734369632
 20
181.99872170889449
 30
0.0
  0
VERTEX
  5
1425A
  8
0
 10
551.93737128575049
 20
182.1100235910076
 30
0.0
  0
VERTEX
  5
1425B
  8
0
 10
552.02075356459045
 20
182.1670331424107
 30
0.0
  0
VERTEX
  5
1425C
  8
0
 10
552.10337873975459
 20
182.22495262183801
 30
0.0
  0
VERTEX
  5
1425D
  8
0
 10
552.26632123471916
 20
182.34353276511439
 30
0.0
  0
VERTEX
  5
1425E
  8
0
 10
552.42612823733941
 20
182.4657850284957
 30
0.0
  0
VERTEX
  5
1425F
  8
0
 10
552.58273341956169
 20
182.5917277984891
 30
0.0
  0
VERTEX
  5
14260
  8
0
 10
552.73607548851396
 20
182.72137785184441
 30
0.0
  0
VERTEX
  5
14261
  8
0
 10
552.88609478213334
 20
182.85474781030581
 30
0.0
  0
VERTEX
  5
14262
  8
0
 10
552.95983999865734
 20
182.9228303541118
 30
0.0
  0
VERTEX
  5
14263
  8
0
 10
553.03273280419876
 20
182.9918455764913
 30
0.0
  0
VERTEX
  5
14264
  8
0
 10
553.17593389859337
 20
183.13267580170259
 30
0.0
  0
VERTEX
  5
14265
  8
0
 10
553.31564535740085
 20
183.27724021749469
 30
0.0
  0
VERTEX
  5
14266
  8
0
 10
553.38417682489057
 20
183.35092258491591
 30
0.0
  0
SEQEND
  5
14267
  8
0
  0
POLYLINE
  5
B45A
  8
0
 66
     1
 10
0.0
 20
0.0
 30
0.0
  0
VERTEX
  5
14268
  8
0
 10
553.38417682489057
 20
183.35092258491591
 30
0.0
  0
VERTEX
  5
14269
  8
0
 10
553.9030761692884
 20
183.9293335166642
 30
0.0
  0
VERTEX
  5
1426A
  8
0
 10
554.90672533360259
 20
185.12879986120441
 30
0.0
  0
VERTEX
  5
1426B
  8
0
 10
555.86305243009883
 20
186.38296208536499
 30
0.0
  0
VERTEX
  5
1426C
  8
0
 10
556.32282305764102
 20
187.02971527957871
 30
0.0
  0
VERTEX
  5
1426D
  8
0
 10
556.76999971420889
 20
187.6891215878903
 30
0.0
  0
VERTEX
  5
1426E
  8
0
 10
557.62561569271145
 20
189.04446788413489
 30
0.0
  0
VERTEX
  5
1426F
  8
0
 10
558.42805932278941
 20
190.44608465342949
 30
0.0
  0
VERTEX
  5
14270
  8
0
 10
559.17560397343254
 20
191.8909560141754
 30
0.0
  0
VERTEX
  5
14271
  8
0
 10
559.86664114065775
 20
193.37597301316561
 30
0.0
  0
VERTEX
  5
14272
  8
0
 10
560.49968390855338
 20
194.8979403151709
 30
0.0
  0
VERTEX
  5
14273
  8
0
 10
560.79402677110352
 20
195.67175985589259
 30
0.0
  0
VERTEX
  5
14274
  8
0
 10
561.0733701486995
 20
196.4535830783939
 30
0.0
  0
VERTEX
  5
14275
  8
0
 10
561.58646545108263
 20
198.0395540009994
 30
0.0
  0
VERTEX
  5
14276
  8
0
 10
562.03786578019538
 20
199.65244052355871
 30
0.0
  0
VERTEX
  5
14277
  8
0
 10
562.42659985060845
 20
201.28877217190851
 30
0.0
  0
VERTEX
  5
14278
  8
0
 10
562.75183121689975
 20
202.9450280246277
 30
0.0
  0
VERTEX
  5
14279
  8
0
 10
563.01286007344856
 20
204.6176442890598
 30
0.0
  0
VERTEX
  5
1427A
  8
0
 10
563.11911761040619
 20
205.4589640533471
 30
0.0
  0
VERTEX
  5
1427B
  8
0
 10
563.20912476021886
 20
206.30302196958499
 30
0.0
  0
VERTEX
  5
1427C
  8
0
 10
563.34020297129223
 20
207.9975346116365
 30
0.0
  0
VERTEX
  5
1427D
  8
0
 10
563.4058126635498
 20
209.6975361048024
 30
0.0
  0
VERTEX
  5
1427E
  8
0
 10
563.41401718531836
 20
210.54845231651149
 30
0.0
  0
SEQEND
  5
1427F
  8
0
  0
POLYLINE
  5
B45B
  8
0
 66
     1
 10
0.0
 20
0.0
 30
0.0
  0
VERTEX
  5
14280
  8
0
 10
563.41401718531836
 20
210.54845231651149
 30
0.0
  0
VERTEX
  5
14281
  8
0
 10
563.41079125909528
 20
211.08203914675559
 30
0.0
  0
VERTEX
  5
14282
  8
0
 10
563.38498794356508
 20
212.1487613395141
 30
0.0
  0
VERTEX
  5
14283
  8
0
 10
563.3334031446858
 20
213.2141295110716
 30
0.0
  0
VERTEX
  5
14284
  8
0
 10
563.2979554771166
 20
213.7460240833359
 30
0.0
  0
VERTEX
  5
14285
  8
0
 10
563.2560805083474
 20
214.2772422535929
 30
0.0
  0
VERTEX
  5
14286
  8
0
 10
563.15308545721973
 20
215.3372000675615
 30
0.0
  0
VERTEX
  5
14287
  8
0
 10
563.02450513539827
 20
216.3931061228451
 30
0.0
  0
VERTEX
  5
14288
  8
0
 10
562.87044833467257
 20
217.4440670175041
 30
0.0
  0
VERTEX
  5
14289
  8
0
 10
562.69104540247645
 20
218.4891935336982
 30
0.0
  0
VERTEX
  5
1428A
  8
0
 10
562.48644813160104
 20
219.527601390054
 30
0.0
  0
VERTEX
  5
1428B
  8
0
 10
562.37475488713494
 20
220.04401101689911
 30
0.0
  0
VERTEX
  5
1428C
  8
0
 10
562.25682963176359
 20
220.5584119898547
 30
0.0
  0
VERTEX
  5
1428D
  8
0
 10
562.00238418313927
 20
221.58075316442159
 30
0.0
  0
VERTEX
  5
1428E
  8
0
 10
561.72332707198052
 20
222.59375991105469
 30
0.0
  0
VERTEX
  5
1428F
  8
0
 10
561.4198944084626
 20
223.59657512491239
 30
0.0
  0
VERTEX
  5
14290
  8
0
 10
561.09234292691281
 20
224.58835032420691
 30
0.0
  0
VERTEX
  5
14291
  8
0
 10
560.74094976858532
 20
225.56824636810549
 30
0.0
  0
VERTEX
  5
14292
  8
0
 10
560.55640468993624
 20
226.05348020433561
 30
0.0
  0
VERTEX
  5
14293
  8
0
 10
560.36601224717424
 20
226.53543416672611
 30
0.0
  0
VERTEX
  5
14294
  8
0
 10
559.96784759725415
 20
227.48909538263169
 30
0.0
  0
VERTEX
  5
14295
  8
0
 10
559.54679270587053
 20
228.42842312322389
 30
0.0
  0
VERTEX
  5
14296
  8
0
 10
559.32779200074367
 20
228.89246308400811
 30
0.0
  0
VERTEX
  5
14297
  8
0
 10
559.10320382749717
 20
229.3526226234562
 30
0.0
  0
VERTEX
  5
14298
  8
0
 10
558.63745628261154
 20
230.2609119182832
 30
0.0
  0
VERTEX
  5
14299
  8
0
 10
558.14994414013438
 20
231.15252250428179
 30
0.0
  0
VERTEX
  5
1429A
  8
0
 10
557.89815453613278
 20
231.59183696532321
 30
0.0
  0
VERTEX
  5
1429B
  8
0
 10
557.64107988400986
 20
232.02669998988191
 30
0.0
  0
VERTEX
  5
1429C
  8
0
 10
557.11129406420105
 20
232.8827047336566
 30
0.0
  0
VERTEX
  5
1429D
  8
0
 10
556.56103493240312
 20
233.71981247013289
 30
0.0
  0
VERTEX
  5
1429E
  8
0
 10
555.99076806277697
 20
234.53731492259271
 30
0.0
  0
VERTEX
  5
1429F
  8
0
 10
555.40097595802717
 20
235.33452040234539
 30
0.0
  0
VERTEX
  5
142A0
  8
0
 10
554.79215764115668
 20
236.11075439396529
 30
0.0
  0
VERTEX
  5
142A1
  8
0
 10
554.48077401150806
 20
236.4908011322232
 30
0.0
  0
VERTEX
  5
142A2
  8
0
 10
554.1648282332435
 20
236.8653601260001
 30
0.0
  0
VERTEX
  5
142A3
  8
0
 10
553.51951851759588
 20
237.59769912666371
 30
0.0
  0
VERTEX
  5
142A4
  8
0
 10
552.85677449065895
 20
238.3071517640482
 30
0.0
  0
VERTEX
  5
142A5
  8
0
 10
552.17715690004457
 20
238.9931177703937
 30
0.0
  0
VERTEX
  5
142A6
  8
0
 10
551.48124077008436
 20
239.655016749975
 30
0.0
  0
VERTEX
  5
142A7
  8
0
 10
550.76961491530164
 20
240.2922886701744
 30
0.0
  0
VERTEX
  5
142A8
  8
0
 10
550.40809849402535
 20
240.60152015781961
 30
0.0
  0
VERTEX
  5
142A9
  8
0
 10
550.04288144221505
 20
240.90439433532481
 30
0.0
  0
VERTEX
  5
142AA
  8
0
 10
549.30165523989638
 20
241.49081584292361
 30
0.0
  0
VERTEX
  5
142AB
  8
0
 10
548.54656345971443
 20
242.05105702182979
 30
0.0
  0
VERTEX
  5
142AC
  8
0
 10
547.7782449846992
 20
242.5846438520737
 30
0.0
  0
VERTEX
  5
142AD
  8
0
 10
546.99734988898695
 20
243.0911248659263
 30
0.0
  0
VERTEX
  5
142AE
  8
0
 10
546.20453888778934
 20
243.57007152988481
 30
0.0
  0
VERTEX
  5
142AF
  8
0
 10
545.80387416840972
 20
243.7990919246441
 30
0.0
  0
VERTEX
  5
142B0
  8
0
 10
545.40048277836411
 20
244.02107860725579
 30
0.0
  0
VERTEX
  5
142B1
  8
0
 10
544.58586187245373
 20
244.44376450102499
 30
0.0
  0
VERTEX
  5
142B2
  8
0
 10
543.76136542067229
 20
244.83777157672731
 30
0.0
  0
VERTEX
  5
142B3
  8
0
 10
542.92769102933221
 20
245.2027664650407
 30
0.0
  0
VERTEX
  5
142B4
  8
0
 10
542.08554407019869
 20
245.53844034385051
 30
0.0
  0
VERTEX
  5
142B5
  8
0
 10
541.23563708367601
 20
245.8445091995425
 30
0.0
  0
VERTEX
  5
142B6
  8
0
 10
540.80799806094524
 20
245.9863598326109
 30
0.0
  0
VERTEX
  5
142B7
  8
0
 10
540.37868917592516
 20
246.1207140673086
 30
0.0
  0
VERTEX
  5
142B8
  8
0
 10
539.51542541043068
 20
246.36682125025541
 30
0.0
  0
VERTEX
  5
142B9
  8
0
 10
538.64657619452191
 20
246.58262251713589
 30
0.0
  0
VERTEX
  5
142BA
  8
0
 10
537.77287666137795
 20
246.76793527853391
 30
0.0
  0
VERTEX
  5
142BB
  8
0
 10
536.89506604803
 20
246.92260274135219
 30
0.0
  0
VERTEX
  5
142BC
  8
0
 10
536.01388706989405
 20
247.04649404147591
 30
0.0
  0
VERTEX
  5
142BD
  8
0
 10
535.57226733912205
 20
247.09686485314739
 30
0.0
  0
VERTEX
  5
142BE
  8
0
 10
535.13008529235788
 20
247.13950435449641
 30
0.0
  0
VERTEX
  5
142BF
  8
0
 10
534.24440849996131
 20
247.2015549844032
 30
0.0
  0
VERTEX
  5
142C0
  8
0
 10
533.35760606369172
 20
247.23259343016861
 30
0.0
  0
VERTEX
  5
142C1
  8
0
 10
532.91401718531836
 20
247.2364738515046
 30
0.0
  0
VERTEX
  5
142C2
  8
0
 10
532.47042830694511
 20
247.23259343016861
 30
0.0
  0
VERTEX
  5
142C3
  8
0
 10
531.58362587067563
 20
247.2015549844032
 30
0.0
  0
VERTEX
  5
142C4
  8
0
 10
530.69794907827895
 20
247.13950435449641
 30
0.0
  0
VERTEX
  5
142C5
  8
0
 10
530.25576703151467
 20
247.09686485314739
 30
0.0
  0
VERTEX
  5
142C6
  8
0
 10
529.81414730074277
 20
247.04649404147591
 30
0.0
  0
VERTEX
  5
142C7
  8
0
 10
528.93296832260694
 20
246.92260274135219
 30
0.0
  0
VERTEX
  5
142C8
  8
0
 10
528.05515770925888
 20
246.76793527853391
 30
0.0
  0
VERTEX
  5
142C9
  8
0
 10
527.18145817611503
 20
246.58262251713589
 30
0.0
  0
VERTEX
  5
142CA
  8
0
 10
526.31260896020615
 20
246.36682125025541
 30
0.0
  0
VERTEX
  5
142CB
  8
0
 10
525.44934519471167
 20
246.1207140673086
 30
0.0
  0
VERTEX
  5
142CC
  8
0
 10
525.0200363096917
 20
245.9863598326109
 30
0.0
  0
VERTEX
  5
142CD
  8
0
 10
524.59239728696093
 20
245.8445091995425
 30
0.0
  0
VERTEX
  5
142CE
  8
0
 10
523.74249030043825
 20
245.53844034385051
 30
0.0
  0
VERTEX
  5
142CF
  8
0
 10
522.90034334130473
 20
245.20276646504081
 30
0.0
  0
VERTEX
  5
142D0
  8
0
 10
522.06666894996465
 20
244.83777157672731
 30
0.0
  0
VERTEX
  5
142D1
  8
0
 10
521.24217249818309
 20
244.44376450102499
 30
0.0
  0
VERTEX
  5
142D2
  8
0
 10
520.42755159227272
 20
244.02107860725579
 30
0.0
  0
VERTEX
  5
142D3
  8
0
 10
520.02416020222722
 20
243.7990919246441
 30
0.0
  0
VERTEX
  5
142D4
  8
0
 10
519.6234954828476
 20
243.57007152988481
 30
0.0
  0
VERTEX
  5
142D5
  8
0
 10
518.83068448165
 20
243.0911248659263
 30
0.0
  0
VERTEX
  5
142D6
  8
0
 10
518.04978938593763
 20
242.5846438520737
 30
0.0
  0
VERTEX
  5
142D7
  8
0
 10
517.28147091092251
 20
242.05105702182979
 30
0.0
  0
VERTEX
  5
142D8
  8
0
 10
516.52637913074045
 20
241.49081584292361
 30
0.0
  0
VERTEX
  5
142D9
  8
0
 10
515.78515292842189
 20
240.90439433532481
 30
0.0
  0
VERTEX
  5
142DA
  8
0
 10
515.41993587661148
 20
240.60152015781961
 30
0.0
  0
VERTEX
  5
142DB
  8
0
 10
515.0584194553353
 20
240.2922886701744
 30
0.0
  0
VERTEX
  5
142DC
  8
0
 10
514.34679360055236
 20
239.655016749975
 30
0.0
  0
VERTEX
  5
142DD
  8
0
 10
513.65087747059226
 20
238.99311777039381
 30
0.0
  0
VERTEX
  5
142DE
  8
0
 10
512.97125987997788
 20
238.3071517640482
 30
0.0
  0
VERTEX
  5
142DF
  8
0
 10
512.30851585304094
 20
237.59769912666371
 30
0.0
  0
VERTEX
  5
142E0
  8
0
 10
511.66320613739339
 20
236.8653601260001
 30
0.0
  0
VERTEX
  5
142E1
  8
0
 10
511.34726035912871
 20
236.4908011322232
 30
0.0
  0
VERTEX
  5
142E2
  8
0
 10
511.03587672948009
 20
236.11075439396529
 30
0.0
  0
VERTEX
  5
142E3
  8
0
 10
510.42705841260971
 20
235.33452040234539
 30
0.0
  0
VERTEX
  5
142E4
  8
0
 10
509.83726630785981
 20
234.53731492259271
 30
0.0
  0
VERTEX
  5
142E5
  8
0
 10
509.26699943823382
 20
233.71981247013289
 30
0.0
  0
VERTEX
  5
142E6
  8
0
 10
508.71674030643578
 20
232.88270473365671
 30
0.0
  0
VERTEX
  5
142E7
  8
0
 10
508.18695448662692
 20
232.02669998988191
 30
0.0
  0
VERTEX
  5
142E8
  8
0
 10
507.92987983450422
 20
231.59183696532321
 30
0.0
  0
VERTEX
  5
142E9
  8
0
 10
507.67809023050239
 20
231.15252250428179
 30
0.0
  0
VERTEX
  5
142EA
  8
0
 10
507.19057808802529
 20
230.2609119182832
 30
0.0
  0
VERTEX
  5
142EB
  8
0
 10
506.7248305431396
 20
229.3526226234562
 30
0.0
  0
VERTEX
  5
142EC
  8
0
 10
506.5002423698931
 20
228.89246308400811
 30
0.0
  0
VERTEX
  5
142ED
  8
0
 10
506.28124166476641
 20
228.42842312322389
 30
0.0
  0
VERTEX
  5
142EE
  8
0
 10
505.86018677338279
 20
227.48909538263169
 30
0.0
  0
VERTEX
  5
142EF
  8
0
 10
505.46202212346259
 20
226.53543416672611
 30
0.0
  0
VERTEX
  5
142F0
  8
0
 10
505.27162968070058
 20
226.0534802043357
 30
0.0
  0
VERTEX
  5
142F1
  8
0
 10
505.08708460205162
 20
225.56824636810549
 30
0.0
  0
VERTEX
  5
142F2
  8
0
 10
504.73569144372408
 20
224.58835032420711
 30
0.0
  0
VERTEX
  5
142F3
  8
0
 10
504.40813996217429
 20
223.59657512491239
 30
0.0
  0
VERTEX
  5
142F4
  8
0
 10
504.10470729865642
 20
222.59375991105469
 30
0.0
  0
VERTEX
  5
142F5
  8
0
 10
503.8256501874975
 20
221.58075316442159
 30
0.0
  0
VERTEX
  5
142F6
  8
0
 10
503.5712047388734
 20
220.5584119898547
 30
0.0
  0
VERTEX
  5
142F7
  8
0
 10
503.453279483502
 20
220.04401101689911
 30
0.0
  0
VERTEX
  5
142F8
  8
0
 10
503.34158623903579
 20
219.527601390054
 30
0.0
  0
VERTEX
  5
142F9
  8
0
 10
503.13698896816049
 20
218.4891935336982
 30
0.0
  0
VERTEX
  5
142FA
  8
0
 10
502.95758603596408
 20
217.4440670175041
 30
0.0
  0
VERTEX
  5
142FB
  8
0
 10
502.8035292352385
 20
216.3931061228451
 30
0.0
  0
VERTEX
  5
142FC
  8
0
 10
502.6749489134171
 20
215.3372000675615
 30
0.0
  0
VERTEX
  5
142FD
  8
0
 10
502.57195386228949
 20
214.2772422535929
 30
0.0
  0
VERTEX
  5
142FE
  8
0
 10
502.53007889352028
 20
213.7460240833359
 30
0.0
  0
VERTEX
  5
142FF
  8
0
 10
502.49463122595103
 20
213.2141295110716
 30
0.0
  0
VERTEX
  5
14300
  8
0
 10
502.44304642707169
 20
212.1487613395141
 30
0.0
  0
VERTEX
  5
14301
  8
0
 10
502.41724311154161
 20
211.08203914675559
 30
0.0
  0
VERTEX
  5
14302
  8
0
 10
502.41401718531853
 20
210.54845231651149
 30
0.0
  0
SEQEND
  5
14303
  8
0
  0
POLYLINE
  5
B45C
  8
0
 66
     1
 10
0.0
 20
0.0
 30
0.0
  0
VERTEX
  5
14304
  8
0
 10
502.41401718531853
 20
210.54845231651149
 30
0.0
  0
VERTEX
  5
14305
  8
0
 10
502.42222170708709
 20
209.6975361048024
 30
0.0
  0
VERTEX
  5
14306
  8
0
 10
502.48783139934471
 20
207.9975346116365
 30
0.0
  0
VERTEX
  5
14307
  8
0
 10
502.61890961041809
 20
206.30302196958499
 30
0.0
  0
VERTEX
  5
14308
  8
0
 10
502.70891676023069
 20
205.4589640533471
 30
0.0
  0
VERTEX
  5
14309
  8
0
 10
502.81517429718838
 20
204.6176442890598
 30
0.0
  0
VERTEX
  5
1430A
  8
0
 10
503.0762031537372
 20
202.9450280246277
 30
0.0
  0
VERTEX
  5
1430B
  8
0
 10
503.40143452002849
 20
201.28877217190851
 30
0.0
  0
VERTEX
  5
1430C
  8
0
 10
503.7901685904414
 20
199.65244052355871
 30
0.0
  0
VERTEX
  5
1430D
  8
0
 10
504.24156891955431
 20
198.0395540009994
 30
0.0
  0
VERTEX
  5
1430E
  8
0
 10
504.75466422193739
 20
196.4535830783939
 30
0.0
  0
VERTEX
  5
1430F
  8
0
 10
505.03400759953342
 20
195.67175985589259
 30
0.0
  0
VERTEX
  5
14310
  8
0
 10
505.32835046208351
 20
194.8979403151709
 30
0.0
  0
VERTEX
  5
14311
  8
0
 10
505.96139322997908
 20
193.37597301316561
 30
0.0
  0
VERTEX
  5
14312
  8
0
 10
506.6524303972044
 20
191.8909560141754
 30
0.0
  0
VERTEX
  5
14313
  8
0
 10
507.39997504784742
 20
190.44608465342949
 30
0.0
  0
VERTEX
  5
14314
  8
0
 10
508.20241867792532
 20
189.04446788413489
 30
0.0
  0
VERTEX
  5
14315
  8
0
 10
509.05803465642788
 20
187.6891215878903
 30
0.0
  0
VERTEX
  5
14316
  8
0
 10
509.50521131299593
 20
187.02971527957871
 30
0.0
  0
VERTEX
  5
14317
  8
0
 10
509.96498194053811
 20
186.38296208536499
 30
0.0
  0
VERTEX
  5
14318
  8
0
 10
510.92130903703418
 20
185.12879986120441
 30
0.0
  0
VERTEX
  5
14319
  8
0
 10
511.92495820134849
 20
183.9293335166642
 30
0.0
  0
VERTEX
  5
1431A
  8
0
 10
512.44385754574625
 20
183.35092258491591
 30
0.0
  0
SEQEND
  5
1431B
  8
0
  0
POLYLINE
  5
B45D
  8
0
 66
     1
 10
0.0
 20
0.0
 30
0.0
  0
VERTEX
  5
1431C
  8
0
 10
512.44385754574625
 20
183.35092258491591
 30
0.0
  0
VERTEX
  5
1431D
  8
0
 10
512.51238901323609
 20
183.27724021749469
 30
0.0
  0
VERTEX
  5
1431E
  8
0
 10
512.65210047204346
 20
183.13267580170259
 30
0.0
  0
VERTEX
  5
1431F
  8
0
 10
512.79530156643807
 20
182.9918455764913
 30
0.0
  0
VERTEX
  5
14320
  8
0
 10
512.86819437197948
 20
182.9228303541118
 30
0.0
  0
VERTEX
  5
14321
  8
0
 10
512.9419395885036
 20
182.85474781030581
 30
0.0
  0
VERTEX
  5
14322
  8
0
 10
513.09195888212287
 20
182.72137785184441
 30
0.0
  0
VERTEX
  5
14323
  8
0
 10
513.24530095107525
 20
182.5917277984891
 30
0.0
  0
VERTEX
  5
14324
  8
0
 10
513.40190613329742
 20
182.4657850284957
 30
0.0
  0
VERTEX
  5
14325
  8
0
 10
513.56171313591756
 20
182.34353276511439
 30
0.0
  0
VERTEX
  5
14326
  8
0
 10
513.72465563088235
 20
182.22495262183801
 30
0.0
  0
VERTEX
  5
14327
  8
0
 10
513.80728080604638
 20
182.1670331424107
 30
0.0
  0
VERTEX
  5
14328
  8
0
 10
513.89066308488646
 20
182.1100235910076
 30
0.0
  0
VERTEX
  5
14329
  8
0
 10
514.05966093367374
 20
181.99872170889449
 30
0.0
  0
VERTEX
  5
1432A
  8
0
 10
514.23157078514919
 20
181.8910197948835
 30
0.0
  0
VERTEX
  5
1432B
  8
0
 10
514.40631064654747
 20
181.7868872598074
 30
0.0
  0
VERTEX
  5
1432C
  8
0
 10
514.58379517149683
 20
181.6862899780561
 30
0.0
  0
VERTEX
  5
1432D
  8
0
 10
514.7639359236116
 20
181.5891902177363
 30
0.0
  0
VERTEX
  5
1432E
  8
0
 10
514.85497397159861
 20
181.54193912548101
 30
0.0
  0
VERTEX
  5
1432F
  8
0
 10
514.94664165399035
 20
181.49554662300761
 30
0.0
  0
VERTEX
  5
14330
  8
0
 10
515.13181859067004
 20
181.40531424274951
 30
0.0
  0
VERTEX
  5
14331
  8
0
 10
515.31937166055513
 20
181.31844418363141
 30
0.0
  0
VERTEX
  5
14332
  8
0
 10
515.41401718532052
 20
181.27625022784929
 30
0.0
  0
SEQEND
  5
14333
  8
0
  0
LINE
  5
B462
  8
0
 10
515.41401718531836
 20
240.596347929469
 30
0.0
 11
515.41401718531836
 21
179.74368873142211
 31
0.0
  0
LINE
  5
B466
  8
0
 10
550.41401718531836
 20
179.74368873142211
 30
0.0
 11
550.41401718531836
 21
240.596347929469
 31
0.0
  0
LINE
  5
B480
  8
0
 10
508.21401718531843
 20
183.928688731422
 30
0.0
 11
507.61401718531852
 21
183.928688731422
 31
0.0
  0
LINE
  5
B482
  8
0
 10
567.14701718531842
 20
185.74368873142211
 30
0.0
 11
565.21401718531843
 21
185.74368873142211
 31
0.0
  0
LINE
  5
B483
  8
0
 10
565.21401718531843
 20
193.74368873142211
 30
0.0
 11
567.14701718531842
 21
193.74368873142211
 31
0.0
  0
LINE
  5
B484
  8
0
 10
567.91401718531836
 20
186.51068873142211
 30
0.0
 11
567.14701718531842
 21
185.74368873142211
 31
0.0
  0
LINE
  5
B485
  8
0
 10
567.14701718531842
 20
193.74368873142211
 30
0.0
 11
567.91401718531836
 21
192.976688731422
 31
0.0
  0
LINE
  5
B487
  8
0
 10
503.17343689473381
 20
182.51718786206521
 30
0.0
 11
502.91401718531841
 21
183.4853553980887
 31
0.0
  0
LINE
  5
B489
  8
0
 10
507.61401718531852
 20
183.4853553980887
 30
0.0
 11
507.35459747590289
 21
182.51718786206521
 31
0.0
  0
LINE
  5
B48C
  8
0
 10
565.21401718531843
 20
183.928688731422
 30
0.0
 11
562.71401718531831
 21
183.928688731422
 31
0.0
  0
LINE
  5
B48E
  8
0
 10
563.47076915073308
 20
195.55868873142211
 30
0.0
 11
565.21401718531843
 21
195.55868873142211
 31
0.0
  0
LINE
  5
B490
  8
0
 10
557.47343689473405
 20
182.51718786206521
 30
0.0
 11
557.21401718531843
 21
183.4853553980887
 31
0.0
  0
LINE
  5
B492
  8
0
 10
562.71401718531831
 20
183.4853553980887
 30
0.0
 11
562.45459747590303
 21
182.51718786206521
 31
0.0
  0
LINE
  5
B496
  8
0
 10
550.41401718531745
 20
183.743688731422
 30
0.0
 11
547.91401718531847
 21
183.743688731422
 31
0.0
  0
LINE
  5
B498
  8
0
 10
517.91401718531836
 20
183.743688731422
 30
0.0
 11
515.41401718531927
 21
183.743688731422
 31
0.0
  0
LINE
  5
B49B
  8
0
 10
515.41401718531927
 20
195.74368873142211
 30
0.0
 11
517.91401718531836
 21
195.74368873142211
 31
0.0
  0
LINE
  5
B49D
  8
0
 10
547.91401718531847
 20
195.74368873142211
 30
0.0
 11
550.41401718531745
 21
195.74368873142211
 31
0.0
  0
LINE
  5
B4A0
  8
0
 10
508.21401718531843
 20
184.21987074381241
 30
0.0
 11
508.21401718531843
 21
183.928688731422
 31
0.0
  0
LINE
  5
B4A1
  8
0
 10
567.14701718531842
 20
193.74368873142211
 30
0.0
 11
567.14701718531842
 21
185.74368873142211
 31
0.0
  0
LINE
  5
B4A2
  8
0
 10
567.91401718531836
 20
192.976688731422
 30
0.0
 11
567.91401718531836
 21
186.51068873142211
 31
0.0
  0
LINE
  5
B4A4
  8
0
 10
502.91401718531841
 20
194.0134574941543
 30
0.0
 11
502.91401718531841
 21
183.4853553980887
 31
0.0
  0
LINE
  5
B4A6
  8
0
 10
507.61401718531852
 20
185.06004016574971
 30
0.0
 11
507.61401718531852
 21
183.4853553980887
 31
0.0
  0
POLYLINE
  5
B4A7
  8
0
 66
     1
 10
0.0
 20
0.0
 30
0.0
  0
VERTEX
  5
14334
  8
0
 10
503.17343689473381
 20
186.13043829674359
 30
0.0
  0
VERTEX
  5
14335
  8
0
 10
503.09259224147581
 20
185.8058644010714
 30
0.0
  0
VERTEX
  5
14336
  8
0
 10
502.97798190272277
 20
185.1963038222996
 30
0.0
  0
VERTEX
  5
14337
  8
0
 10
502.92120731893817
 20
184.61389565072389
 30
0.0
  0
VERTEX
  5
14338
  8
0
 10
502.91401718531841
 20
184.32381307940449
 30
0.0
  0
SEQEND
  5
14339
  8
0
  0
POLYLINE
  5
B4A8
  8
0
 66
     1
 10
0.0
 20
0.0
 30
0.0
  0
VERTEX
  5
1433A
  8
0
 10
502.91401718531841
 20
184.32381307940449
 30
0.0
  0
VERTEX
  5
1433B
  8
0
 10
502.92120731893817
 20
184.033730508085
 30
0.0
  0
VERTEX
  5
1433C
  8
0
 10
502.97798190272277
 20
183.45132233650929
 30
0.0
  0
VERTEX
  5
1433D
  8
0
 10
503.09259224147581
 20
182.84176175773749
 30
0.0
  0
VERTEX
  5
1433E
  8
0
 10
503.17343689473381
 20
182.51718786206521
 30
0.0
  0
SEQEND
  5
1433F
  8
0
  0
POLYLINE
  5
B4A9
  8
0
 66
     1
 10
0.0
 20
0.0
 30
0.0
  0
VERTEX
  5
14340
  8
0
 10
507.35459747590289
 20
182.51718786206521
 30
0.0
  0
VERTEX
  5
14341
  8
0
 10
507.43544212916112
 20
182.84176175773749
 30
0.0
  0
VERTEX
  5
14342
  8
0
 10
507.5500524679141
 20
183.45132233650929
 30
0.0
  0
VERTEX
  5
14343
  8
0
 10
507.60682705169847
 20
184.033730508085
 30
0.0
  0
VERTEX
  5
14344
  8
0
 10
507.61401718531852
 20
184.32381307940449
 30
0.0
  0
SEQEND
  5
14345
  8
0
  0
POLYLINE
  5
B4AA
  8
0
 66
     1
 10
0.0
 20
0.0
 30
0.0
  0
VERTEX
  5
14346
  8
0
 10
507.61401718531852
 20
184.32381307940449
 30
0.0
  0
VERTEX
  5
14347
  8
0
 10
507.6124206768838
 20
184.46038992346871
 30
0.0
  0
VERTEX
  5
14348
  8
0
 10
507.59978679433368
 20
184.73233555023739
 30
0.0
  0
VERTEX
  5
14349
  8
0
 10
507.57472155807949
 20
185.00519354804661
 30
0.0
  0
VERTEX
  5
1434A
  8
0
 10
507.55752061699172
 20
185.14289363608901
 30
0.0
  0
SEQEND
  5
1434B
  8
0
  0
LINE
  5
B4AC
  8
0
 10
503.17343689473381
 20
182.51718786206521
 30
0.0
 11
507.35459747590289
 21
182.51718786206521
 31
0.0
  0
POLYLINE
  5
B4C1
  8
0
 66
     1
 10
0.0
 20
0.0
 30
0.0
  0
VERTEX
  5
1434C
  8
0
 10
503.17240830527658
 20
193.3492555393612
 30
0.0
  0
VERTEX
  5
1434D
  8
0
 10
503.09189518826878
 20
192.70170875379421
 30
0.0
  0
VERTEX
  5
1434E
  8
0
 10
502.97773690078287
 20
191.4852627135642
 30
0.0
  0
VERTEX
  5
1434F
  8
0
 10
502.92117984897021
 20
190.3227421841691
 30
0.0
  0
VERTEX
  5
14350
  8
0
 10
502.91401718531841
 20
189.74368873142211
 30
0.0
  0
SEQEND
  5
14351
  8
0
  0
POLYLINE
  5
B4C2
  8
0
 66
     1
 10
0.0
 20
0.0
 30
0.0
  0
VERTEX
  5
14352
  8
0
 10
502.91401718531841
 20
189.74368873142211
 30
0.0
  0
VERTEX
  5
14353
  8
0
 10
502.92120731893851
 20
189.16352358878311
 30
0.0
  0
VERTEX
  5
14354
  8
0
 10
502.97798190272277
 20
187.99870724563181
 30
0.0
  0
VERTEX
  5
14355
  8
0
 10
503.09259224147581
 20
186.77958608808811
 30
0.0
  0
VERTEX
  5
14356
  8
0
 10
503.17343689473381
 20
186.13043829674359
 30
0.0
  0
SEQEND
  5
14357
  8
0
  0
LINE
  5
B4C3
  8
0
 10
503.17343689473381
 20
186.13043829674359
 30
0.0
 11
506.8961207735797
 21
186.13043829674359
 31
0.0
  0
LINE
  5
B4C6
  8
0
 10
565.21401718531843
 20
195.55868873142211
 30
0.0
 11
565.21401718531843
 21
183.928688731422
 31
0.0
  0
LINE
  5
B4C8
  8
0
 10
557.21401718531843
 20
183.68337325811041
 30
0.0
 11
557.21401718531843
 21
183.4853553980887
 31
0.0
  0
LINE
  5
B4CA
  8
0
 10
562.71401718531831
 20
193.4995258297256
 30
0.0
 11
562.71401718531831
 21
183.4853553980887
 31
0.0
  0
POLYLINE
  5
B4CD
  8
0
 66
     1
 10
0.0
 20
0.0
 30
0.0
  0
VERTEX
  5
14358
  8
0
 10
557.24375137986146
 20
183.73193412493771
 30
0.0
  0
VERTEX
  5
14359
  8
0
 10
557.26592296564866
 20
183.53924445496011
 30
0.0
  0
VERTEX
  5
1435A
  8
0
 10
557.32898191130312
 20
183.1454226634998
 30
0.0
  0
VERTEX
  5
1435B
  8
0
 10
557.41824109885067
 20
182.73315382872539
 30
0.0
  0
VERTEX
  5
1435C
  8
0
 10
557.47343689473405
 20
182.51718786206521
 30
0.0
  0
SEQEND
  5
1435D
  8
0
  0
POLYLINE
  5
B4CE
  8
0
 66
     1
 10
0.0
 20
0.0
 30
0.0
  0
VERTEX
  5
1435E
  8
0
 10
562.45459747590303
 20
182.51718786206521
 30
0.0
  0
VERTEX
  5
1435F
  8
0
 10
562.53544212916108
 20
182.84176175773749
 30
0.0
  0
VERTEX
  5
14360
  8
0
 10
562.65005246791418
 20
183.45132233650929
 30
0.0
  0
VERTEX
  5
14361
  8
0
 10
562.70682705169861
 20
184.033730508085
 30
0.0
  0
VERTEX
  5
14362
  8
0
 10
562.71401718531831
 20
184.32381307940449
 30
0.0
  0
SEQEND
  5
14363
  8
0
  0
POLYLINE
  5
B4CF
  8
0
 66
     1
 10
0.0
 20
0.0
 30
0.0
  0
VERTEX
  5
14364
  8
0
 10
562.71401718531831
 20
184.32381307940449
 30
0.0
  0
VERTEX
  5
14365
  8
0
 10
562.70682705169861
 20
184.61389565072389
 30
0.0
  0
VERTEX
  5
14366
  8
0
 10
562.65005246791418
 20
185.1963038222996
 30
0.0
  0
VERTEX
  5
14367
  8
0
 10
562.53544212916108
 20
185.8058644010714
 30
0.0
  0
VERTEX
  5
14368
  8
0
 10
562.45459747590303
 20
186.13043829674359
 30
0.0
  0
SEQEND
  5
14369
  8
0
  0
LINE
  5
B4D0
  8
0
 10
557.47343689473405
 20
182.51718786206521
 30
0.0
 11
562.45459747590303
 21
182.51718786206521
 31
0.0
  0
POLYLINE
  5
B4E2
  8
0
 66
     1
 10
0.0
 20
0.0
 30
0.0
  0
VERTEX
  5
1436A
  8
0
 10
562.71401718531831
 20
189.74368873142211
 30
0.0
  0
VERTEX
  5
1436B
  8
0
 10
562.70817969470431
 20
190.26633618712231
 30
0.0
  0
VERTEX
  5
1436C
  8
0
 10
562.66210383352313
 20
191.3129421650313
 30
0.0
  0
VERTEX
  5
1436D
  8
0
 10
562.56958917538464
 20
192.39645645457341
 30
0.0
  0
VERTEX
  5
1436E
  8
0
 10
562.50482290400555
 20
192.96573584739281
 30
0.0
  0
SEQEND
  5
1436F
  8
0
  0
LINE
  5
B4E8
  8
0
 10
558.93191359705725
 20
186.13043829674359
 30
0.0
 11
562.45459747590303
 21
186.13043829674359
 31
0.0
  0
POLYLINE
  5
B4E9
  8
0
 66
     1
 10
0.0
 20
0.0
 30
0.0
  0
VERTEX
  5
14370
  8
0
 10
562.45459747590303
 20
186.13043829674359
 30
0.0
  0
VERTEX
  5
14371
  8
0
 10
562.53544212916108
 20
186.77958608808811
 30
0.0
  0
VERTEX
  5
14372
  8
0
 10
562.65005246791407
 20
187.99870724563181
 30
0.0
  0
VERTEX
  5
14373
  8
0
 10
562.70682705169861
 20
189.16352358878311
 30
0.0
  0
VERTEX
  5
14374
  8
0
 10
562.71401718531831
 20
189.74368873142211
 30
0.0
  0
SEQEND
  5
14375
  8
0
  0
LINE
  5
B4EE
  8
0
 10
517.91401718531836
 20
193.74368873142211
 30
0.0
 11
517.91401718531836
 21
185.74368873142211
 31
0.0
  0
ARC
  5
B511
  8
0
 10
519.91401718531836
 20
236.652725911717
 30
0.0
 40
2.0000000000000009
 50
99.594068226851689
 51
180.0
  0
ARC
  5
B512
  8
0
 10
519.91401718531836
 20
142.83465155112711
 30
0.0
 40
2.000000000000008
 50
180.0
 51
260.40593177314832
  0
ARC
  5
B513
  8
0
 10
532.91401718531836
 20
159.74368873142311
 30
0.0
 40
79.999999999998934
 50
80.405931773148325
 51
99.594068226851689
  0
ARC
  5
B514
  8
0
 10
532.91401718531836
 20
219.74368873142151
 30
0.0
 40
79.999999999999432
 50
260.40593177314832
 51
279.59406822687799
  0
ARC
  5
B515
  8
0
 10
545.91401718531836
 20
236.65272591171711
 30
0.0
 40
1.999999999999966
 50
0.0
 51
80.405931773148325
  0
ARC
  5
B516
  8
0
 10
545.91401718531836
 20
142.834651551127
 30
0.0
 40
1.9999999999999749
 50
279.59406822687799
 51
0.0
  0
LINE
  5
B521
  8
0
 10
517.91401718531836
 20
236.652725911717
 30
0.0
 11
517.91401718531836
 21
142.83465155112711
 31
0.0
  0
LINE
  5
B523
  8
0
 10
547.91401718531847
 20
236.652725911717
 30
0.0
 11
547.91401718531847
 21
142.83465155112711
 31
0.0
  0
LINE
  5
B548
  8
0
 10
388.70231598404757
 20
264.44368873142213
 30
0.0
 11
388.70231598404757
 21
265.24368873142208
 31
0.0
  0
LINE
  5
B549
  8
0
 10
319.10231598404749
 20
265.24368873142208
 30
0.0
 11
319.10231598404749
 21
264.44368873142213
 31
0.0
  0
LINE
  5
B54A
  8
0
 10
388.40353664802552
 20
255.9436887314221
 30
0.0
 11
389.90231598404762
 21
264.44368873142213
 31
0.0
  0
LINE
  5
B54B
  8
0
 10
317.90231598404762
 20
264.44368873142213
 30
0.0
 11
319.4010953200696
 21
255.9436887314221
 31
0.0
  0
LINE
  5
B54C
  8
0
 10
386.90231598404762
 20
250.24368873142211
 30
0.0
 11
386.90231598404762
 21
255.9436887314221
 31
0.0
  0
LINE
  5
B54D
  8
0
 10
320.90231598404762
 20
255.9436887314221
 30
0.0
 11
320.90231598404762
 21
253.9436887314221
 31
0.0
  0
LINE
  5
B550
  8
0
 10
403.90231598404762
 20
267.74368873142208
 30
0.0
 11
403.90231598404762
 21
265.24368873142208
 31
0.0
  0
LINE
  5
B552
  8
0
 10
303.90231598404762
 20
267.74368873142208
 30
0.0
 11
303.90231598404762
 21
265.24368873142208
 31
0.0
  0
LINE
  5
B553
  8
0
 10
303.90231598404762
 20
267.74368873142208
 30
0.0
 11
403.90231598404762
 21
267.74368873142208
 31
0.0
  0
LINE
  5
B555
  8
0
 10
303.90231598404762
 20
265.24368873142208
 30
0.0
 11
403.90231598404762
 21
265.24368873142208
 31
0.0
  0
LINE
  5
B569
  8
0
 10
317.90231598404762
 20
264.44368873142213
 30
0.0
 11
389.90231598404762
 21
264.44368873142213
 31
0.0
  0
LINE
  5
B56A
  8
0
 10
319.4010953200696
 20
255.9436887314221
 30
0.0
 11
388.40353664802552
 21
255.9436887314221
 31
0.0
  0
LINE
  5
B56B
  8
0
 10
328.04211490207609
 20
253.9436887314221
 30
0.0
 11
315.40231598404762
 21
253.9436887314221
 31
0.0
  0
LINE
  5
B56C
  8
0
 10
328.04211490207609
 20
253.9436887314221
 30
0.0
 11
328.04211490207609
 21
180.7833212407734
 31
0.0
  0
LINE
  5
B56D
  8
0
 10
315.40231598404762
 20
253.9436887314221
 30
0.0
 11
315.40231598404762
 21
250.24368873142211
 31
0.0
  0
POLYLINE
  5
B56E
  8
0
 66
     1
 10
0.0
 20
0.0
 30
0.0
  0
VERTEX
  5
14376
  8
0
 10
331.29208457588987
 20
183.35092258491591
 30
0.0
  0
VERTEX
  5
14377
  8
0
 10
331.55219042954309
 20
183.66380026229979
 30
0.0
  0
VERTEX
  5
14378
  8
0
 10
332.08014428159731
 20
184.29886853422269
 30
0.0
  0
VERTEX
  5
14379
  8
0
 10
332.61821649775197
 20
184.9461080441788
 30
0.0
  0
VERTEX
  5
1437A
  8
0
 10
332.89096920690281
 20
185.2741984463774
 30
0.0
  0
VERTEX
  5
1437B
  8
0
 10
333.16615758814532
 20
185.60521868431829
 30
0.0
  0
VERTEX
  5
1437C
  8
0
 10
333.7237134869797
 20
186.2758948424628
 30
0.0
  0
VERTEX
  5
1437D
  8
0
 10
334.29062567032543
 20
186.95782554380821
 30
0.0
  0
VERTEX
  5
1437E
  8
0
 10
334.86663127599058
 20
187.6506945951169
 30
0.0
  0
VERTEX
  5
1437F
  8
0
 10
335.45146322540359
 20
188.35418073132749
 30
0.0
  0
VERTEX
  5
14380
  8
0
 10
336.04485034745107
 20
189.06795776451651
 30
0.0
  0
VERTEX
  5
14381
  8
0
 10
336.34466626908988
 20
189.4286021248318
 30
0.0
  0
VERTEX
  5
14382
  8
0
 10
336.64651750421223
 20
189.7916947351442
 30
0.0
  0
VERTEX
  5
14383
  8
0
 10
337.25618571853238
 20
190.52505606551091
 30
0.0
  0
VERTEX
  5
14384
  8
0
 10
337.87357230337881
 20
191.2677017153556
 30
0.0
  0
VERTEX
  5
14385
  8
0
 10
338.49839099291421
 20
192.019287339524
 30
0.0
  0
VERTEX
  5
14386
  8
0
 10
339.13035207523058
 20
192.77946444763239
 30
0.0
  0
VERTEX
  5
14387
  8
0
 10
339.76916252668138
 20
193.54788056565209
 30
0.0
  0
VERTEX
  5
14388
  8
0
 10
340.09104382379468
 20
193.93506705615081
 30
0.0
  0
VERTEX
  5
14389
  8
0
 10
340.4145261477488
 20
194.3241793993447
 30
0.0
  0
VERTEX
  5
1438A
  8
0
 10
341.06614370038318
 20
195.10800099946371
 30
0.0
  0
VERTEX
  5
1438B
  8
0
 10
341.72371304675238
 20
195.8989819286553
 30
0.0
  0
VERTEX
  5
1438C
  8
0
 10
342.05463446605518
 20
196.29704265513979
 30
0.0
  0
VERTEX
  5
1438D
  8
0
 10
342.38692928933511
 20
196.6967554299743
 30
0.0
  0
VERTEX
  5
1438E
  8
0
 10
343.05548491229268
 20
197.50095159693871
 30
0.0
  0
VERTEX
  5
1438F
  8
0
 10
343.72906992405802
 20
198.31119754504681
 30
0.0
  0
VERTEX
  5
14390
  8
0
 10
344.06765093677132
 20
198.7184718888422
 30
0.0
  0
VERTEX
  5
14391
  8
0
 10
344.40737200106878
 20
199.12711758467299
 30
0.0
  0
VERTEX
  5
14392
  8
0
 10
345.09007663258438
 20
199.94833339526579
 30
0.0
  0
VERTEX
  5
14393
  8
0
 10
345.77686726651569
 20
200.77446420076441
 30
0.0
  0
VERTEX
  5
14394
  8
0
 10
346.4674254562031
 20
201.60512694615491
 30
0.0
  0
VERTEX
  5
14395
  8
0
 10
347.16143100806988
 20
202.43993647508279
 30
0.0
  0
VERTEX
  5
14396
  8
0
 10
347.85856213008992
 20
203.2785057084395
 30
0.0
  0
VERTEX
  5
14397
  8
0
 10
348.20819881952713
 20
203.69907877045571
 30
0.0
  0
VERTEX
  5
14398
  8
0
 10
348.55849558099158
 20
204.1204458238409
 30
0.0
  0
VERTEX
  5
14399
  8
0
 10
349.26090682013819
 20
204.96536643591421
 30
0.0
  0
VERTEX
  5
1439A
  8
0
 10
349.9654701580082
 20
205.8128757773089
 30
0.0
  0
VERTEX
  5
1439B
  8
0
 10
350.67185890720839
 20
206.66258088034931
 30
0.0
  0
VERTEX
  5
1439C
  8
0
 10
351.37974553395043
 20
207.51408775924281
 30
0.0
  0
VERTEX
  5
1439D
  8
0
 10
352.08880180992082
 20
208.3670015927614
 30
0.0
  0
VERTEX
  5
1439E
  8
0
 10
352.44366584255607
 20
208.79386255247701
 30
0.0
  0
VERTEX
  5
1439F
  8
0
 10
352.79869896446922
 20
209.22092690730889
 30
0.0
  0
VERTEX
  5
143A0
  8
0
 10
353.50910783705291
 20
210.07546776029261
 30
0.0
  0
VERTEX
  5
143A1
  8
0
 10
354.21969902985887
 20
210.9302279237105
 30
0.0
  0
VERTEX
  5
143A2
  8
0
 10
354.93014306053738
 20
211.78481106787271
 30
0.0
  0
VERTEX
  5
143A3
  8
0
 10
355.64011051497351
 20
212.63882094516751
 30
0.0
  0
VERTEX
  5
143A4
  8
0
 10
356.34927220002828
 20
213.49186157379299
 30
0.0
  0
VERTEX
  5
143A5
  8
0
 10
356.703448104171
 20
213.9178947934117
 30
0.0
  0
VERTEX
  5
143A6
  8
0
 10
357.0572992961761
 20
214.34353742136139
 30
0.0
  0
VERTEX
  5
143A7
  8
0
 10
357.76386350997149
 20
215.19345358829841
 30
0.0
  0
VERTEX
  5
143A8
  8
0
 10
358.46863722626767
 20
216.04121599094671
 30
0.0
  0
VERTEX
  5
143A9
  8
0
 10
359.17129366012477
 20
216.88643154429269
 30
0.0
  0
VERTEX
  5
143AA
  8
0
 10
359.87150700833081
 20
217.72870834422949
 30
0.0
  0
VERTEX
  5
143AB
  8
0
 10
360.56895260046809
 20
218.5676558492724
 30
0.0
  0
VERTEX
  5
143AC
  8
0
 10
360.91653637531272
 20
218.98575948916459
 30
0.0
  0
VERTEX
  5
143AD
  8
0
 10
361.26330704945349
 20
219.40288506164291
 30
0.0
  0
VERTEX
  5
143AE
  8
0
 10
361.9542484014865
 20
220.23400870763629
 30
0.0
  0
VERTEX
  5
143AF
  8
0
 10
362.64145628532839
 20
221.06064141719051
 30
0.0
  0
VERTEX
  5
143B0
  8
0
 10
363.324612060851
 20
221.88239990257219
 30
0.0
  0
VERTEX
  5
143B1
  8
0
 10
364.0033989667827
 20
222.69890313609659
 30
0.0
  0
VERTEX
  5
143B2
  8
0
 10
364.67750226758022
 20
223.50977252680039
 30
0.0
  0
VERTEX
  5
143B3
  8
0
 10
365.0126998010407
 20
223.91297693093389
 30
0.0
  0
VERTEX
  5
143B4
  8
0
 10
365.3466093993643
 20
224.31463209598431
 30
0.0
  0
VERTEX
  5
143B5
  8
0
 10
366.01041011484722
 20
225.11310865154431
 30
0.0
  0
VERTEX
  5
143B6
  8
0
 10
366.66859662718639
 20
225.9048319610113
 30
0.0
  0
VERTEX
  5
143B7
  8
0
 10
366.9954890817117
 20
226.29804630236401
 30
0.0
  0
VERTEX
  5
143B8
  8
0
 10
367.3208637526966
 20
226.68943492321759
 30
0.0
  0
VERTEX
  5
143B9
  8
0
 10
367.96690905235619
 20
227.46655373851209
 30
0.0
  0
VERTEX
  5
143BA
  8
0
 10
368.60643297203887
 20
228.2358280774454
 30
0.0
  0
VERTEX
  5
143BB
  8
0
 10
368.92365662677321
 20
228.617411955357
 30
0.0
  0
VERTEX
  5
143BC
  8
0
 10
369.23913898141058
 20
228.99690124784379
 30
0.0
  0
VERTEX
  5
143BD
  8
0
 10
369.8647337114221
 20
229.74942036019911
 30
0.0
  0
VERTEX
  5
143BE
  8
0
 10
370.48292709033558
 20
230.4930364912932
 30
0.0
  0
VERTEX
  5
143BF
  8
0
 10
371.09343247822471
 20
231.22740484598529
 30
0.0
  0
VERTEX
  5
143C0
  8
0
 10
371.69596679988149
 20
231.9521849170842
 30
0.0
  0
VERTEX
  5
143C1
  8
0
 10
372.29025067607017
 20
232.66704064323179
 30
0.0
  0
VERTEX
  5
143C2
  8
0
 10
372.58421243363551
 20
233.02064311182281
 30
0.0
  0
VERTEX
  5
143C3
  8
0
 10
372.87600855306852
 20
233.3716405647271
 30
0.0
  0
VERTEX
  5
143C4
  8
0
 10
373.45296883043471
 20
234.06565797721379
 30
0.0
  0
VERTEX
  5
143C5
  8
0
 10
374.02086398694132
 20
234.74877108316599
 30
0.0
  0
VERTEX
  5
143C6
  8
0
 10
374.57943070461829
 20
235.42066314109579
 30
0.0
  0
VERTEX
  5
143C7
  8
0
 10
375.12840999084528
 20
236.0810226124191
 30
0.0
  0
VERTEX
  5
143C8
  8
0
 10
375.6675472984407
 20
236.7295433059069
 30
0.0
  0
VERTEX
  5
143C9
  8
0
 10
375.93334690889583
 20
237.04926992336181
 30
0.0
  0
VERTEX
  5
143CA
  8
0
 10
376.19659264368852
 20
237.3659245196591
 30
0.0
  0
VERTEX
  5
143CB
  8
0
 10
376.71530072224868
 20
237.9898711805308
 30
0.0
  0
VERTEX
  5
143CC
  8
0
 10
377.22343102289801
 20
238.60109398095079
 30
0.0
  0
VERTEX
  5
143CD
  8
0
 10
377.72074793904989
 20
239.1993095130656
 30
0.0
  0
VERTEX
  5
143CE
  8
0
 10
378.20702087799827
 20
239.78424040014841
 30
0.0
  0
VERTEX
  5
143CF
  8
0
 10
378.6820243678369
 20
240.35561542521029
 30
0.0
  0
VERTEX
  5
143D0
  8
0
 10
378.91523103536571
 20
240.63613644948549
 30
0.0
  0
VERTEX
  5
143D1
  8
0
 10
379.1455381620051
 20
240.91316965675821
 30
0.0
  0
VERTEX
  5
143D2
  8
0
 10
379.59734734141063
 20
241.4566445716348
 30
0.0
  0
VERTEX
  5
143D3
  8
0
 10
380.03724241408167
 20
241.98578817489039
 30
0.0
  0
VERTEX
  5
143D4
  8
0
 10
380.46501941230281
 20
242.500355116625
 30
0.0
  0
VERTEX
  5
143D5
  8
0
 10
380.88047998718872
 20
243.00010680575161
 30
0.0
  0
VERTEX
  5
143D6
  8
0
 10
381.28343150065479
 20
243.48481152062399
 30
0.0
  0
VERTEX
  5
143D7
  8
0
 10
381.48015774353729
 20
243.7214507545703
 30
0.0
  0
VERTEX
  5
143D8
  8
0
 10
381.6736871147375
 20
243.95424451648
 30
0.0
  0
VERTEX
  5
143D9
  8
0
 10
382.05106587822519
 20
244.4081881296502
 30
0.0
  0
VERTEX
  5
143DA
  8
0
 10
382.41539281056248
 20
244.84643187848189
 30
0.0
  0
VERTEX
  5
143DB
  8
0
 10
382.76649898298268
 20
245.2687725609351
 30
0.0
  0
VERTEX
  5
143DC
  8
0
 10
383.104221596836
 20
245.67501434880049
 30
0.0
  0
VERTEX
  5
143DD
  8
0
 10
383.42840405907441
 20
246.0649688785013
 30
0.0
  0
VERTEX
  5
143DE
  8
0
 10
383.5853705127829
 20
246.25378162059749
 30
0.0
  0
VERTEX
  5
143DF
  8
0
 10
383.73889605486102
 20
246.43845533843111
 30
0.0
  0
VERTEX
  5
143E0
  8
0
 10
384.03555361726558
 20
246.7953005527925
 30
0.0
  0
VERTEX
  5
143E1
  8
0
 10
384.3182391940199
 20
247.1353390618938
 30
0.0
  0
VERTEX
  5
143E2
  8
0
 10
384.45430127245982
 20
247.29900622464481
 30
0.0
  0
VERTEX
  5
143E3
  8
0
 10
384.58682171129482
 20
247.4584131988677
 30
0.0
  0
VERTEX
  5
143E4
  8
0
 10
384.84117663447802
 20
247.7643731627783
 30
0.0
  0
VERTEX
  5
143E5
  8
0
 10
385.08118602591571
 20
248.05307708807899
 30
0.0
  0
VERTEX
  5
143E6
  8
0
 10
385.1957761090901
 20
248.19091588936431
 30
0.0
  0
VERTEX
  5
143E7
  8
0
 10
385.30673859959848
 20
248.3243911103921
 30
0.0
  0
VERTEX
  5
143E8
  8
0
 10
385.51772977276119
 20
248.5781894285785
 30
0.0
  0
VERTEX
  5
143E9
  8
0
 10
385.71406171437428
 20
248.81435436306751
 30
0.0
  0
VERTEX
  5
143EA
  8
0
 10
385.89564339050759
 20
249.03277641042251
 30
0.0
  0
VERTEX
  5
143EB
  8
0
 10
386.0623906065378
 20
249.23335429411489
 30
0.0
  0
VERTEX
  5
143EC
  8
0
 10
386.2142260461892
 20
249.41599501148261
 30
0.0
  0
VERTEX
  5
143ED
  8
0
 10
386.2845295782231
 20
249.50056214253959
 30
0.0
  0
VERTEX
  5
143EE
  8
0
 10
386.35107930738309
 20
249.5806138768535
 30
0.0
  0
VERTEX
  5
143EF
  8
0
 10
386.47288693487991
 20
249.72713456081181
 30
0.0
  0
VERTEX
  5
143F0
  8
0
 10
386.57959244970289
 20
249.8554891255898
 30
0.0
  0
VERTEX
  5
143F1
  8
0
 10
386.67114637532609
 20
249.96561805656941
 30
0.0
  0
VERTEX
  5
143F2
  8
0
 10
386.7475062606145
 20
250.0574702898767
 30
0.0
  0
VERTEX
  5
143F3
  8
0
 10
386.80863669950833
 20
250.1310032360594
 30
0.0
  0
VERTEX
  5
143F4
  8
0
 10
386.83348174265802
 20
250.16088898944031
 30
0.0
  0
VERTEX
  5
143F5
  8
0
 10
386.85450934743858
 20
250.1861827998344
 30
0.0
  0
VERTEX
  5
143F6
  8
0
 10
386.88510293447172
 20
250.22298339589679
 30
0.0
  0
VERTEX
  5
143F7
  8
0
 10
386.90040327516999
 20
250.2413879607831
 30
0.0
  0
VERTEX
  5
143F8
  8
0
 10
386.90231598404762
 20
250.24368873142211
 30
0.0
  0
SEQEND
  5
143F9
  8
0
  0
ARC
  5
B56F
  8
0
 10
323.60231598404738
 20
189.74368873142211
 30
0.0
 40
10.00000000000008
 50
270.0
 51
296.35809099380839
  0
POLYLINE
  5
B570
  8
0
 66
     1
 10
0.0
 20
0.0
 30
0.0
  0
VERTEX
  5
143FA
  8
0
 10
328.04211490207609
 20
180.7833212407734
 30
0.0
  0
VERTEX
  5
143FB
  8
0
 10
328.12920930661812
 20
180.8270056684178
 30
0.0
  0
VERTEX
  5
143FC
  8
0
 10
328.30412642199121
 20
180.91798883817609
 30
0.0
  0
VERTEX
  5
143FD
  8
0
 10
328.47995489093501
 20
181.0139327958864
 30
0.0
  0
VERTEX
  5
143FE
  8
0
 10
328.56818806407182
 20
181.06382038651981
 30
0.0
  0
VERTEX
  5
143FF
  8
0
 10
328.65662141550479
 20
181.1150157972136
 30
0.0
  0
VERTEX
  5
14400
  8
0
 10
328.83405025714052
 20
181.2214263266527
 30
0.0
  0
VERTEX
  5
14401
  8
0
 10
329.01216240825488
 20
181.33336402505719
 30
0.0
  0
VERTEX
  5
14402
  8
0
 10
329.19087453718112
 20
181.45104058392431
 30
0.0
  0
VERTEX
  5
14403
  8
0
 10
329.37009768687648
 20
181.57468057690841
 30
0.0
  0
VERTEX
  5
14404
  8
0
 10
329.54973571125538
 20
181.70452219574071
 30
0.0
  0
VERTEX
  5
14405
  8
0
 10
329.63967784358812
 20
181.77184692560539
 30
0.0
  0
VERTEX
  5
14406
  8
0
 10
329.73000268707762
 20
181.84106539043529
 30
0.0
  0
VERTEX
  5
14407
  8
0
 10
329.91265020077248
 20
181.98613228153209
 30
0.0
  0
VERTEX
  5
14408
  8
0
 10
330.09731144060788
 20
182.14006893429519
 30
0.0
  0
VERTEX
  5
14409
  8
0
 10
330.28319438148043
 20
182.30286459435811
 30
0.0
  0
VERTEX
  5
1440A
  8
0
 10
330.46950336038032
 20
182.47445647909049
 30
0.0
  0
VERTEX
  5
1440B
  8
0
 10
330.65544731986893
 20
182.65472982621941
 30
0.0
  0
VERTEX
  5
1440C
  8
0
 10
330.74803652072518
 20
182.74807024470479
 30
0.0
  0
VERTEX
  5
1440D
  8
0
 10
330.84023957100288
 20
182.843510317106
 30
0.0
  0
VERTEX
  5
1440E
  8
0
 10
331.02309756219893
 20
183.04055507846761
 30
0.0
  0
VERTEX
  5
1440F
  8
0
 10
331.20325314665001
 20
183.24555405675051
 30
0.0
  0
VERTEX
  5
14410
  8
0
 10
331.29208457588987
 20
183.35092258491591
 30
0.0
  0
SEQEND
  5
14411
  8
0
  0
LINE
  5
B571
  8
0
 10
314.20231598404757
 20
179.74368873142211
 30
0.0
 11
323.60231598404738
 21
179.74368873142211
 31
0.0
  0
ARC
  5
B574
  8
0
 10
314.20231598404757
 20
189.74368873142211
 30
0.0
 40
9.9999999999999982
 50
169.35155374370621
 51
270.0
  0
LINE
  5
B575
  8
0
 10
315.40231598404762
 20
250.24368873142211
 30
0.0
 11
304.37452140065329
 21
191.5915127562167
 31
0.0
  0
LINE
  5
B57A
  8
0
 10
306.9356369808383
 20
253.74368873142211
 30
0.0
 11
258.41897648244299
 21
240.74368873142211
 31
0.0
  0
LINE
  5
B57B
  8
0
 10
315.40231598404762
 20
253.74368873142211
 30
0.0
 11
306.9356369808383
 21
253.74368873142211
 31
0.0
  0
LINE
  5
B57C
  8
0
 10
261.90231598404762
 20
227.74368873142211
 30
0.0
 11
311.17186120550241
 21
227.74368873142211
 31
0.0
  0
LINE
  5
B57E
  8
0
 10
258.41897648244299
 20
240.74368873142211
 30
0.0
 11
261.90231598404762
 21
227.74368873142211
 31
0.0
  0
ARC
  5
B59E
  8
0
 10
318.90231598404762
 20
189.7436887314218
 30
0.0
 40
50.000000000000099
 50
130.53580211132009
 51
34.461887359857023
  0
ARC
  5
B5A0
  8
0
 10
318.90231598404762
 20
189.74368873142211
 30
0.0
 40
40.332662348034852
 50
109.5817191804932
 51
30.534572765314309
  0
ARC
  5
B5A9
  8
0
 10
318.90231598404762
 20
189.74368873142211
 30
0.0
 40
17.206507021163009
 50
137.52236428689429
 51
357.9621114900545
  0
ARC
  5
B5B1
  8
0
 10
318.90231598404722
 20
189.74368873142211
 30
0.0
 40
14.659727048148181
 50
165.08302699238561
 51
173.80835380091071
  0
ARC
  5
B5B2
  8
0
 10
318.90231598404762
 20
189.74368873142211
 30
0.0
 40
46.909037180294987
 50
125.89640336941
 51
33.390653152523768
  0
LINE
  5
F666
  8
1
 10
318.90231598404807
 20
428.12103074405138
 30
0.0
 11
318.90231598404688
 21
327.8398838382742
 31
0.0
  0
LINE
  5
F667
  8
1
 10
226.6027765020003
 20
377.98045729116183
 30
0.0
 11
415.71851596449051
 21
377.98045729116183
 31
0.0
  0
LINE
  5
F668
  8
1
 10
353.90231598404699
 20
323.6642573107199
 30
0.0
 11
353.9023159840483
 21
432.296657271605
 31
0.0
  0
LINE
  5
F669
  8
1
 10
306.42910223458449
 20
407.9804572911633
 30
0.0
 11
321.37552973351171
 21
407.98045729116308
 31
0.0
  0
LINE
  5
F66A
  8
1
 10
313.90231598404807
 20
400.50724354169949
 30
0.0
 11
313.9023159840483
 21
415.45367104062689
 31
0.0
  0
LINE
  5
F66B
  8
1
 10
308.92910223458438
 20
400.48045729116319
 30
0.0
 11
323.87552973351171
 21
400.48045729116302
 31
0.0
  0
LINE
  5
F66C
  8
1
 10
316.40231598404807
 20
393.00724354169949
 30
0.0
 11
316.40231598404807
 21
407.95367104062677
 31
0.0
  0
LINE
  5
F66D
  8
1
 10
306.4291022345833
 20
347.98045729116348
 30
0.0
 11
321.3755297335108
 21
347.98045729116319
 31
0.0
  0
LINE
  5
F66E
  8
1
 10
313.90231598404722
 20
340.50724354169949
 30
0.0
 11
313.90231598404739
 21
355.45367104062689
 31
0.0
  0
LINE
  5
F66F
  8
1
 10
308.9291022345837
 20
355.4804572911633
 30
0.0
 11
323.87552973351109
 21
355.48045729116302
 31
0.0
  0
LINE
  5
F670
  8
1
 10
316.40231598404722
 20
348.00724354169949
 30
0.0
 11
316.40231598404739
 21
362.95367104062689
 31
0.0
  0
LINE
  5
F671
  8
1
 10
383.92910223458449
 20
400.48045729116211
 30
0.0
 11
398.87552973351171
 21
400.48045729116183
 31
0.0
  0
LINE
  5
F672
  8
1
 10
391.40231598404807
 20
393.0072435416983
 30
0.0
 11
391.40231598404807
 21
407.95367104062569
 31
0.0
  0
LINE
  5
F673
  8
1
 10
386.42910223458438
 20
407.98045729116211
 30
0.0
 11
401.37552973351171
 21
407.98045729116171
 31
0.0
  0
LINE
  5
F674
  8
1
 10
393.90231598404807
 20
400.50724354169819
 30
0.0
 11
393.9023159840483
 21
415.45367104062558
 31
0.0
  0
LINE
  5
F675
  8
1
 10
383.9291022345837
 20
355.48045729116211
 30
0.0
 11
398.87552973351097
 21
355.48045729116188
 31
0.0
  0
LINE
  5
F676
  8
1
 10
391.40231598404722
 20
348.0072435416983
 30
0.0
 11
391.40231598404739
 21
362.95367104062569
 31
0.0
  0
LINE
  5
F677
  8
1
 10
386.42910223458352
 20
347.98045729116211
 30
0.0
 11
401.3755297335108
 21
347.98045729116183
 31
0.0
  0
LINE
  5
F678
  8
1
 10
393.90231598404722
 20
340.5072435416983
 30
0.0
 11
393.90231598404739
 21
355.45367104062569
 31
0.0
  0
CIRCLE
  5
F679
  8
0
 10
353.90231598404762
 20
377.98045729116251
 30
0.0
 40
8.9249999999999972
  0
CIRCLE
  5
F67A
  8
0
 10
353.90231598404762
 20
377.98045729116251
 30
0.0
 40
13.57900689360916
  0
CIRCLE
  5
F67B
  8
0
 10
353.90231598404762
 20
377.98045729116251
 30
0.0
 40
20.175000000000001
  0
CIRCLE
  5
F67C
  8
0
 10
353.90231598404762
 20
377.98045729116251
 30
0.0
 40
23.802288713680468
  0
CIRCLE
  5
F67D
  8
0
 10
353.90231598404762
 20
377.98045729116251
 30
0.0
 40
25.668546822706869
  0
CIRCLE
  5
F67E
  8
0
 10
353.90231598404762
 20
377.98045729116251
 30
0.0
 40
27.189555828815632
  0
CIRCLE
  5
F67F
  8
0
 10
353.90231598404762
 20
377.98045729116251
 30
0.0
 40
31.175000000000001
  0
CIRCLE
  5
F69D
  8
0
 10
318.90231598404762
 20
189.74368873142211
 30
0.0
 40
6.2583333333333311
  0
LINE
  5
F69E
  8
0
 10
312.64398265071441
 20
193.3569391661004
 30
0.0
 11
318.90231598404762
 21
196.97018960077881
 31
0.0
  0
LINE
  5
F69F
  8
0
 10
312.64398265071441
 20
193.3569391661004
 30
0.0
 11
312.64398265071441
 21
186.13043829674359
 31
0.0
  0
LINE
  5
F6A0
  8
0
 10
312.64398265071441
 20
186.13043829674359
 30
0.0
 11
318.90231598404762
 21
182.51718786206521
 31
0.0
  0
LINE
  5
F6A1
  8
0
 10
325.160649317381
 20
193.3569391661004
 30
0.0
 11
318.90231598404779
 21
196.97018960077881
 31
0.0
  0
LINE
  5
F6A2
  8
0
 10
325.160649317381
 20
193.3569391661004
 30
0.0
 11
325.160649317381
 21
186.13043829674359
 31
0.0
  0
LINE
  5
F6A3
  8
0
 10
325.160649317381
 20
186.13043829674359
 30
0.0
 11
318.90231598404779
 21
182.51718786206521
 31
0.0
  0
LINE
  5
F6A4
  8
1
 10
353.90231598404779
 20
279.55988871186281
 30
0.0
 11
353.90231598404779
 21
221.01689123238791
 31
0.0
  0
LINE
  5
F6A5
  8
1
 10
257.08611600360518
 20
189.7436887314206
 30
0.0
 11
380.71851596449028
 21
189.7436887314206
 31
0.0
  0
LINE
  5
F6A6
  8
1
 10
318.90231598404762
 20
127.9274887509781
 30
0.0
 11
318.90231598404762
 21
241.84248576782051
 31
0.0
  0
LINE
  5
F6E8
  8
0
 10
258.41897648244321
 20
397.38045729116362
 30
0.0
 11
258.41897648244321
 21
358.5804572911635
 31
0.0
  0
LINE
  5
F6E9
  8
0
 10
238.41897648244299
 20
394.00197797447902
 30
0.0
 11
238.41897648244299
 21
361.95893660784537
 31
0.0
  0
LINE
  5
F6EA
  8
0
 10
242.96313674647081
 20
396.98045729116348
 30
0.0
 11
242.96313674647081
 21
358.98045729116348
 31
0.0
  0
LINE
  5
F6EB
  8
0
 10
255.41897648244321
 20
393.98045729116348
 30
0.0
 11
255.41897648244341
 21
361.9804572911633
 31
0.0
  0
LINE
  5
F6EC
  8
0
 10
258.41897648244321
 20
396.98045729116348
 30
0.0
 11
240.0130861810589
 21
396.98045729116348
 31
0.0
  0
LINE
  5
F6ED
  8
0
 10
255.41897648244321
 20
393.98045729116348
 30
0.0
 11
258.41897648244321
 21
393.98045729116348
 31
0.0
  0
LINE
  5
F6EE
  8
0
 10
258.41897648244321
 20
358.98045729116348
 30
0.0
 11
240.0130861810587
 21
358.98045729116348
 31
0.0
  0
LINE
  5
F6EF
  8
0
 10
255.41897648244429
 20
361.9804572911633
 30
0.0
 11
258.41897648244412
 21
361.98045729116348
 31
0.0
  0
ARC
  5
F6F0
  8
0
 10
242.7554158760847
 20
393.59690626471848
 30
0.0
 40
4.3553174057440378
 50
129.0243741561508
 51
174.6634221469499
  0
ARC
  5
F6F1
  8
0
 10
242.7554158760845
 20
362.36400831760858
 30
0.0
 40
4.3553174057440378
 50
185.33657785304999
 51
230.9756258438492
  0
LINE
  5
F6FE
  8
0
 10
238.41897648244321
 20
241.86604156743081
 30
0.0
 11
241.63291453087589
 21
238.03581935183601
 31
0.0
  0
LINE
  5
F6FF
  8
0
 10
240.3340875902407
 20
243.47301059164741
 30
0.0
 11
238.41897648244321
 21
241.86604156743081
 31
0.0
  0
LINE
  5
F700
  8
0
 10
242.96313674647081
 20
240.33983181460329
 30
0.0
 11
240.3340875902407
 21
243.47301059164741
 31
0.0
  0
LINE
  5
F701
  8
0
 10
259.12854318207451
 20
238.09554975703909
 30
0.0
 11
242.96313674647081
 21
240.33983181460329
 31
0.0
  0
LINE
  5
F702
  8
0
 10
258.44511079549898
 20
240.64615414727689
 30
0.0
 11
258.13956915287298
 21
240.82552289941131
 31
0.0
  0
LINE
  5
F703
  8
0
 10
241.63291453087589
 20
238.03581935183601
 30
0.0
 11
259.84248123050702
 21
235.43109668683209
 31
0.0
  0
LINE
  5
F704
  8
0
 10
255.87335676289419
 20
244.60214967266381
 30
0.0
 11
258.41739045640998
 21
244.25182632722249
 31
0.0
  0
LINE
  5
F705
  8
0
 10
255.4224384707945
 20
241.4917089785518
 30
0.0
 11
255.87335676289419
 21
244.60214967266381
 31
0.0
  0
LINE
  5
F706
  8
0
 10
258.07381807057391
 20
241.20457816917801
 30
0.0
 11
258.41739045640998
 21
244.2518263272228
 31
0.0
  0
LINE
  5
F707
  8
0
 10
255.4224384707945
 20
241.4917089785518
 30
0.0
 11
256.16038546334772
 21
238.5076261956178
 31
0.0
  0
LINE
  5
F708
  8
0
 10
258.07381807057391
 20
241.20457816917801
 30
0.0
 11
258.13956915287298
 21
240.82552289941131
 31
0.0
  0
LINE
  5
F856
  8
0
 10
96.455472004382955
 20
264.4436887314215
 30
0.0
 11
96.455472004382955
 21
265.24368873142151
 31
0.0
  0
LINE
  5
F857
  8
0
 10
166.05547200438309
 20
265.24368873142203
 30
0.0
 11
166.05547200438309
 21
264.44368873142201
 31
0.0
  0
LINE
  5
F858
  8
0
 10
96.754251340405304
 20
255.9436887314215
 30
0.0
 11
95.255472004383137
 21
264.4436887314215
 31
0.0
  0
LINE
  5
F859
  8
0
 10
167.25547200438311
 20
264.44368873142201
 30
0.0
 11
165.75669266836141
 21
255.94368873142199
 31
0.0
  0
LINE
  5
F85A
  8
0
 10
98.255472004383591
 20
210.548452316511
 30
0.0
 11
98.255472004383364
 21
255.9436887314215
 31
0.0
  0
LINE
  5
F85B
  8
0
 10
164.25547200438331
 20
255.94368873142199
 30
0.0
 11
164.25547200438359
 21
210.5484523165114
 31
0.0
  0
LINE
  5
F863
  8
0
 10
173.75547200438311
 20
267.74368873142203
 30
0.0
 11
173.75547200438311
 21
265.24368873142203
 31
0.0
  0
LINE
  5
F865
  8
0
 10
173.75547200438311
 20
267.74368873142203
 30
0.0
 11
88.755472004383137
 21
267.74368873142151
 31
0.0
  0
LINE
  5
F866
  8
0
 10
88.755472004383137
 20
267.74368873142151
 30
0.0
 11
88.755472004383137
 21
265.24368873142151
 31
0.0
  0
LINE
  5
F867
  8
0
 10
173.75547200438311
 20
265.24368873142203
 30
0.0
 11
88.755472004383137
 21
265.24368873142151
 31
0.0
  0
LINE
  5
F87B
  8
0
 10
167.25547200438311
 20
264.44368873142201
 30
0.0
 11
95.255472004383137
 21
264.4436887314215
 31
0.0
  0
LINE
  5
F87C
  8
0
 10
165.75669266836141
 20
255.94368873142199
 30
0.0
 11
96.754251340405304
 21
255.9436887314215
 31
0.0
  0
LINE
  5
F87D
  8
0
 10
151.75547200438331
 20
253.9436887314219
 30
0.0
 11
110.75547200438329
 21
253.94368873142159
 31
0.0
  0
POLYLINE
  5
F87E
  8
0
 66
     1
 10
0.0
 20
0.0
 30
0.0
  0
VERTEX
  5
14412
  8
0
 10
107.21847061757261
 20
183.35092258491539
 30
0.0
  0
VERTEX
  5
14413
  8
0
 10
107.1747144093913
 20
183.40698636427541
 30
0.0
  0
VERTEX
  5
14414
  8
0
 10
107.0874732734551
 20
183.51941928817661
 30
0.0
  0
VERTEX
  5
14415
  8
0
 10
107.0005949355391
 20
183.63225795852679
 30
0.0
  0
VERTEX
  5
14416
  8
0
 10
106.9572922236063
 20
183.68882891952069
 30
0.0
  0
SEQEND
  5
14417
  8
0
  0
POLYLINE
  5
F881
  8
0
 66
     1
 10
0.0
 20
0.0
 30
0.0
  0
VERTEX
  5
14418
  8
0
 10
100.6993972108441
 20
195.55688835456411
 30
0.0
  0
VERTEX
  5
14419
  8
0
 10
100.5670954572749
 20
195.95315022874209
 30
0.0
  0
VERTEX
  5
1441A
  8
0
 10
100.3131611461701
 20
196.75069507612551
 30
0.0
  0
VERTEX
  5
1441B
  8
0
 10
100.0735496959455
 20
197.55462675603459
 30
0.0
  0
VERTEX
  5
1441C
  8
0
 10
99.959149964551912
 20
197.95887147794571
 30
0.0
  0
VERTEX
  5
1441D
  8
0
 10
99.848372020147963
 20
198.3645731371937
 30
0.0
  0
VERTEX
  5
1441E
  8
0
 10
99.637732351087394
 20
199.18015930418721
 30
0.0
  0
VERTEX
  5
1441F
  8
0
 10
99.441728191587345
 20
200.00100773100351
 30
0.0
  0
VERTEX
  5
14420
  8
0
 10
99.260450269852072
 20
200.82673845578819
 30
0.0
  0
VERTEX
  5
14421
  8
0
 10
99.093982497470265
 20
201.65696925672339
 30
0.0
  0
VERTEX
  5
14422
  8
0
 10
98.942401930572274
 20
202.49131582895521
 30
0.0
  0
VERTEX
  5
14423
  8
0
 10
98.872216545838228
 20
202.9099119082195
 30
0.0
  0
VERTEX
  5
14424
  8
0
 10
98.805778734162459
 20
203.32939196248361
 30
0.0
  0
VERTEX
  5
14425
  8
0
 10
98.684176149640052
 20
204.1708097209347
 30
0.0
  0
VERTEX
  5
14426
  8
0
 10
98.577650465525721
 20
205.015179621133
 30
0.0
  0
VERTEX
  5
14427
  8
0
 10
98.486250991405754
 20
205.86211081338831
 30
0.0
  0
VERTEX
  5
14428
  8
0
 10
98.410020035107891
 20
206.71121126241599
 30
0.0
  0
VERTEX
  5
14429
  8
0
 10
98.348992883116594
 20
207.56208792880611
 30
0.0
  0
VERTEX
  5
1442A
  8
0
 10
98.324189836777805
 20
207.9880692888955
 30
0.0
  0
VERTEX
  5
1442B
  8
0
 10
98.303197784240638
 20
208.41434695095691
 30
0.0
  0
VERTEX
  5
1442C
  8
0
 10
98.272655936535571
 20
209.26759382738891
 30
0.0
  0
VERTEX
  5
1442D
  8
0
 10
98.257381477492132
 20
210.1214335993557
 30
0.0
  0
VERTEX
  5
1442E
  8
0
 10
98.255472004383591
 20
210.548452316511
 30
0.0
  0
SEQEND
  5
1442F
  8
0
  0
POLYLINE
  5
F883
  8
0
 66
     1
 10
0.0
 20
0.0
 30
0.0
  0
VERTEX
  5
14430
  8
0
 10
164.25547200438359
 20
210.5484523165114
 30
0.0
  0
VERTEX
  5
14431
  8
0
 10
164.25311980891769
 20
210.07451011031989
 30
0.0
  0
VERTEX
  5
14432
  8
0
 10
164.2343042570794
 20
209.12689594399191
 30
0.0
  0
VERTEX
  5
14433
  8
0
 10
164.1966838821977
 20
208.18009236173279
 30
0.0
  0
VERTEX
  5
14434
  8
0
 10
164.17082817113851
 20
207.707163277295
 30
0.0
  0
VERTEX
  5
14435
  8
0
 10
164.14028013574421
 20
207.2346392393539
 30
0.0
  0
VERTEX
  5
14436
  8
0
 10
164.0651251796362
 20
206.29107568262231
 30
0.0
  0
VERTEX
  5
14437
  8
0
 10
163.97126186789731
 20
205.34993971985821
 30
0.0
  0
VERTEX
  5
14438
  8
0
 10
163.85874372222131
 20
204.41176799514599
 30
0.0
  0
VERTEX
  5
14439
  8
0
 10
163.72763490145411
 20
203.4770954623352
 30
0.0
  0
VERTEX
  5
1443A
  8
0
 10
163.57801016501
 20
202.54645508000499
 30
0.0
  0
VERTEX
  5
1443B
  8
0
 10
163.4962805789516
 20
202.08281287443111
 30
0.0
  0
VERTEX
  5
1443C
  8
0
 10
163.40995483024221
 20
201.6203775075669
 30
0.0
  0
VERTEX
  5
1443D
  8
0
 10
163.22356472379531
 20
200.6993908026771
 30
0.0
  0
VERTEX
  5
1443E
  8
0
 10
163.0189461269635
 20
199.7840201201345
 30
0.0
  0
VERTEX
  5
1443F
  8
0
 10
162.79621571508801
 20
198.8747874124318
 30
0.0
  0
VERTEX
  5
14440
  8
0
 10
162.55550049102749
 20
197.97221113213411
 30
0.0
  0
VERTEX
  5
14441
  8
0
 10
162.2969377127406
 20
197.0768059362523
 30
0.0
  0
VERTEX
  5
14442
  8
0
 10
162.16100916886171
 20
196.63195221517029
 30
0.0
  0
VERTEX
  5
14443
  8
0
 10
162.0206748150203
 20
196.1890823927815
 30
0.0
  0
VERTEX
  5
14444
  8
0
 10
161.72686932542391
 20
195.30954668957031
 30
0.0
  0
VERTEX
  5
14445
  8
0
 10
161.41568877445141
 20
194.43870034568801
 30
0.0
  0
VERTEX
  5
14446
  8
0
 10
161.25363791601669
 20
194.00669106115231
 30
0.0
  0
SEQEND
  5
14447
  8
0
  0
POLYLINE
  5
F886
  8
0
 66
     1
 10
0.0
 20
0.0
 30
0.0
  0
VERTEX
  5
14448
  8
0
 10
155.95185212987141
 20
184.21956741388399
 30
0.0
  0
VERTEX
  5
14449
  8
0
 10
155.84344624531991
 20
184.0731668964257
 30
0.0
  0
VERTEX
  5
1444A
  8
0
 10
155.62483776920789
 20
183.7823068978557
 30
0.0
  0
VERTEX
  5
1444B
  8
0
 10
155.40385148343921
 20
183.4940585716478
 30
0.0
  0
VERTEX
  5
1444C
  8
0
 10
155.29247339119479
 20
183.35092258491579
 30
0.0
  0
SEQEND
  5
1444D
  8
0
  0
POLYLINE
  5
F887
  8
0
 66
     1
 10
0.0
 20
0.0
 30
0.0
  0
VERTEX
  5
1444E
  8
0
 10
110.7554720043838
 20
180.78332124077289
 30
0.0
  0
VERTEX
  5
1444F
  8
0
 10
110.6460816156837
 20
180.8270056684174
 30
0.0
  0
VERTEX
  5
14450
  8
0
 10
110.4292219543858
 20
180.9179888381756
 30
0.0
  0
VERTEX
  5
14451
  8
0
 10
110.2149502320656
 20
181.01393279588601
 30
0.0
  0
VERTEX
  5
14452
  8
0
 10
110.1087946640944
 20
181.0638203865193
 30
0.0
  0
VERTEX
  5
14453
  8
0
 10
110.00329786262
 20
181.11501579721309
 30
0.0
  0
VERTEX
  5
14454
  8
0
 10
109.7942965136242
 20
181.22142632665231
 30
0.0
  0
VERTEX
  5
14455
  8
0
 10
109.5879789566529
 20
181.3333640250568
 30
0.0
  0
VERTEX
  5
14456
  8
0
 10
109.3843800879272
 20
181.4510405839238
 30
0.0
  0
VERTEX
  5
14457
  8
0
 10
109.18353811947119
 20
181.57468057690789
 30
0.0
  0
VERTEX
  5
14458
  8
0
 10
108.985495936655
 20
181.7045221957402
 30
0.0
  0
VERTEX
  5
14459
  8
0
 10
108.88753981418969
 20
181.77184692560499
 30
0.0
  0
VERTEX
  5
1445A
  8
0
 10
108.789959104093
 20
181.84106539043469
 30
0.0
  0
VERTEX
  5
1445B
  8
0
 10
108.59502329729141
 20
181.98613228153161
 30
0.0
  0
VERTEX
  5
1445C
  8
0
 10
108.4011122739773
 20
182.14006893429479
 30
0.0
  0
VERTEX
  5
1445D
  8
0
 10
108.2090602506387
 20
182.3028645943576
 30
0.0
  0
VERTEX
  5
1445E
  8
0
 10
108.019652833455
 20
182.47445647909001
 30
0.0
  0
VERTEX
  5
1445F
  8
0
 10
107.8336211528724
 20
182.6547298262189
 30
0.0
  0
VERTEX
  5
14460
  8
0
 10
107.74208555040011
 20
182.74807024470431
 30
0.0
  0
VERTEX
  5
14461
  8
0
 10
107.6516453756589
 20
182.84351031710551
 30
0.0
  0
VERTEX
  5
14462
  8
0
 10
107.474358397041
 20
183.04055507846709
 30
0.0
  0
VERTEX
  5
14463
  8
0
 10
107.30233971852429
 20
183.24555405675
 30
0.0
  0
VERTEX
  5
14464
  8
0
 10
107.21847061757261
 20
183.35092258491539
 30
0.0
  0
SEQEND
  5
14465
  8
0
  0
POLYLINE
  5
F88A
  8
0
 66
     1
 10
0.0
 20
0.0
 30
0.0
  0
VERTEX
  5
14466
  8
0
 10
155.29247339119479
 20
183.35092258491579
 30
0.0
  0
VERTEX
  5
14467
  8
0
 10
155.2086042902431
 20
183.24555405675031
 30
0.0
  0
VERTEX
  5
14468
  8
0
 10
155.03658561172639
 20
183.04055507846741
 30
0.0
  0
VERTEX
  5
14469
  8
0
 10
154.85929863310841
 20
182.8435103171058
 30
0.0
  0
VERTEX
  5
1446A
  8
0
 10
154.76885845836719
 20
182.74807024470459
 30
0.0
  0
VERTEX
  5
1446B
  8
0
 10
154.677322855895
 20
182.65472982621921
 30
0.0
  0
VERTEX
  5
1446C
  8
0
 10
154.4912911753124
 20
182.47445647909029
 30
0.0
  0
VERTEX
  5
1446D
  8
0
 10
154.3018837581287
 20
182.302864594358
 30
0.0
  0
VERTEX
  5
1446E
  8
0
 10
154.1098317347903
 20
182.1400689342951
 30
0.0
  0
VERTEX
  5
1446F
  8
0
 10
153.91592071147599
 20
181.98613228153189
 30
0.0
  0
VERTEX
  5
14470
  8
0
 10
153.7209849046744
 20
181.84106539043509
 30
0.0
  0
VERTEX
  5
14471
  8
0
 10
153.62340419457789
 20
181.7718469256053
 30
0.0
  0
VERTEX
  5
14472
  8
0
 10
153.52544807211251
 20
181.70452219574051
 30
0.0
  0
VERTEX
  5
14473
  8
0
 10
153.32740588929619
 20
181.57468057690821
 30
0.0
  0
VERTEX
  5
14474
  8
0
 10
153.1265639208402
 20
181.45104058392411
 30
0.0
  0
VERTEX
  5
14475
  8
0
 10
152.92296505211451
 20
181.33336402505711
 30
0.0
  0
VERTEX
  5
14476
  8
0
 10
152.71664749514321
 20
181.22142632665259
 30
0.0
  0
VERTEX
  5
14477
  8
0
 10
152.50764614614741
 20
181.1150157972134
 30
0.0
  0
VERTEX
  5
14478
  8
0
 10
152.40214934467301
 20
181.06382038651961
 30
0.0
  0
VERTEX
  5
14479
  8
0
 10
152.29599377670181
 20
181.01393279588629
 30
0.0
  0
VERTEX
  5
1447A
  8
0
 10
152.08172205438149
 20
180.9179888381758
 30
0.0
  0
VERTEX
  5
1447B
  8
0
 10
151.86486239308371
 20
180.82700566841771
 30
0.0
  0
VERTEX
  5
1447C
  8
0
 10
151.75547200438379
 20
180.7833212407732
 30
0.0
  0
SEQEND
  5
1447D
  8
0
  0
LINE
  5
F896
  8
0
 10
110.75547200438329
 20
253.94368873142159
 30
0.0
 11
110.7554720043838
 21
179.74368873142151
 31
0.0
  0
LINE
  5
F897
  8
0
 10
110.7554720043838
 20
179.74368873142151
 30
0.0
 11
113.7554720043838
 21
179.7436887314216
 31
0.0
  0
LINE
  5
F898
  8
0
 10
148.75547200438379
 20
179.7436887314218
 30
0.0
 11
151.75547200438379
 21
179.7436887314218
 31
0.0
  0
LINE
  5
F899
  8
0
 10
151.75547200438379
 20
179.7436887314218
 30
0.0
 11
151.75547200438331
 21
253.9436887314219
 31
0.0
  0
LINE
  5
F8A5
  8
0
 10
148.75547200438379
 20
179.7436887314218
 30
0.0
 11
148.75547200438331
 21
235.43109668683169
 31
0.0
  0
LINE
  5
F8A7
  8
0
 10
110.75547200438361
 20
240.74368873142151
 30
0.0
 11
112.25547200438309
 21
240.74368873142151
 31
0.0
  0
LINE
  5
F8A8
  8
0
 10
110.75547200438329
 20
240.7436887314216
 30
0.0
 11
112.25547200438309
 21
240.7436887314216
 31
0.0
  0
LINE
  5
F8AA
  8
0
 10
113.7554720043838
 20
235.43109668683169
 30
0.0
 11
113.7554720043838
 21
179.7436887314216
 31
0.0
  0
LINE
  5
F8BC
  8
0
 10
155.95547200438361
 20
195.55868873142191
 30
0.0
 11
156.55547200438369
 21
195.55868873142191
 31
0.0
  0
LINE
  5
F8BD
  8
0
 10
156.55547200438369
 20
183.92868873142189
 30
0.0
 11
155.95547200438361
 21
183.92868873142189
 31
0.0
  0
LINE
  5
F8BE
  8
0
 10
97.022472004383644
 20
193.74368873142151
 30
0.0
 11
98.955472004383651
 21
193.74368873142151
 31
0.0
  0
LINE
  5
F8BF
  8
0
 10
98.955472004383651
 20
185.74368873142151
 30
0.0
 11
97.022472004383644
 21
185.74368873142151
 31
0.0
  0
LINE
  5
F8C0
  8
0
 10
96.255472004383833
 20
192.97668873142149
 30
0.0
 11
97.022472004383644
 21
193.74368873142151
 31
0.0
  0
LINE
  5
F8C1
  8
0
 10
97.022472004383644
 20
185.74368873142151
 30
0.0
 11
96.255472004383833
 21
186.51068873142151
 31
0.0
  0
LINE
  5
F8C2
  8
0
 10
160.99605229496791
 20
196.9701896007787
 30
0.0
 11
161.25547200438379
 21
196.00202206475529
 31
0.0
  0
LINE
  5
F8C3
  8
0
 10
161.25547200438379
 20
183.48535539808859
 30
0.0
 11
160.99605229496819
 21
182.5171878620651
 31
0.0
  0
LINE
  5
F8C4
  8
0
 10
156.55547200438369
 20
196.00202206475521
 30
0.0
 11
156.81489171379889
 21
196.9701896007787
 31
0.0
  0
LINE
  5
F8C5
  8
0
 10
156.81489171379911
 20
182.5171878620651
 30
0.0
 11
156.55547200438369
 21
183.48535539808859
 31
0.0
  0
LINE
  5
F8C6
  8
0
 10
106.95547200438359
 20
193.74368873142151
 30
0.0
 11
108.95547200438359
 21
193.74368873142151
 31
0.0
  0
LINE
  5
F8C7
  8
0
 10
108.95547200438359
 20
185.74368873142151
 30
0.0
 11
106.95547200438359
 21
185.74368873142151
 31
0.0
  0
LINE
  5
F8C8
  8
0
 10
98.955472004383651
 20
195.55868873142151
 30
0.0
 11
101.45547200438359
 21
195.55868873142151
 31
0.0
  0
LINE
  5
F8C9
  8
0
 10
101.45547200438359
 20
183.92868873142149
 30
0.0
 11
98.955472004383651
 21
183.92868873142149
 31
0.0
  0
LINE
  5
F8CA
  8
0
 10
106.696052294968
 20
196.97018960077841
 30
0.0
 11
106.95547200438359
 21
196.0020220647549
 31
0.0
  0
LINE
  5
F8CB
  8
0
 10
106.95547200438359
 20
183.48535539808819
 30
0.0
 11
106.6960522949682
 21
182.5171878620647
 31
0.0
  0
LINE
  5
F8CC
  8
0
 10
101.45547200438359
 20
196.00202206475481
 30
0.0
 11
101.71489171379901
 21
196.9701896007783
 31
0.0
  0
LINE
  5
F8CD
  8
0
 10
101.7148917137992
 20
182.5171878620647
 30
0.0
 11
101.45547200438359
 21
183.48535539808819
 31
0.0
  0
LINE
  5
F8CE
  8
0
 10
153.95547200438361
 20
193.74368873142191
 30
0.0
 11
155.95547200438361
 21
193.74368873142191
 31
0.0
  0
LINE
  5
F8CF
  8
0
 10
155.95547200438361
 20
185.74368873142191
 30
0.0
 11
153.95547200438361
 21
185.74368873142191
 31
0.0
  0
LINE
  5
F8D0
  8
0
 10
108.95547200438359
 20
195.7436887314216
 30
0.0
 11
110.7554720043838
 21
195.7436887314216
 31
0.0
  0
LINE
  5
F8D2
  8
0
 10
113.7554720043838
 20
195.7436887314216
 30
0.0
 11
116.2554720043838
 21
195.7436887314216
 31
0.0
  0
LINE
  5
F8D4
  8
0
 10
146.25547200438379
 20
195.7436887314218
 30
0.0
 11
148.75547200438379
 21
195.7436887314218
 31
0.0
  0
LINE
  5
F8D6
  8
0
 10
151.75547200438379
 20
195.74368873142191
 30
0.0
 11
153.95547200438361
 21
195.74368873142191
 31
0.0
  0
LINE
  5
F8D7
  8
0
 10
153.95547200438361
 20
183.74368873142191
 30
0.0
 11
151.75547200438379
 21
183.74368873142191
 31
0.0
  0
LINE
  5
F8D9
  8
0
 10
148.75547200438379
 20
183.7436887314218
 30
0.0
 11
146.25547200438379
 21
183.7436887314218
 31
0.0
  0
LINE
  5
F8DB
  8
0
 10
116.2554720043838
 20
183.7436887314216
 30
0.0
 11
113.7554720043838
 21
183.7436887314216
 31
0.0
  0
LINE
  5
F8DD
  8
0
 10
110.7554720043838
 20
183.74368873142151
 30
0.0
 11
108.95547200438359
 21
183.74368873142151
 31
0.0
  0
LINE
  5
F8DE
  8
0
 10
155.95547200438361
 20
183.92868873142189
 30
0.0
 11
155.95547200438361
 21
195.55868873142191
 31
0.0
  0
LINE
  5
F8DF
  8
0
 10
97.022472004383644
 20
185.74368873142151
 30
0.0
 11
97.022472004383644
 21
193.74368873142151
 31
0.0
  0
LINE
  5
F8E0
  8
0
 10
96.255472004383833
 20
186.51068873142151
 30
0.0
 11
96.255472004383833
 21
192.97668873142149
 31
0.0
  0
LINE
  5
F8E1
  8
0
 10
161.25547200438379
 20
183.48535539808859
 30
0.0
 11
161.25547200438379
 21
196.00202206475529
 31
0.0
  0
LINE
  5
F8E2
  8
0
 10
156.55547200438369
 20
183.48535539808859
 30
0.0
 11
156.55547200438369
 21
196.00202206475521
 31
0.0
  0
LINE
  5
F8E7
  8
0
 10
160.99605229496819
 20
182.5171878620651
 30
0.0
 11
156.81489171379911
 21
182.5171878620651
 31
0.0
  0
POLYLINE
  5
F8E8
  8
0
 66
     1
 10
0.0
 20
0.0
 30
0.0
  0
VERTEX
  5
1447E
  8
0
 10
160.99605229496819
 20
182.5171878620651
 30
0.0
  0
VERTEX
  5
1447F
  8
0
 10
161.0768969482265
 20
182.84176175773729
 30
0.0
  0
VERTEX
  5
14480
  8
0
 10
161.1915072869794
 20
183.45132233650921
 30
0.0
  0
VERTEX
  5
14481
  8
0
 10
161.2482818707638
 20
184.03373050808489
 30
0.0
  0
VERTEX
  5
14482
  8
0
 10
161.25547200438379
 20
184.32381307940429
 30
0.0
  0
SEQEND
  5
14483
  8
0
  0
POLYLINE
  5
F8E9
  8
0
 66
     1
 10
0.0
 20
0.0
 30
0.0
  0
VERTEX
  5
14484
  8
0
 10
161.25547200438379
 20
184.32381307940429
 30
0.0
  0
VERTEX
  5
14485
  8
0
 10
161.2482818707638
 20
184.6138956507238
 30
0.0
  0
VERTEX
  5
14486
  8
0
 10
161.1915072869794
 20
185.1963038222994
 30
0.0
  0
VERTEX
  5
14487
  8
0
 10
161.0768969482265
 20
185.80586440107129
 30
0.0
  0
VERTEX
  5
14488
  8
0
 10
160.99605229496819
 20
186.13043829674351
 30
0.0
  0
SEQEND
  5
14489
  8
0
  0
POLYLINE
  5
F8EA
  8
0
 66
     1
 10
0.0
 20
0.0
 30
0.0
  0
VERTEX
  5
1448A
  8
0
 10
156.81489171379911
 20
186.13043829674351
 30
0.0
  0
VERTEX
  5
1448B
  8
0
 10
156.73404706054109
 20
185.80586440107129
 30
0.0
  0
VERTEX
  5
1448C
  8
0
 10
156.61943672178811
 20
185.1963038222994
 30
0.0
  0
VERTEX
  5
1448D
  8
0
 10
156.56266213800359
 20
184.61389565072369
 30
0.0
  0
VERTEX
  5
1448E
  8
0
 10
156.55547200438369
 20
184.32381307940429
 30
0.0
  0
SEQEND
  5
1448F
  8
0
  0
POLYLINE
  5
F8EB
  8
0
 66
     1
 10
0.0
 20
0.0
 30
0.0
  0
VERTEX
  5
14490
  8
0
 10
156.55547200438369
 20
184.32381307940429
 30
0.0
  0
VERTEX
  5
14491
  8
0
 10
156.56266213800359
 20
184.0337305080848
 30
0.0
  0
VERTEX
  5
14492
  8
0
 10
156.61943672178811
 20
183.45132233650921
 30
0.0
  0
VERTEX
  5
14493
  8
0
 10
156.73404706054109
 20
182.84176175773729
 30
0.0
  0
VERTEX
  5
14494
  8
0
 10
156.81489171379911
 20
182.5171878620651
 30
0.0
  0
SEQEND
  5
14495
  8
0
  0
LINE
  5
F8EC
  8
0
 10
160.99605229496819
 20
186.13043829674351
 30
0.0
 11
156.81489171379911
 21
186.13043829674351
 31
0.0
  0
POLYLINE
  5
F8ED
  8
0
 66
     1
 10
0.0
 20
0.0
 30
0.0
  0
VERTEX
  5
14496
  8
0
 10
160.99605229496819
 20
186.13043829674351
 30
0.0
  0
VERTEX
  5
14497
  8
0
 10
161.0768969482265
 20
186.77958608808791
 30
0.0
  0
VERTEX
  5
14498
  8
0
 10
161.1915072869794
 20
187.99870724563169
 30
0.0
  0
VERTEX
  5
14499
  8
0
 10
161.2482818707638
 20
189.16352358878299
 30
0.0
  0
VERTEX
  5
1449A
  8
0
 10
161.25547200438379
 20
189.74368873142191
 30
0.0
  0
SEQEND
  5
1449B
  8
0
  0
POLYLINE
  5
F8EE
  8
0
 66
     1
 10
0.0
 20
0.0
 30
0.0
  0
VERTEX
  5
1449C
  8
0
 10
161.25547200438379
 20
189.74368873142191
 30
0.0
  0
VERTEX
  5
1449D
  8
0
 10
161.2482818707638
 20
190.32385387406089
 30
0.0
  0
VERTEX
  5
1449E
  8
0
 10
161.1915072869794
 20
191.48867021721219
 30
0.0
  0
VERTEX
  5
1449F
  8
0
 10
161.0768969482265
 20
192.70779137475591
 30
0.0
  0
VERTEX
  5
144A0
  8
0
 10
160.99605229496819
 20
193.35693916610029
 30
0.0
  0
SEQEND
  5
144A1
  8
0
  0
POLYLINE
  5
F8EF
  8
0
 66
     1
 10
0.0
 20
0.0
 30
0.0
  0
VERTEX
  5
144A2
  8
0
 10
156.81489171379911
 20
193.35693916610029
 30
0.0
  0
VERTEX
  5
144A3
  8
0
 10
156.73404706054109
 20
192.70779137475591
 30
0.0
  0
VERTEX
  5
144A4
  8
0
 10
156.61943672178811
 20
191.4886702172121
 30
0.0
  0
VERTEX
  5
144A5
  8
0
 10
156.56266213800359
 20
190.3238538740608
 30
0.0
  0
VERTEX
  5
144A6
  8
0
 10
156.55547200438369
 20
189.74368873142191
 30
0.0
  0
SEQEND
  5
144A7
  8
0
  0
POLYLINE
  5
F8F0
  8
0
 66
     1
 10
0.0
 20
0.0
 30
0.0
  0
VERTEX
  5
144A8
  8
0
 10
156.55547200438369
 20
189.74368873142191
 30
0.0
  0
VERTEX
  5
144A9
  8
0
 10
156.56266213800359
 20
189.16352358878299
 30
0.0
  0
VERTEX
  5
144AA
  8
0
 10
156.61943672178811
 20
187.99870724563161
 30
0.0
  0
VERTEX
  5
144AB
  8
0
 10
156.73404706054109
 20
186.77958608808791
 30
0.0
  0
VERTEX
  5
144AC
  8
0
 10
156.81489171379911
 20
186.13043829674351
 30
0.0
  0
SEQEND
  5
144AD
  8
0
  0
POLYLINE
  5
F8F5
  8
0
 66
     1
 10
0.0
 20
0.0
 30
0.0
  0
VERTEX
  5
144AE
  8
0
 10
156.55547200438369
 20
195.16356438343951
 30
0.0
  0
VERTEX
  5
144AF
  8
0
 10
156.56266213800359
 20
194.87348181211999
 30
0.0
  0
VERTEX
  5
144B0
  8
0
 10
156.61943672178811
 20
194.2910736405444
 30
0.0
  0
VERTEX
  5
144B1
  8
0
 10
156.73404706054109
 20
193.68151306177251
 30
0.0
  0
VERTEX
  5
144B2
  8
0
 10
156.81489171379911
 20
193.35693916610029
 30
0.0
  0
SEQEND
  5
144B3
  8
0
  0
LINE
  5
F8F6
  8
0
 10
160.99605229496819
 20
193.35693916610029
 30
0.0
 11
156.81489171379911
 21
193.35693916610029
 31
0.0
  0
POLYLINE
  5
F8F7
  8
0
 66
     1
 10
0.0
 20
0.0
 30
0.0
  0
VERTEX
  5
144B4
  8
0
 10
160.99605229496819
 20
193.35693916610029
 30
0.0
  0
VERTEX
  5
144B5
  8
0
 10
161.0768969482265
 20
193.68151306177251
 30
0.0
  0
VERTEX
  5
144B6
  8
0
 10
161.1915072869794
 20
194.2910736405444
 30
0.0
  0
VERTEX
  5
144B7
  8
0
 10
161.2482818707638
 20
194.87348181211999
 30
0.0
  0
VERTEX
  5
144B8
  8
0
 10
161.25547200438379
 20
195.16356438343951
 30
0.0
  0
SEQEND
  5
144B9
  8
0
  0
POLYLINE
  5
F8F8
  8
0
 66
     1
 10
0.0
 20
0.0
 30
0.0
  0
VERTEX
  5
144BA
  8
0
 10
161.25547200438379
 20
195.16356438343951
 30
0.0
  0
VERTEX
  5
144BB
  8
0
 10
161.2482818707638
 20
195.45364695475899
 30
0.0
  0
VERTEX
  5
144BC
  8
0
 10
161.1915072869794
 20
196.0360551263347
 30
0.0
  0
VERTEX
  5
144BD
  8
0
 10
161.07689694822619
 20
196.64561570510659
 30
0.0
  0
VERTEX
  5
144BE
  8
0
 10
160.99605229496791
 20
196.9701896007787
 30
0.0
  0
SEQEND
  5
144BF
  8
0
  0
LINE
  5
F8F9
  8
0
 10
160.99605229496791
 20
196.9701896007787
 30
0.0
 11
156.81489171379889
 21
196.9701896007787
 31
0.0
  0
POLYLINE
  5
F8FA
  8
0
 66
     1
 10
0.0
 20
0.0
 30
0.0
  0
VERTEX
  5
144C0
  8
0
 10
156.81489171379889
 20
196.9701896007787
 30
0.0
  0
VERTEX
  5
144C1
  8
0
 10
156.73404706054089
 20
196.64561570510651
 30
0.0
  0
VERTEX
  5
144C2
  8
0
 10
156.61943672178811
 20
196.03605512633459
 30
0.0
  0
VERTEX
  5
144C3
  8
0
 10
156.56266213800359
 20
195.45364695475899
 30
0.0
  0
VERTEX
  5
144C4
  8
0
 10
156.55547200438369
 20
195.16356438343951
 30
0.0
  0
SEQEND
  5
144C5
  8
0
  0
LINE
  5
F8FF
  8
0
 10
98.955472004383651
 20
183.92868873142149
 30
0.0
 11
98.955472004383651
 21
195.55868873142151
 31
0.0
  0
LINE
  5
F900
  8
0
 10
106.95547200438359
 20
183.48535539808819
 30
0.0
 11
106.95547200438359
 21
196.0020220647549
 31
0.0
  0
LINE
  5
F901
  8
0
 10
101.45547200438359
 20
183.48535539808819
 30
0.0
 11
101.45547200438359
 21
196.00202206475481
 31
0.0
  0
LINE
  5
F906
  8
0
 10
106.6960522949682
 20
182.5171878620647
 30
0.0
 11
101.7148917137992
 21
182.5171878620647
 31
0.0
  0
POLYLINE
  5
F907
  8
0
 66
     1
 10
0.0
 20
0.0
 30
0.0
  0
VERTEX
  5
144C6
  8
0
 10
106.6960522949682
 20
182.5171878620647
 30
0.0
  0
VERTEX
  5
144C7
  8
0
 10
106.77689694822629
 20
182.84176175773689
 30
0.0
  0
VERTEX
  5
144C8
  8
0
 10
106.8915072869795
 20
183.45132233650881
 30
0.0
  0
VERTEX
  5
144C9
  8
0
 10
106.94828187076379
 20
184.03373050808449
 30
0.0
  0
VERTEX
  5
144CA
  8
0
 10
106.95547200438359
 20
184.32381307940389
 30
0.0
  0
SEQEND
  5
144CB
  8
0
  0
POLYLINE
  5
F908
  8
0
 66
     1
 10
0.0
 20
0.0
 30
0.0
  0
VERTEX
  5
144CC
  8
0
 10
106.95547200438359
 20
184.32381307940389
 30
0.0
  0
VERTEX
  5
144CD
  8
0
 10
106.94828187076379
 20
184.61389565072341
 30
0.0
  0
VERTEX
  5
144CE
  8
0
 10
106.8915072869795
 20
185.196303822299
 30
0.0
  0
VERTEX
  5
144CF
  8
0
 10
106.77689694822629
 20
185.80586440107089
 30
0.0
  0
VERTEX
  5
144D0
  8
0
 10
106.6960522949682
 20
186.13043829674311
 30
0.0
  0
SEQEND
  5
144D1
  8
0
  0
POLYLINE
  5
F909
  8
0
 66
     1
 10
0.0
 20
0.0
 30
0.0
  0
VERTEX
  5
144D2
  8
0
 10
101.7148917137992
 20
186.13043829674311
 30
0.0
  0
VERTEX
  5
144D3
  8
0
 10
101.63404706054121
 20
185.80586440107089
 30
0.0
  0
VERTEX
  5
144D4
  8
0
 10
101.519436721788
 20
185.196303822299
 30
0.0
  0
VERTEX
  5
144D5
  8
0
 10
101.46266213800369
 20
184.61389565072341
 30
0.0
  0
VERTEX
  5
144D6
  8
0
 10
101.45547200438359
 20
184.32381307940389
 30
0.0
  0
SEQEND
  5
144D7
  8
0
  0
POLYLINE
  5
F90A
  8
0
 66
     1
 10
0.0
 20
0.0
 30
0.0
  0
VERTEX
  5
144D8
  8
0
 10
101.45547200438359
 20
184.32381307940389
 30
0.0
  0
VERTEX
  5
144D9
  8
0
 10
101.46266213800369
 20
184.0337305080844
 30
0.0
  0
VERTEX
  5
144DA
  8
0
 10
101.519436721788
 20
183.4513223365087
 30
0.0
  0
VERTEX
  5
144DB
  8
0
 10
101.63404706054121
 20
182.84176175773689
 30
0.0
  0
VERTEX
  5
144DC
  8
0
 10
101.7148917137992
 20
182.5171878620647
 30
0.0
  0
SEQEND
  5
144DD
  8
0
  0
LINE
  5
F90B
  8
0
 10
106.6960522949682
 20
186.13043829674311
 30
0.0
 11
101.7148917137992
 21
186.13043829674311
 31
0.0
  0
POLYLINE
  5
F90C
  8
0
 66
     1
 10
0.0
 20
0.0
 30
0.0
  0
VERTEX
  5
144DE
  8
0
 10
106.6960522949682
 20
186.13043829674311
 30
0.0
  0
VERTEX
  5
144DF
  8
0
 10
106.77689694822629
 20
186.7795860880876
 30
0.0
  0
VERTEX
  5
144E0
  8
0
 10
106.8915072869795
 20
187.99870724563129
 30
0.0
  0
VERTEX
  5
144E1
  8
0
 10
106.94828187076379
 20
189.1635235887826
 30
0.0
  0
VERTEX
  5
144E2
  8
0
 10
106.95547200438359
 20
189.74368873142151
 30
0.0
  0
SEQEND
  5
144E3
  8
0
  0
POLYLINE
  5
F90D
  8
0
 66
     1
 10
0.0
 20
0.0
 30
0.0
  0
VERTEX
  5
144E4
  8
0
 10
106.95547200438359
 20
189.74368873142151
 30
0.0
  0
VERTEX
  5
144E5
  8
0
 10
106.94828187076379
 20
190.32385387406049
 30
0.0
  0
VERTEX
  5
144E6
  8
0
 10
106.8915072869795
 20
191.48867021721179
 30
0.0
  0
VERTEX
  5
144E7
  8
0
 10
106.77689694822629
 20
192.70779137475549
 30
0.0
  0
VERTEX
  5
144E8
  8
0
 10
106.6960522949682
 20
193.35693916609989
 30
0.0
  0
SEQEND
  5
144E9
  8
0
  0
POLYLINE
  5
F90E
  8
0
 66
     1
 10
0.0
 20
0.0
 30
0.0
  0
VERTEX
  5
144EA
  8
0
 10
101.7148917137992
 20
193.35693916609989
 30
0.0
  0
VERTEX
  5
144EB
  8
0
 10
101.63404706054121
 20
192.70779137475549
 30
0.0
  0
VERTEX
  5
144EC
  8
0
 10
101.519436721788
 20
191.48867021721179
 30
0.0
  0
VERTEX
  5
144ED
  8
0
 10
101.46266213800369
 20
190.32385387406049
 30
0.0
  0
VERTEX
  5
144EE
  8
0
 10
101.45547200438359
 20
189.74368873142151
 30
0.0
  0
SEQEND
  5
144EF
  8
0
  0
POLYLINE
  5
F90F
  8
0
 66
     1
 10
0.0
 20
0.0
 30
0.0
  0
VERTEX
  5
144F0
  8
0
 10
101.45547200438359
 20
189.74368873142151
 30
0.0
  0
VERTEX
  5
144F1
  8
0
 10
101.46266213800369
 20
189.16352358878251
 30
0.0
  0
VERTEX
  5
144F2
  8
0
 10
101.519436721788
 20
187.99870724563121
 30
0.0
  0
VERTEX
  5
144F3
  8
0
 10
101.63404706054121
 20
186.77958608808751
 30
0.0
  0
VERTEX
  5
144F4
  8
0
 10
101.7148917137992
 20
186.13043829674311
 30
0.0
  0
SEQEND
  5
144F5
  8
0
  0
POLYLINE
  5
F914
  8
0
 66
     1
 10
0.0
 20
0.0
 30
0.0
  0
VERTEX
  5
144F6
  8
0
 10
101.45547200438359
 20
195.16356438343911
 30
0.0
  0
VERTEX
  5
144F7
  8
0
 10
101.46266213800369
 20
194.87348181211971
 30
0.0
  0
VERTEX
  5
144F8
  8
0
 10
101.519436721788
 20
194.291073640544
 30
0.0
  0
VERTEX
  5
144F9
  8
0
 10
101.63404706054121
 20
193.68151306177211
 30
0.0
  0
VERTEX
  5
144FA
  8
0
 10
101.7148917137992
 20
193.35693916609989
 30
0.0
  0
SEQEND
  5
144FB
  8
0
  0
LINE
  5
F915
  8
0
 10
106.6960522949682
 20
193.35693916609989
 30
0.0
 11
101.7148917137992
 21
193.35693916609989
 31
0.0
  0
POLYLINE
  5
F916
  8
0
 66
     1
 10
0.0
 20
0.0
 30
0.0
  0
VERTEX
  5
144FC
  8
0
 10
106.6960522949682
 20
193.35693916609989
 30
0.0
  0
VERTEX
  5
144FD
  8
0
 10
106.77689694822629
 20
193.68151306177211
 30
0.0
  0
VERTEX
  5
144FE
  8
0
 10
106.8915072869795
 20
194.291073640544
 30
0.0
  0
VERTEX
  5
144FF
  8
0
 10
106.94828187076379
 20
194.87348181211971
 30
0.0
  0
VERTEX
  5
14500
  8
0
 10
106.95547200438359
 20
195.16356438343911
 30
0.0
  0
SEQEND
  5
14501
  8
0
  0
POLYLINE
  5
F917
  8
0
 66
     1
 10
0.0
 20
0.0
 30
0.0
  0
VERTEX
  5
14502
  8
0
 10
106.95547200438359
 20
195.16356438343911
 30
0.0
  0
VERTEX
  5
14503
  8
0
 10
106.94828187076379
 20
195.4536469547586
 30
0.0
  0
VERTEX
  5
14504
  8
0
 10
106.8915072869795
 20
196.0360551263343
 30
0.0
  0
VERTEX
  5
14505
  8
0
 10
106.776896948226
 20
196.64561570510611
 30
0.0
  0
VERTEX
  5
14506
  8
0
 10
106.696052294968
 20
196.97018960077841
 30
0.0
  0
SEQEND
  5
14507
  8
0
  0
LINE
  5
F918
  8
0
 10
106.696052294968
 20
196.97018960077841
 30
0.0
 11
101.71489171379901
 21
196.9701896007783
 31
0.0
  0
POLYLINE
  5
F919
  8
0
 66
     1
 10
0.0
 20
0.0
 30
0.0
  0
VERTEX
  5
14508
  8
0
 10
101.71489171379901
 20
196.9701896007783
 30
0.0
  0
VERTEX
  5
14509
  8
0
 10
101.63404706054089
 20
196.64561570510611
 30
0.0
  0
VERTEX
  5
1450A
  8
0
 10
101.519436721788
 20
196.03605512633419
 30
0.0
  0
VERTEX
  5
1450B
  8
0
 10
101.46266213800369
 20
195.4536469547586
 30
0.0
  0
VERTEX
  5
1450C
  8
0
 10
101.45547200438359
 20
195.16356438343911
 30
0.0
  0
SEQEND
  5
1450D
  8
0
  0
LINE
  5
F91E
  8
0
 10
153.95547200438361
 20
183.74368873142191
 30
0.0
 11
153.95547200438361
 21
195.74368873142191
 31
0.0
  0
LINE
  5
F91F
  8
0
 10
108.95547200438359
 20
183.74368873142151
 30
0.0
 11
108.95547200438359
 21
195.7436887314216
 31
0.0
  0
ARC
  5
F944
  8
0
 10
144.25547200438399
 20
142.8346515511268
 30
0.0
 40
2.0000000000000009
 50
279.59406822687799
 51
0.0
  0
ARC
  5
F947
  8
0
 10
131.25547200438331
 20
219.74368873142069
 30
0.0
 40
79.999999999998934
 50
260.40593177314832
 51
279.59406822687799
  0
ARC
  5
F949
  8
0
 10
118.255472004384
 20
142.8346515511266
 30
0.0
 40
1.999999999999968
 50
180.0
 51
260.40593177314832
  0
LINE
  5
F956
  8
0
 10
146.25547200438399
 20
142.8346515511268
 30
0.0
 11
146.25547200438331
 21
235.43109668683169
 31
0.0
  0
LINE
  5
F959
  8
0
 10
116.255472004384
 20
142.8346515511266
 30
0.0
 11
116.25547200438329
 21
235.43109668683169
 31
0.0
  0
LINE
  5
F961
  8
3
 10
96.255472004383833
 20
192.97668873142149
 30
0.0
 11
98.955472004383651
 21
192.97668873142149
 31
0.0
  0
LINE
  5
F962
  8
3
 10
96.255472004383833
 20
186.51068873142151
 30
0.0
 11
98.955472004383651
 21
186.51068873142151
 31
0.0
  0
LINE
  5
F964
  8
1
 10
88.027237276522101
 20
189.7436887314206
 30
0.0
 11
174.4837067322805
 21
189.7436887314206
 31
0.0
  0
LINE
  5
F965
  8
1
 10
131.2554720044013
 20
127.9274887509781
 30
0.0
 11
131.2554720044013
 21
279.55988871186281
 31
0.0
  0
LINE
  5
F969
  8
0
 10
150.25547200438311
 20
235.43109668683169
 30
0.0
 11
112.25547200438309
 21
235.43109668683169
 31
0.0
  0
LINE
  5
F96A
  8
0
 10
150.25547200438311
 20
235.43109668683169
 30
0.0
 11
150.25547200438311
 21
243.4730105916471
 31
0.0
  0
LINE
  5
F96B
  8
0
 10
147.25547200438331
 20
243.4730105916471
 30
0.0
 11
147.25547200438331
 21
244.60214967266339
 31
0.0
  0
LINE
  5
F96C
  8
0
 10
150.25547200438311
 20
243.4730105916471
 30
0.0
 11
112.25547200438309
 21
243.4730105916471
 31
0.0
  0
LINE
  5
F96D
  8
0
 10
112.25547200438309
 20
235.43109668683169
 30
0.0
 11
112.25547200438309
 21
243.4730105916471
 31
0.0
  0
LINE
  5
F96E
  8
0
 10
147.25547200438331
 20
244.60214967266339
 30
0.0
 11
115.2554720043829
 21
244.60214967266339
 31
0.0
  0
LINE
  5
F96F
  8
0
 10
115.2554720043829
 20
243.4730105916471
 30
0.0
 11
115.2554720043829
 21
244.60214967266339
 31
0.0
  0
LINE
  5
F970
  8
0
 10
112.25547200438309
 20
238.03581935183541
 30
0.0
 11
150.25547200438311
 21
238.03581935183541
 31
0.0
  0
LINE
  5
F971
  8
0
 10
150.25547200438311
 20
240.7436887314216
 30
0.0
 11
151.75547200438359
 21
240.7436887314216
 31
0.0
  0
LINE
  5
F972
  8
0
 10
150.25547200438311
 20
240.74368873142191
 30
0.0
 11
151.75547200438331
 21
240.74368873142191
 31
0.0
  0
LINE
  5
F9F3
  8
0
 10
547.91401718531847
 20
235.43109668683209
 30
0.0
 11
550.41401718531836
 21
235.43109668683209
 31
0.0
  0
LINE
  5
F9F5
  8
0
 10
517.91401718531836
 20
235.43109668683209
 30
0.0
 11
515.41401718531836
 21
235.43109668683209
 31
0.0
  0
LINE
  5
FA7A
  8
1
 10
489.68578245747511
 20
189.74368873142089
 30
0.0
 11
576.14225191323362
 21
189.74368873142089
 31
0.0
  0
LINE
  5
FA7B
  8
1
 10
532.9140171853544
 20
127.9274887509784
 30
0.0
 11
532.9140171853544
 21
279.5598887118631
 31
0.0
  0
LINE
  5
14052
  8
3
 10
106.95547200438359
 20
192.97668873142149
 30
0.0
 11
108.95547200438359
 21
192.97668873142149
 31
0.0
  0
LINE
  5
14053
  8
3
 10
106.95547200438359
 20
186.51068873141949
 30
0.0
 11
108.95547200438359
 21
186.51068873141949
 31
0.0
  0
LINE
  5
14054
  8
3
 10
153.95547200438361
 20
186.51068873142
 30
0.0
 11
155.95547200438361
 21
186.51068873142
 31
0.0
  0
LINE
  5
14055
  8
3
 10
153.95547200438361
 20
192.97668873142149
 30
0.0
 11
155.95547200438361
 21
192.97668873142149
 31
0.0
  0
LINE
  5
14056
  8
3
 10
567.91401718531836
 20
192.976688731422
 30
0.0
 11
565.21401718531865
 21
192.976688731422
 31
0.0
  0
LINE
  5
14057
  8
3
 10
567.91401718531836
 20
186.51068873142199
 30
0.0
 11
565.21401718531865
 21
186.51068873142199
 31
0.0
  0
TEXT
  5
140B7
  8
0
 62
     3
 10
0.0
 20
0.0
 30
0.0
 40
10.0
  1
CAG1-100SBF
  7
STANDARD1
  0
ENDSEC
  0
EOF
