  0
SECTION
  2
HEADER
  9
$ACADVER
  1
AC1009
  9
$INSBASE
 10
0.0
 20
0.0
 30
0.0
  9
$EXTMIN
 10
0.0
 20
-2.960436562073669
 30
0.0
  9
$EXTMAX
 10
611.37739324007691
 20
487.3219985582727
 30
0.0
  9
$LIMMIN
 10
0.0
 20
0.0
  9
$LIMMAX
 10
375.0
 20
270.0
  9
$ORTHOMODE
 70
     1
  9
$REGENMODE
 70
     1
  9
$FILLMODE
 70
     1
  9
$QTEXTMODE
 70
     0
  9
$MIRRTEXT
 70
     1
  9
$DRAGMODE
 70
     2
  9
$LTSCALE
 40
10.0
  9
$OSMODE
 70
  3071
  9
$ATTMODE
 70
     1
  9
$TEXTSIZE
 40
5.0
  9
$TRACEWID
 40
0.05
  9
$TEXTSTYLE
  7
STANDARD
  9
$CLAYER
  8
0
  9
$CELTYPE
  6
BYLAYER
  9
$CECOLOR
 62
     6
  9
$DIMSCALE
 40
1.0
  9
$DIMASZ
 40
3.0
  9
$DIMEXO
 40
2.0
  9
$DIMDLI
 40
0.38
  9
$DIMRND
 40
0.0
  9
$DIMDLE
 40
0.0
  9
$DIMEXE
 40
2.0
  9
$DIMTP
 40
0.0
  9
$DIMTM
 40
0.0
  9
$DIMTXT
 40
3.2000000000000002
  9
$DIMCEN
 40
0.0
  9
$DIMTSZ
 40
0.0
  9
$DIMTOL
 70
     0
  9
$DIMLIM
 70
     0
  9
$DIMTIH
 70
     0
  9
$DIMTOH
 70
     0
  9
$DIMSE1
 70
     0
  9
$DIMSE2
 70
     0
  9
$DIMTAD
 70
     1
  9
$DIMZIN
 70
     8
  9
$DIMBLK
  1

  9
$DIMASO
 70
     0
  9
$DIMSHO
 70
     0
  9
$DIMPOST
  1

  9
$DIMAPOST
  1

  9
$DIMALT
 70
     0
  9
$DIMALTD
 70
     2
  9
$DIMALTF
 40
25.399999999999999
  9
$DIMLFAC
 40
1.0
  9
$DIMTOFL
 70
     0
  9
$DIMTVP
 40
1.6000000000000001
  9
$DIMTIX
 70
     1
  9
$DIMSOXD
 70
     0
  9
$DIMSAH
 70
     0
  9
$DIMBLK1
  1

  9
$DIMBLK2
  1

  9
$DIMSTYLE
  2
STANDARD
  9
$DIMCLRD
 70
     0
  9
$DIMCLRE
 70
     0
  9
$DIMCLRT
 70
     0
  9
$DIMTFAC
 40
1.0
  9
$DIMGAP
 40
1.1999999999999991
  9
$LUNITS
 70
     2
  9
$LUPREC
 70
     4
  9
$SKETCHINC
 40
0.1
  9
$FILLETRAD
 40
0.0
  9
$AUNITS
 70
     0
  9
$AUPREC
 70
     4
  9
$MENU
  1
ACAD
  9
$ELEVATION
 40
0.0
  9
$PELEVATION
 40
0.0
  9
$THICKNESS
 40
0.0
  9
$LIMCHECK
 70
     0
  9
$BLIPMODE
 70
     0
  9
$CHAMFERA
 40
0.0
  9
$CHAMFERB
 40
0.0
  9
$SKPOLY
 70
     0
  9
$TDCREATE
 40
2448055.7149187499
  9
$TDUPDATE
 40
2456598.5777864358
  9
$TDINDWG
 40
2.0655591782
  9
$TDUSRTIMER
 40
2.0655591782
  9
$USRTIMER
 70
     1
  9
$ANGBASE
 50
0.0
  9
$ANGDIR
 70
     0
  9
$PDMODE
 70
     0
  9
$PDSIZE
 40
0.0
  9
$PLINEWID
 40
0.0
  9
$COORDS
 70
     1
  9
$SPLFRAME
 70
     0
  9
$SPLINETYPE
 70
     6
  9
$SPLINESEGS
 70
     8
  9
$ATTDIA
 70
     0
  9
$ATTREQ
 70
     1
  9
$HANDLING
 70
     1
  9
$HANDSEED
  5
143DF
  9
$SURFTAB1
 70
     6
  9
$SURFTAB2
 70
     6
  9
$SURFTYPE
 70
     6
  9
$SURFU
 70
     6
  9
$SURFV
 70
     6
  9
$UCSNAME
  2

  9
$UCSORG
 10
0.0
 20
0.0
 30
0.0
  9
$UCSXDIR
 10
1.0
 20
0.0
 30
0.0
  9
$UCSYDIR
 10
0.0
 20
1.0
 30
0.0
  9
$PUCSNAME
  2

  9
$PUCSORG
 10
0.0
 20
0.0
 30
0.0
  9
$PUCSXDIR
 10
1.0
 20
0.0
 30
0.0
  9
$PUCSYDIR
 10
0.0
 20
1.0
 30
0.0
  9
$USERI1
 70
     0
  9
$USERI2
 70
     0
  9
$USERI3
 70
     0
  9
$USERI4
 70
     0
  9
$USERI5
 70
     0
  9
$USERR1
 40
0.0
  9
$USERR2
 40
0.0
  9
$USERR3
 40
0.0
  9
$USERR4
 40
0.0
  9
$USERR5
 40
0.0
  9
$WORLDVIEW
 70
     1
  9
$SHADEDGE
 70
     3
  9
$SHADEDIF
 70
    70
  9
$TILEMODE
 70
     1
  9
$MAXACTVP
 70
    16
  9
$PLIMCHECK
 70
     0
  9
$PEXTMIN
 10
1.0000000000000000E+020
 20
1.0000000000000000E+020
 30
1.0000000000000000E+020
  9
$PEXTMAX
 10
-1.0000000000000000E+020
 20
-1.0000000000000000E+020
 30
-1.0000000000000000E+020
  9
$PLIMMIN
 10
0.0
 20
0.0
  9
$PLIMMAX
 10
12.0
 20
9.0
  9
$UNITMODE
 70
     0
  9
$VISRETAIN
 70
     0
  9
$PLINEGEN
 70
     1
  9
$PSLTSCALE
 70
     0
  0
ENDSEC
  0
SECTION
  2
TABLES
  0
TABLE
  2
VPORT
 70
     1
  0
VPORT
  2
*ACTIVE
 70
     0
 10
0.0
 20
0.0
 11
1.0
 21
1.0
 12
319.27510533614691
 22
242.1738116957365
 13
0.0
 23
0.0
 14
5.0
 24
5.0
 15
10.0
 25
10.0
 16
0.0
 26
0.0
 36
1.0
 17
0.0
 27
0.0
 37
0.0
 40
494.7236634437582
 41
1.831871345029239
 42
50.0
 43
0.0
 44
0.0
 50
0.0
 51
0.0
 71
     0
 72
   500
 73
     1
 74
     1
 75
     0
 76
     0
 77
     0
 78
     2
  0
ENDTAB
  0
TABLE
  2
LTYPE
 70
     3
  0
LTYPE
  2
CONTINUOUS
 70
     0
  3
実線
 72
    65
 73
     0
 40
0.0
  0
LTYPE
  2
CENTER
 70
     0
  3
____ _ ____ _ ____ _ ____ _ ____ _ ____ _ ____
 72
    65
 73
     4
 40
2.0
 49
1.25
 49
-0.25
 49
0.25
 49
-0.25
  0
LTYPE
  2
PHANTOM2
 70
     0
  3
___ _ _ ___ _ _ ___ _ _ ___ _ _
 72
    65
 73
     6
 40
1.25
 49
0.625
 49
-0.125
 49
0.125
 49
-0.125
 49
0.125
 49
-0.125
  0
ENDTAB
  0
TABLE
  2
LAYER
 70
     4
  0
LAYER
  2
0
 70
     0
 62
     7
  6
CONTINUOUS
  0
LAYER
  2
1
 70
     0
 62
     1
  6
CENTER
  0
LAYER
  2
DEFPOINTS
 70
     0
 62
     7
  6
CONTINUOUS
  0
LAYER
  2
3
 70
     0
 62
     3
  6
CONTINUOUS
  0
ENDTAB
  0
TABLE
  2
STYLE
 70
     3
  0
STYLE
  2
STANDARD
 70
     0
 40
0.0
 41
1.0
 50
0.0
 71
     0
 42
5.0
  3
simplex.shx
  4
bigfont.shx
  0
STYLE
  2
07500
 70
     0
 40
0.0
 41
0.75
 50
0.0
 71
     0
 42
0.2
  3
simplex.shx
  4
bigfont.shx
  0
STYLE
  2
STANDARD1
 70
     0
 40
0.0
 41
1.0
 50
0.0
 71
     0
 42
3.0
  3
txt
  4

  0
ENDTAB
  0
TABLE
  2
VIEW
 70
     2
  0
VIEW
  2
ALL
 70
     0
 40
270.0
 10
220.99159663865549
 20
135.0
 41
0.0
 11
0.0
 21
0.0
 31
1.0
 12
0.0
 22
0.0
 32
0.0
 42
0.0
 43
0.0
 44
0.0
 50
0.0
 71
     0
  0
VIEW
  2
OLE1
 70
     0
 40
168.2487151179721
 10
2892.3009567448912
 20
702.51600084347126
 41
162.5749581879237
 11
0.0
 21
0.0
 31
1.0
 12
0.0
 22
0.0
 32
0.0
 42
50.0
 43
0.0
 44
0.0
 50
0.0
 71
     0
  0
ENDTAB
  0
TABLE
  2
UCS
 70
     0
  0
ENDTAB
  0
TABLE
  2
APPID
 70
    48
  0
APPID
  2
ACAD
 70
     0
  0
APPID
  2
DCO15
 70
     0
  0
APPID
  2
GENIUS_GENOREF_13
 70
     0
  0
APPID
  2
GENIUS_GENOENT_13
 70
     0
  0
APPID
  2
GENIUS_GENBH_13
 70
     0
  0
APPID
  2
GENIUS_GENOBJ_13
 70
     0
  0
APPID
  2
GENIUS_GENODEF_13
 70
     0
  0
APPID
  2
GENIUS_GENOLIS_13
 70
     0
  0
APPID
  2
GENIUS_GENOBJ-NBEHI-BHF_13
 70
     0
  0
APPID
  2
GENIUS_GENOBJ-NBEHI-BHB_13
 70
     0
  0
APPID
  2
GENIUS_GENOBJ-F-PART_13
 70
     0
  0
APPID
  2
GENIUS_GEFSTDP_13
 70
     0
  0
APPID
  2
GENIUS_GENOBJ-N-RSSYM_13
 70
     0
  0
APPID
  2
GENIUS_GENSYMENT_13
 70
     0
  0
APPID
  2
GENIUS_GENOBJ-N-TIT_13
 70
     0
  0
APPID
  2
GENIUS_GENTITLE_13
 70
     0
  0
APPID
  2
GENIUS_GENZVEED_13
 70
     0
  0
APPID
  2
GENIUS_GENOBJ-N-LEADER_13
 70
     0
  0
APPID
  2
GENIUS_GENOBJ-N-FIL_13
 70
     0
  0
APPID
  2
GENIUS_GENOBJ-N-SEC_13
 70
     0
  0
APPID
  2
GENIUS_GENOBJ-N-CRS_13
 70
     0
  0
APPID
  2
GENIUS_GENOBJ-N-ZOO_13
 70
     0
  0
APPID
  2
GENIUS_GENZOO_13
 70
     0
  0
APPID
  2
GENIUS_GENOBJ-F-TOL_13
 70
     0
  0
APPID
  2
GENIUS_GENFIL_13
 70
     0
  0
APPID
  2
GENIUS_GENOBJ-N-CHA_13
 70
     0
  0
APPID
  2
_CALL_MAC$
 70
     0
  0
APPID
  2
ASM_BASE
 70
     0
  0
APPID
  2
ASM_EXPLO_VER_2_00
 70
     0
  0
APPID
  2
ASM_CADM_VER_12_00
 70
     0
  0
APPID
  2
ASM_BASEFORO
 70
     0
  0
APPID
  2
ASM_BASETRAVI
 70
     0
  0
APPID
  2
ASM_BASETRAVI1
 70
     0
  0
APPID
  2
ASM_GRUPPI
 70
     0
  0
APPID
  2
ASM_CADM_ALBERO
 70
     0
  0
APPID
  2
ASM_GOLE
 70
     0
  0
APPID
  2
ACAD_MLEADERVER
 70
     0
  0
APPID
  2
ACAD_DSTYLE_DIMJAG
 70
     0
  0
APPID
  2
ACAD_DSTYLE_DIMTALN
 70
     0
  0
APPID
  2
ACAD_EXEMPT_FROM_CAD_STANDARDS
 70
     0
  0
APPID
  2
ACAD_DSTYLE_DIMRADIAL_EXTENSION
 70
     0
  0
APPID
  2
ACAD_PSEXT
 70
     0
  0
APPID
  2
ACAD_DSTYLE_DIMBREAK
 70
     0
  0
APPID
  2
ACAECLAYERSTANDARD
 70
     0
  0
APPID
  2
ACCMTRANSPARENCY
 70
     0
  0
APPID
  2
GRADIENTCOLOR1ACI
 70
     0
  0
APPID
  2
GRADIENTCOLOR2ACI
 70
     0
  0
APPID
  2
ACAD_NAV_VCDISPLAY
 70
     0
  0
ENDTAB
  0
TABLE
  2
DIMSTYLE
 70
     1
  0
DIMSTYLE
  2
STANDARD
 70
     0
  3

  4

  5

  6

  7

 40
1.0
 41
0.18
 42
0.0625
 43
0.38
 44
0.18
 45
0.0
 46
0.0
 47
0.0
 48
0.0
140
0.18
141
0.09
142
0.0
143
25.399999999999999
144
1.0
145
0.0
146
1.0
147
0.09
 71
     0
 72
     0
 73
     1
 74
     1
 75
     0
 76
     0
 77
     0
 78
     0
170
     0
171
     2
172
     0
173
     0
174
     0
175
     0
176
     0
177
     0
178
     0
  0
ENDTAB
  0
ENDSEC
  0
SECTION
  2
BLOCKS
  0
BLOCK
  8
0
  2
$MODEL_SPACE
 70
     0
 10
0.0
 20
0.0
 30
0.0
  3
$MODEL_SPACE
  1

  0
ENDBLK
  5
36
  8
0
  0
BLOCK
 67
     1
  8
0
  2
$PAPER_SPACE
 70
     0
 10
0.0
 20
0.0
 30
0.0
  3
$PAPER_SPACE
  1

  0
ENDBLK
  5
34
 67
     1
  8
0
  0
ENDSEC
  0
SECTION
  2
ENTITIES
  0
CIRCLE
  5
851B
  8
0
 10
355.9023159840475
 20
434.77251748446008
 30
0.0
 40
8.9249999999999972
  0
LINE
  5
851C
  8
0
 10
304.2023159840474
 20
453.27251748446008
 30
0.0
 11
304.2023159840474
 21
456.27251748446008
 31
0.0
  0
LINE
  5
851D
  8
0
 10
304.2023159840474
 20
413.27251748446008
 30
0.0
 11
304.2023159840474
 21
416.27251748446008
 31
0.0
  0
LINE
  5
851E
  8
0
 10
305.9023159840475
 20
401.27251748446008
 30
0.0
 11
305.9023159840475
 21
468.27251748446008
 31
0.0
  0
ARC
  5
851F
  8
0
 10
314.9023159840475
 20
401.27251748446008
 30
0.0
 40
8.9999999999999911
 50
180.0
 51
270.0
  0
LINE
  5
8520
  8
0
 10
396.9023159840475
 20
392.27251748446008
 30
0.0
 11
314.9023159840475
 21
392.27251748446008
 31
0.0
  0
ARC
  5
8521
  8
0
 10
396.9023159840475
 20
401.27251748446008
 30
0.0
 40
9.0000000000000142
 50
270.0
 51
0.0
  0
LINE
  5
8522
  8
0
 10
405.90231598404739
 20
468.27251748446008
 30
0.0
 11
405.90231598404739
 21
401.27251748446008
 31
0.0
  0
ARC
  5
8523
  8
0
 10
396.9023159840475
 20
468.27251748446008
 30
0.0
 40
9.0
 50
0.0
 51
90.0
  0
LINE
  5
8524
  8
0
 10
314.9023159840475
 20
477.27251748446008
 30
0.0
 11
396.9023159840475
 21
477.27251748446008
 31
0.0
  0
ARC
  5
8525
  8
0
 10
314.9023159840475
 20
468.27251748446008
 30
0.0
 40
8.9999999999999947
 50
90.0
 51
180.0
  0
LINE
  5
8526
  8
0
 10
400.1713908252749
 20
463.34949253738438
 30
0.0
 11
397.6713908252749
 21
455.84949253738438
 31
0.0
  0
ARC
  5
8527
  8
0
 10
393.4023159840475
 20
457.27251748446008
 30
0.0
 40
4.499999999999968
 50
161.56505117705731
 51
341.5650511770574
  0
LINE
  5
8528
  8
0
 10
389.13324114282028
 20
458.69554243153601
 30
0.0
 11
391.6332411428204
 21
466.19554243153601
 31
0.0
  0
ARC
  5
8529
  8
0
 10
395.9023159840475
 20
464.77251748446008
 30
0.0
 40
4.499999999999968
 50
341.5650511770574
 51
161.56505117705731
  0
LINE
  5
852A
  8
0
 10
391.6332411428204
 20
403.34949253738449
 30
0.0
 11
389.13324114282028
 21
410.84949253738449
 31
0.0
  0
ARC
  5
852B
  8
0
 10
393.4023159840475
 20
412.27251748446008
 30
0.0
 40
4.4999999999999938
 50
18.434948822942609
 51
198.4349488229426
  0
LINE
  5
852C
  8
0
 10
397.6713908252749
 20
413.69554243153601
 30
0.0
 11
400.1713908252749
 21
406.1955424315359
 31
0.0
  0
ARC
  5
852D
  8
0
 10
395.9023159840475
 20
404.77251748446008
 30
0.0
 40
4.4999999999999929
 50
198.4349488229426
 51
18.434948822942609
  0
LINE
  5
852E
  8
0
 10
314.13324114282028
 20
455.84949253738438
 30
0.0
 11
311.63324114282028
 21
463.34949253738438
 31
0.0
  0
ARC
  5
852F
  8
0
 10
315.9023159840475
 20
464.77251748446008
 30
0.0
 40
4.4999999999999956
 50
18.434948822942609
 51
198.4349488229426
  0
LINE
  5
8530
  8
0
 10
320.1713908252749
 20
466.19554243153601
 30
0.0
 11
322.6713908252749
 21
458.69554243153601
 31
0.0
  0
ARC
  5
8531
  8
0
 10
318.4023159840475
 20
457.27251748446008
 30
0.0
 40
4.4999999999999956
 50
198.4349488229426
 51
18.434948822942609
  0
LINE
  5
8532
  8
0
 10
322.6713908252749
 20
410.84949253738449
 30
0.0
 11
320.1713908252749
 21
403.34949253738449
 31
0.0
  0
ARC
  5
8533
  8
0
 10
315.9023159840475
 20
404.77251748446008
 30
0.0
 40
4.5
 50
161.56505117705731
 51
341.5650511770574
  0
LINE
  5
8534
  8
0
 10
311.63324114282028
 20
406.1955424315359
 30
0.0
 11
314.13324114282028
 21
413.69554243153601
 31
0.0
  0
ARC
  5
8535
  8
0
 10
318.4023159840475
 20
412.27251748446008
 30
0.0
 40
4.4999999999999956
 50
341.5650511770574
 51
161.56505117705731
  0
CIRCLE
  5
8539
  8
0
 10
355.9023159840475
 20
434.77251748446008
 30
0.0
 40
13.57900689360916
  0
CIRCLE
  5
853D
  8
0
 10
355.9023159840475
 20
434.77251748446008
 30
0.0
 40
20.175000000000001
  0
CIRCLE
  5
8540
  8
0
 10
355.9023159840475
 20
434.77251748446008
 30
0.0
 40
25.668546822706869
  0
CIRCLE
  5
8541
  8
0
 10
355.9023159840475
 20
434.77251748446008
 30
0.0
 40
27.174999999999962
  0
CIRCLE
  5
8543
  8
0
 10
355.9023159840475
 20
434.77251748446008
 30
0.0
 40
31.175000000000001
  0
LINE
  5
8545
  8
0
 10
322.78979817774359
 20
413.27251748446008
 30
0.0
 11
313.9922328271283
 21
413.27251748446008
 31
0.0
  0
LINE
  5
8546
  8
0
 10
322.78979817774359
 20
456.27251748446008
 30
0.0
 11
313.9922328271283
 21
456.27251748446008
 31
0.0
  0
LINE
  5
8547
  8
0
 10
305.9023159840475
 20
456.27251748446008
 30
0.0
 11
304.2023159840474
 21
456.27251748446008
 31
0.0
  0
LINE
  5
8549
  8
0
 10
304.2023159840474
 20
413.27251748446008
 30
0.0
 11
305.9023159840475
 21
413.27251748446008
 31
0.0
  0
LINE
  5
854B
  8
0
 10
305.9023159840475
 20
453.27251748446008
 30
0.0
 11
304.2023159840474
 21
453.27251748446008
 31
0.0
  0
LINE
  5
854C
  8
0
 10
304.2023159840474
 20
416.27251748446008
 30
0.0
 11
305.9023159840475
 21
416.27251748446008
 31
0.0
  0
LINE
  5
854D
  8
1
 10
246.3528349102352
 20
434.77251748446008
 30
0.0
 11
415.95179705786001
 21
434.77251748446008
 31
0.0
  0
LINE
  5
854E
  8
1
 10
355.9023159840475
 20
487.3219985582727
 30
0.0
 11
355.9023159840475
 21
382.22303641064758
 31
0.0
  0
LINE
  5
855F
  8
0
 10
313.08731598404768
 20
409.17251748446017
 30
0.0
 11
313.08731598404768
 21
409.77251748446008
 31
0.0
  0
LINE
  5
8560
  8
0
 10
314.9023159840475
 20
466.77251748446008
 30
0.0
 11
314.9023159840475
 21
469.00551748446009
 31
0.0
  0
LINE
  5
8561
  8
0
 10
314.9023159840475
 20
469.00551748446009
 30
0.0
 11
315.09659696196837
 21
469.1997984623809
 31
0.0
  0
LINE
  5
8562
  8
0
 10
314.9023159840475
 20
456.77251748446008
 30
0.0
 11
314.9023159840475
 21
458.77251748446008
 31
0.0
  0
LINE
  5
8563
  8
0
 10
313.08731598404768
 20
464.27251748446008
 30
0.0
 11
313.08731598404768
 21
466.77251748446008
 31
0.0
  0
LINE
  5
8564
  8
0
 10
314.9023159840475
 20
409.77251748446008
 30
0.0
 11
314.9023159840475
 21
411.77251748446008
 31
0.0
  0
LINE
  5
8565
  8
0
 10
313.08731598404768
 20
409.77251748446008
 30
0.0
 11
322.31635608163759
 21
409.77251748446008
 31
0.0
  0
LINE
  5
8566
  8
0
 10
314.9023159840475
 20
469.00551748446009
 30
0.0
 11
317.42842753974139
 21
469.00551748446009
 31
0.0
  0
LINE
  5
8567
  8
0
 10
312.64398265071412
 20
404.47251748446013
 30
0.0
 11
320.54735332207349
 21
404.47251748446013
 31
0.0
  0
LINE
  5
8568
  8
0
 10
312.64398265071412
 20
409.17251748446017
 30
0.0
 11
322.11444017364983
 21
409.17251748446017
 31
0.0
  0
POLYLINE
  5
8569
  8
0
 66
     1
 10
0.0
 20
0.0
 30
0.0
  0
VERTEX
  5
1403B
  8
0
 10
312.64398265071412
 20
404.47251748446013
 30
0.0
  0
VERTEX
  5
1403C
  8
0
 10
312.64398265071412
 20
404.47970761808023
 30
0.0
  0
VERTEX
  5
1403D
  8
0
 10
312.64398265071412
 20
404.53648220186449
 30
0.0
  0
VERTEX
  5
1403E
  8
0
 10
312.64398265071412
 20
404.65109254061753
 30
0.0
  0
VERTEX
  5
1403F
  8
0
 10
312.64398265071412
 20
404.73193719387569
 30
0.0
  0
SEQEND
  5
14040
  8
0
  0
POLYLINE
  5
856A
  8
0
 66
     1
 10
0.0
 20
0.0
 30
0.0
  0
VERTEX
  5
14041
  8
0
 10
312.64398265071412
 20
408.91309777504449
 30
0.0
  0
VERTEX
  5
14042
  8
0
 10
312.64398265071412
 20
408.99394242830289
 30
0.0
  0
VERTEX
  5
14043
  8
0
 10
312.64398265071412
 20
409.10855276705581
 30
0.0
  0
VERTEX
  5
14044
  8
0
 10
312.64398265071412
 20
409.16532735084007
 30
0.0
  0
VERTEX
  5
14045
  8
0
 10
312.64398265071412
 20
409.17251748446017
 30
0.0
  0
SEQEND
  5
14046
  8
0
  0
POLYLINE
  5
856B
  8
0
 66
     1
 10
0.0
 20
0.0
 30
0.0
  0
VERTEX
  5
14047
  8
0
 10
322.03148265071428
 20
409.17251748446017
 30
0.0
  0
VERTEX
  5
14048
  8
0
 10
321.52904489879859
 20
409.16532735084041
 30
0.0
  0
VERTEX
  5
14049
  8
0
 10
320.52028435488648
 20
409.10855276705581
 30
0.0
  0
VERTEX
  5
1404A
  8
0
 10
319.46449446216241
 20
408.99394242830289
 30
0.0
  0
VERTEX
  5
1404B
  8
0
 10
318.9023159840475
 20
408.91309777504449
 30
0.0
  0
SEQEND
  5
1404C
  8
0
  0
POLYLINE
  5
856C
  8
0
 66
     1
 10
0.0
 20
0.0
 30
0.0
  0
VERTEX
  5
1404D
  8
0
 10
318.9023159840475
 20
404.73193719387569
 30
0.0
  0
VERTEX
  5
1404E
  8
0
 10
319.19546191746429
 20
404.68821803474242
 30
0.0
  0
VERTEX
  5
1404F
  8
0
 10
319.75985895439601
 20
404.61385214856438
 30
0.0
  0
VERTEX
  5
14050
  8
0
 10
320.30166470085038
 20
404.55585558094327
 30
0.0
  0
VERTEX
  5
14051
  8
0
 10
320.56639845914748
 20
404.53270453047861
 30
0.0
  0
SEQEND
  5
14052
  8
0
  0
POLYLINE
  5
856D
  8
0
 66
     1
 10
0.0
 20
0.0
 30
0.0
  0
VERTEX
  5
14053
  8
0
 10
322.11270276843339
 20
409.17232920395639
 30
0.0
  0
VERTEX
  5
14054
  8
0
 10
322.0991779696289
 20
409.17238668593637
 30
0.0
  0
VERTEX
  5
14055
  8
0
 10
322.07211449434533
 20
409.1724703618371
 30
0.0
  0
VERTEX
  5
14056
  8
0
 10
322.04503165529252
 20
409.17251224463729
 30
0.0
  0
VERTEX
  5
14057
  8
0
 10
322.03148265071428
 20
409.17251748446017
 30
0.0
  0
SEQEND
  5
14058
  8
0
  0
POLYLINE
  5
856E
  8
0
 66
     1
 10
0.0
 20
0.0
 30
0.0
  0
VERTEX
  5
14059
  8
0
 10
315.7731493173809
 20
409.17251748446017
 30
0.0
  0
VERTEX
  5
1405A
  8
0
 10
315.27071156546538
 20
409.16532735084041
 30
0.0
  0
VERTEX
  5
1405B
  8
0
 10
314.26195102155299
 20
409.10855276705581
 30
0.0
  0
VERTEX
  5
1405C
  8
0
 10
313.20616112882919
 20
408.99394242830289
 30
0.0
  0
VERTEX
  5
1405D
  8
0
 10
312.64398265071412
 20
408.91309777504449
 30
0.0
  0
SEQEND
  5
1405E
  8
0
  0
LINE
  5
856F
  8
0
 10
312.64398265071412
 20
404.73193719387569
 30
0.0
 11
312.64398265071412
 21
408.91309777504449
 31
0.0
  0
POLYLINE
  5
8570
  8
0
 66
     1
 10
0.0
 20
0.0
 30
0.0
  0
VERTEX
  5
1405F
  8
0
 10
312.64398265071412
 20
404.73193719387569
 30
0.0
  0
VERTEX
  5
14060
  8
0
 10
313.20616112882919
 20
404.65109254061753
 30
0.0
  0
VERTEX
  5
14061
  8
0
 10
314.26195102155299
 20
404.53648220186449
 30
0.0
  0
VERTEX
  5
14062
  8
0
 10
315.27071156546538
 20
404.47970761808023
 30
0.0
  0
VERTEX
  5
14063
  8
0
 10
315.7731493173809
 20
404.47251748446013
 30
0.0
  0
SEQEND
  5
14064
  8
0
  0
POLYLINE
  5
8571
  8
0
 66
     1
 10
0.0
 20
0.0
 30
0.0
  0
VERTEX
  5
14065
  8
0
 10
315.7731493173809
 20
404.47251748446013
 30
0.0
  0
VERTEX
  5
14066
  8
0
 10
316.27558706929642
 20
404.47970761808023
 30
0.0
  0
VERTEX
  5
14067
  8
0
 10
317.28434761320869
 20
404.53648220186449
 30
0.0
  0
VERTEX
  5
14068
  8
0
 10
318.3401375059326
 20
404.65109254061753
 30
0.0
  0
VERTEX
  5
14069
  8
0
 10
318.9023159840475
 20
404.73193719387569
 30
0.0
  0
SEQEND
  5
1406A
  8
0
  0
LINE
  5
8572
  8
0
 10
318.9023159840475
 20
404.73193719387569
 30
0.0
 11
318.9023159840475
 21
408.91309777504449
 31
0.0
  0
POLYLINE
  5
8573
  8
0
 66
     1
 10
0.0
 20
0.0
 30
0.0
  0
VERTEX
  5
1406B
  8
0
 10
318.9023159840475
 20
408.91309777504449
 30
0.0
  0
VERTEX
  5
1406C
  8
0
 10
318.3401375059326
 20
408.99394242830289
 30
0.0
  0
VERTEX
  5
1406D
  8
0
 10
317.28434761320869
 20
409.10855276705581
 30
0.0
  0
VERTEX
  5
1406E
  8
0
 10
316.27558706929642
 20
409.16532735084007
 30
0.0
  0
VERTEX
  5
1406F
  8
0
 10
315.7731493173809
 20
409.17251748446017
 30
0.0
  0
SEQEND
  5
14070
  8
0
  0
LINE
  5
8574
  8
0
 10
313.08731598404768
 20
466.77251748446008
 30
0.0
 11
319.93410254259868
 21
466.77251748446008
 31
0.0
  0
LINE
  5
8575
  8
0
 10
313.15380780377552
 20
458.77251748446008
 30
0.0
 11
322.64891274977577
 21
458.77251748446008
 31
0.0
  0
LINE
  5
8576
  8
0
 10
312.64398265071412
 20
464.27251748446008
 30
0.0
 11
320.81389470980378
 21
464.27251748446008
 31
0.0
  0
POLYLINE
  5
8577
  8
0
 66
     1
 10
0.0
 20
0.0
 30
0.0
  0
VERTEX
  5
14071
  8
0
 10
312.64398265071412
 20
464.01309777504468
 30
0.0
  0
VERTEX
  5
14072
  8
0
 10
312.64398265071412
 20
464.09394242830268
 30
0.0
  0
VERTEX
  5
14073
  8
0
 10
312.64398265071412
 20
464.20855276705601
 30
0.0
  0
VERTEX
  5
14074
  8
0
 10
312.64398265071412
 20
464.26532735084032
 30
0.0
  0
VERTEX
  5
14075
  8
0
 10
312.64398265071412
 20
464.27251748446008
 30
0.0
  0
SEQEND
  5
14076
  8
0
  0
POLYLINE
  5
8578
  8
0
 66
     1
 10
0.0
 20
0.0
 30
0.0
  0
VERTEX
  5
14077
  8
0
 10
320.82826897619759
 20
464.23169181288438
 30
0.0
  0
VERTEX
  5
14078
  8
0
 10
320.5225750847473
 20
464.20874299072818
 30
0.0
  0
VERTEX
  5
14079
  8
0
 10
319.89717716181929
 20
464.14717988756991
 30
0.0
  0
VERTEX
  5
1407A
  8
0
 10
319.24356344891009
 20
464.06367083512288
 30
0.0
  0
VERTEX
  5
1407B
  8
0
 10
318.9023159840475
 20
464.01309777504468
 30
0.0
  0
SEQEND
  5
1407C
  8
0
  0
POLYLINE
  5
8579
  8
0
 66
     1
 10
0.0
 20
0.0
 30
0.0
  0
VERTEX
  5
1407D
  8
0
 10
318.9023159840475
 20
459.03193719387582
 30
0.0
  0
VERTEX
  5
1407E
  8
0
 10
319.46449446216241
 20
458.95109254061742
 30
0.0
  0
VERTEX
  5
1407F
  8
0
 10
320.52028435488648
 20
458.8364822018645
 30
0.0
  0
VERTEX
  5
14080
  8
0
 10
321.52904489879859
 20
458.77970761808018
 30
0.0
  0
VERTEX
  5
14081
  8
0
 10
322.03148265071428
 20
458.77251748446008
 30
0.0
  0
SEQEND
  5
14082
  8
0
  0
POLYLINE
  5
857A
  8
0
 66
     1
 10
0.0
 20
0.0
 30
0.0
  0
VERTEX
  5
14083
  8
0
 10
322.03148265071428
 20
458.77251748446008
 30
0.0
  0
VERTEX
  5
14084
  8
0
 10
322.13372408094858
 20
458.7728158287315
 30
0.0
  0
VERTEX
  5
14085
  8
0
 10
322.33753292576017
 20
458.77518890499891
 30
0.0
  0
VERTEX
  5
14086
  8
0
 10
322.54080470757083
 20
458.77990556846578
 30
0.0
  0
VERTEX
  5
14087
  8
0
 10
322.64237237074178
 20
458.78313579253688
 30
0.0
  0
SEQEND
  5
14088
  8
0
  0
POLYLINE
  5
857B
  8
0
 66
     1
 10
0.0
 20
0.0
 30
0.0
  0
VERTEX
  5
14089
  8
0
 10
315.7731493173809
 20
464.27251748446008
 30
0.0
  0
VERTEX
  5
1408A
  8
0
 10
315.27071156546538
 20
464.26532735084032
 30
0.0
  0
VERTEX
  5
1408B
  8
0
 10
314.26195102155299
 20
464.20855276705601
 30
0.0
  0
VERTEX
  5
1408C
  8
0
 10
313.20616112882919
 20
464.09394242830268
 30
0.0
  0
VERTEX
  5
1408D
  8
0
 10
312.64398265071412
 20
464.01309777504468
 30
0.0
  0
SEQEND
  5
1408E
  8
0
  0
LINE
  5
857C
  8
0
 10
312.64398265071412
 20
460.31726801370257
 30
0.0
 11
312.64398265071412
 21
464.01309777504468
 31
0.0
  0
POLYLINE
  5
857D
  8
0
 66
     1
 10
0.0
 20
0.0
 30
0.0
  0
VERTEX
  5
1408F
  8
0
 10
313.10233262146937
 20
458.96506871476328
 30
0.0
  0
VERTEX
  5
14090
  8
0
 10
313.571606323455
 20
458.90558106357901
 30
0.0
  0
VERTEX
  5
14091
  8
0
 10
314.4687613343736
 20
458.82039810401483
 30
0.0
  0
VERTEX
  5
14092
  8
0
 10
315.33847868789178
 20
458.77790174955243
 30
0.0
  0
VERTEX
  5
14093
  8
0
 10
315.7731493173809
 20
458.77251748446008
 30
0.0
  0
SEQEND
  5
14094
  8
0
  0
POLYLINE
  5
857E
  8
0
 66
     1
 10
0.0
 20
0.0
 30
0.0
  0
VERTEX
  5
14095
  8
0
 10
315.7731493173809
 20
458.77251748446008
 30
0.0
  0
VERTEX
  5
14096
  8
0
 10
316.27558706929642
 20
458.77970761808018
 30
0.0
  0
VERTEX
  5
14097
  8
0
 10
317.28434761320869
 20
458.8364822018645
 30
0.0
  0
VERTEX
  5
14098
  8
0
 10
318.3401375059326
 20
458.95109254061742
 30
0.0
  0
VERTEX
  5
14099
  8
0
 10
318.9023159840475
 20
459.03193719387582
 30
0.0
  0
SEQEND
  5
1409A
  8
0
  0
LINE
  5
857F
  8
0
 10
318.9023159840475
 20
459.03193719387582
 30
0.0
 11
318.9023159840475
 21
464.01309777504468
 31
0.0
  0
POLYLINE
  5
8580
  8
0
 66
     1
 10
0.0
 20
0.0
 30
0.0
  0
VERTEX
  5
1409B
  8
0
 10
318.9023159840475
 20
464.01309777504468
 30
0.0
  0
VERTEX
  5
1409C
  8
0
 10
318.3401375059326
 20
464.09394242830268
 30
0.0
  0
VERTEX
  5
1409D
  8
0
 10
317.28434761320869
 20
464.20855276705601
 30
0.0
  0
VERTEX
  5
1409E
  8
0
 10
316.27558706929642
 20
464.26532735084032
 30
0.0
  0
VERTEX
  5
1409F
  8
0
 10
315.7731493173809
 20
464.27251748446008
 30
0.0
  0
SEQEND
  5
140A0
  8
0
  0
LINE
  5
8581
  8
0
 10
313.48773652497368
 20
411.77251748446008
 30
0.0
 11
322.87845513940817
 21
411.77251748446008
 31
0.0
  0
LINE
  5
8582
  8
0
 10
313.81965487585393
 20
456.77251748446008
 30
0.0
 11
322.87845513940817
 21
456.77251748446008
 31
0.0
  0
ARC
  5
8589
  8
0
 10
260.42154991519379
 20
419.27251748446008
 30
0.0
 40
2.0000000000000031
 50
194.84460444708961
 51
270.0
  0
ARC
  5
858A
  8
0
 10
318.90231598404768
 20
434.77251748446008
 30
0.0
 40
62.50000000000005
 50
165.15539555291031
 51
194.84460444708961
  0
ARC
  5
858B
  8
0
 10
260.42154991519368
 20
450.27251748446008
 30
0.0
 40
1.9999999999999889
 50
90.0
 51
165.15539555291031
  0
LINE
  5
858C
  8
0
 10
260.42154991519368
 20
417.27251748446008
 30
0.0
 11
305.88873319995872
 21
417.27251748446008
 31
0.0
  0
LINE
  5
858D
  8
0
 10
260.42154991519368
 20
452.27251748446008
 30
0.0
 11
305.88873319995872
 21
452.27251748446008
 31
0.0
  0
LINE
  5
85B1
  8
0
 10
534.07739324007684
 20
292.44368873142002
 30
0.0
 11
534.07739324007684
 21
293.24368873141992
 31
0.0
  0
LINE
  5
85B2
  8
0
 10
603.67739324007698
 20
293.24368873141992
 30
0.0
 11
603.67739324007698
 21
292.44368873142002
 31
0.0
  0
LINE
  5
85B3
  8
0
 10
534.37617257609884
 20
283.94368873141991
 30
0.0
 11
532.87739324007691
 21
292.44368873142002
 31
0.0
  0
LINE
  5
85B4
  8
0
 10
604.87739324007691
 20
292.44368873142002
 30
0.0
 11
603.37861390405487
 21
283.94368873141991
 31
0.0
  0
LINE
  5
85B5
  8
0
 10
535.87739324007691
 20
231.01286519014201
 30
0.0
 11
535.87739324007691
 21
283.94368873141991
 31
0.0
  0
LINE
  5
85B6
  8
0
 10
601.87739324007691
 20
283.94368873141991
 30
0.0
 11
601.87739324007691
 21
231.01286519014201
 31
0.0
  0
LINE
  5
85BE
  8
0
 10
611.37739324007691
 20
295.74368873141992
 30
0.0
 11
611.37739324007691
 21
293.24368873141992
 31
0.0
  0
LINE
  5
85C0
  8
0
 10
611.37739324007691
 20
295.74368873141992
 30
0.0
 11
526.37739324007691
 21
295.74368873141992
 31
0.0
  0
LINE
  5
85C1
  8
0
 10
526.37739324007691
 20
295.74368873141992
 30
0.0
 11
526.37739324007691
 21
293.24368873141992
 31
0.0
  0
LINE
  5
85C2
  8
0
 10
611.37739324007691
 20
293.24368873141992
 30
0.0
 11
526.37739324007691
 21
293.24368873141992
 31
0.0
  0
LINE
  5
85D6
  8
0
 10
604.87739324007691
 20
292.44368873142002
 30
0.0
 11
532.87739324007691
 21
292.44368873142002
 31
0.0
  0
LINE
  5
85D7
  8
0
 10
603.37861390405487
 20
283.94368873141991
 30
0.0
 11
534.37617257609884
 21
283.94368873141991
 31
0.0
  0
POLYLINE
  5
85DD
  8
0
 66
     1
 10
0.0
 20
0.0
 30
0.0
  0
VERTEX
  5
140A1
  8
0
 10
535.87739324007691
 20
231.01286519014201
 30
0.0
  0
VERTEX
  5
140A2
  8
0
 10
535.88088358648258
 20
231.69978545372621
 30
0.0
  0
VERTEX
  5
140A3
  8
0
 10
535.90880192787574
 20
233.07304477777271
 30
0.0
  0
VERTEX
  5
140A4
  8
0
 10
535.96461498895826
 20
234.44456098420909
 30
0.0
  0
VERTEX
  5
140A5
  8
0
 10
536.00296820304925
 20
235.1293026964658
 30
0.0
  0
VERTEX
  5
140A6
  8
0
 10
536.04827554630788
 20
235.81317363339801
 30
0.0
  0
VERTEX
  5
140A7
  8
0
 10
536.15971281474128
 20
237.17772474240221
 30
0.0
  0
VERTEX
  5
140A8
  8
0
 10
536.29883250720366
 20
238.53705976475291
 30
0.0
  0
VERTEX
  5
140A9
  8
0
 10
536.46551691454613
 20
239.89002856731091
 30
0.0
  0
VERTEX
  5
140AA
  8
0
 10
536.65962500511921
 20
241.23548640339499
 30
0.0
  0
VERTEX
  5
140AB
  8
0
 10
536.88099254409917
 20
242.5722948813509
 30
0.0
  0
VERTEX
  5
140AC
  8
0
 10
537.00184097253771
 20
243.23710183850119
 30
0.0
  0
VERTEX
  5
140AD
  8
0
 10
537.12943223244781
 20
243.89932292774569
 30
0.0
  0
VERTEX
  5
140AE
  8
0
 10
537.40473386538554
 20
245.21544774436731
 30
0.0
  0
VERTEX
  5
140AF
  8
0
 10
537.70666451024601
 20
246.51955575822461
 30
0.0
  0
VERTEX
  5
140B0
  8
0
 10
538.03496870356025
 20
247.8105435637417
 30
0.0
  0
VERTEX
  5
140B1
  8
0
 10
538.38936866720451
 20
249.08731885634819
 30
0.0
  0
VERTEX
  5
140B2
  8
0
 10
538.76956454342735
 20
250.3488013566793
 30
0.0
  0
VERTEX
  5
140B3
  8
0
 10
538.96923626786747
 20
250.97347373573871
 30
0.0
  0
VERTEX
  5
140B4
  8
0
 10
539.17523464856095
 20
251.5939237245988
 30
0.0
  0
VERTEX
  5
140B5
  8
0
 10
539.60603574519575
 20
252.8216324622758
 30
0.0
  0
VERTEX
  5
140B6
  8
0
 10
540.06160333259459
 20
254.03088880554921
 30
0.0
  0
VERTEX
  5
140B7
  8
0
 10
540.29855491519049
 20
254.62827696078099
 30
0.0
  0
VERTEX
  5
140B8
  8
0
 10
540.54155195509668
 20
255.22066960282581
 30
0.0
  0
VERTEX
  5
140B9
  8
0
 10
541.0454755282517
 20
256.38996818076862
 30
0.0
  0
VERTEX
  5
140BA
  8
0
 10
541.57294768240729
 20
257.53779519604308
 30
0.0
  0
VERTEX
  5
140BB
  8
0
 10
541.84537577854007
 20
258.10335264287318
 30
0.0
  0
VERTEX
  5
140BC
  8
0
 10
542.12352212346002
 20
258.66317947240032
 30
0.0
  0
VERTEX
  5
140BD
  8
0
 10
542.69673301046635
 20
259.76516882238911
 30
0.0
  0
VERTEX
  5
140BE
  8
0
 10
543.29209534978861
 20
260.84283085300137
 30
0.0
  0
VERTEX
  5
140BF
  8
0
 10
543.90910540544985
 20
261.89525375457049
 30
0.0
  0
VERTEX
  5
140C0
  8
0
 10
544.54724112534302
 20
262.92154707225262
 30
0.0
  0
VERTEX
  5
140C1
  8
0
 10
545.20596258294051
 20
263.92084245943983
 30
0.0
  0
VERTEX
  5
140C2
  8
0
 10
545.54286946092088
 20
264.41010079720479
 30
0.0
  0
VERTEX
  5
140C3
  8
0
 10
545.88471243412539
 20
264.8922944124696
 30
0.0
  0
VERTEX
  5
140C4
  8
0
 10
546.58291638876028
 20
265.8350809860043
 30
0.0
  0
VERTEX
  5
140C5
  8
0
 10
547.29998369659381
 20
266.74840448847903
 30
0.0
  0
VERTEX
  5
140C6
  8
0
 10
548.03530764709456
 20
267.63149215702811
 30
0.0
  0
VERTEX
  5
140C7
  8
0
 10
548.78826608278905
 20
268.48359681132069
 30
0.0
  0
VERTEX
  5
140C8
  8
0
 10
549.55822192566905
 20
269.30399748574899
 30
0.0
  0
VERTEX
  5
140C9
  8
0
 10
549.94937084049263
 20
269.70209084743249
 30
0.0
  0
VERTEX
  5
140CA
  8
0
 10
550.34452371622172
 20
270.0920000394371
 30
0.0
  0
VERTEX
  5
140CB
  8
0
 10
551.14650616463177
 20
270.84693774355372
 30
0.0
  0
VERTEX
  5
140CC
  8
0
 10
551.96349071368161
 20
271.56817184543161
 30
0.0
  0
VERTEX
  5
140CD
  8
0
 10
552.794786112878
 20
272.255092109016
 30
0.0
  0
VERTEX
  5
140CE
  8
0
 10
553.63968900332088
 20
272.90711733118451
 30
0.0
  0
VERTEX
  5
140CF
  8
0
 10
554.49748451281334
 20
273.52369583350401
 30
0.0
  0
VERTEX
  5
140D0
  8
0
 10
554.93099060263376
 20
273.81852835375611
 30
0.0
  0
VERTEX
  5
140D1
  8
0
 10
555.36744686071609
 20
274.10430592900502
 30
0.0
  0
VERTEX
  5
140D2
  8
0
 10
556.24883997202903
 20
274.64845636358081
 30
0.0
  0
VERTEX
  5
140D3
  8
0
 10
557.14091810018601
 20
275.15568673163892
 30
0.0
  0
VERTEX
  5
140D4
  8
0
 10
558.04292645802946
 20
275.62556786564772
 30
0.0
  0
VERTEX
  5
140D5
  8
0
 10
558.95410185643595
 20
276.05770219925711
 30
0.0
  0
VERTEX
  5
140D6
  8
0
 10
559.87367335005081
 20
276.45172410367871
 30
0.0
  0
VERTEX
  5
140D7
  8
0
 10
560.33636475169385
 20
276.63433744556409
 30
0.0
  0
VERTEX
  5
140D8
  8
0
 10
560.80086288958444
 20
276.8073001970435
 30
0.0
  0
VERTEX
  5
140D9
  8
0
 10
561.73488598011966
 20
277.1241296264779
 30
0.0
  0
VERTEX
  5
140DA
  8
0
 10
562.6749523448733
 20
277.40194432265309
 30
0.0
  0
VERTEX
  5
140DB
  8
0
 10
563.62026659384856
 20
277.64050922660113
 30
0.0
  0
VERTEX
  5
140DC
  8
0
 10
564.57002889681542
 20
277.83962248859518
 30
0.0
  0
VERTEX
  5
140DD
  8
0
 10
565.52343566004458
 20
277.9991156389375
 30
0.0
  0
VERTEX
  5
140DE
  8
0
 10
566.00125372940431
 20
278.06396118846982
 30
0.0
  0
VERTEX
  5
140DF
  8
0
 10
566.4796802062308
 20
278.11885373049989
 30
0.0
  0
VERTEX
  5
140E0
  8
0
 10
567.43795345702085
 20
278.19873545290233
 30
0.0
  0
VERTEX
  5
140E1
  8
0
 10
568.39744461757471
 20
278.23869321823281
 30
0.0
  0
VERTEX
  5
140E2
  8
0
 10
568.87739324007691
 20
278.24368873141992
 30
0.0
  0
VERTEX
  5
140E3
  8
0
 10
569.35734186257935
 20
278.23869321823281
 30
0.0
  0
VERTEX
  5
140E4
  8
0
 10
570.31683302313309
 20
278.19873545290233
 30
0.0
  0
VERTEX
  5
140E5
  8
0
 10
571.27510627392314
 20
278.11885373049989
 30
0.0
  0
VERTEX
  5
140E6
  8
0
 10
571.75353275074974
 20
278.06396118846982
 30
0.0
  0
VERTEX
  5
140E7
  8
0
 10
572.23135082010947
 20
277.9991156389375
 30
0.0
  0
VERTEX
  5
140E8
  8
0
 10
573.18475758333864
 20
277.83962248859518
 30
0.0
  0
VERTEX
  5
140E9
  8
0
 10
574.13451988630516
 20
277.64050922660113
 30
0.0
  0
VERTEX
  5
140EA
  8
0
 10
575.07983413528075
 20
277.40194432265309
 30
0.0
  0
VERTEX
  5
140EB
  8
0
 10
576.0199005000344
 20
277.1241296264779
 30
0.0
  0
VERTEX
  5
140EC
  8
0
 10
576.9539235905695
 20
276.8073001970435
 30
0.0
  0
VERTEX
  5
140ED
  8
0
 10
577.41842172846009
 20
276.63433744556409
 30
0.0
  0
VERTEX
  5
140EE
  8
0
 10
577.88111313010324
 20
276.45172410367871
 30
0.0
  0
VERTEX
  5
140EF
  8
0
 10
578.80068462371798
 20
276.05770219925711
 30
0.0
  0
VERTEX
  5
140F0
  8
0
 10
579.7118600221246
 20
275.62556786564772
 30
0.0
  0
VERTEX
  5
140F1
  8
0
 10
580.61386837996804
 20
275.15568673163892
 30
0.0
  0
VERTEX
  5
140F2
  8
0
 10
581.50594650812502
 20
274.64845636358081
 30
0.0
  0
VERTEX
  5
140F3
  8
0
 10
582.38733961943819
 20
274.10430592900502
 30
0.0
  0
VERTEX
  5
140F4
  8
0
 10
582.82379587752018
 20
273.81852835375611
 30
0.0
  0
VERTEX
  5
140F5
  8
0
 10
583.2573019673406
 20
273.52369583350401
 30
0.0
  0
VERTEX
  5
140F6
  8
0
 10
584.11509747683294
 20
272.90711733118451
 30
0.0
  0
VERTEX
  5
140F7
  8
0
 10
584.96000036727594
 20
272.255092109016
 30
0.0
  0
VERTEX
  5
140F8
  8
0
 10
585.79129576647256
 20
271.56817184543161
 30
0.0
  0
VERTEX
  5
140F9
  8
0
 10
586.60828031552205
 20
270.84693774355372
 30
0.0
  0
VERTEX
  5
140FA
  8
0
 10
587.41026276393234
 20
270.0920000394371
 30
0.0
  0
VERTEX
  5
140FB
  8
0
 10
587.80541563966165
 20
269.70209084743249
 30
0.0
  0
VERTEX
  5
140FC
  8
0
 10
588.19656455448501
 20
269.30399748574899
 30
0.0
  0
VERTEX
  5
140FD
  8
0
 10
588.96652039736477
 20
268.48359681132069
 30
0.0
  0
VERTEX
  5
140FE
  8
0
 10
589.7194788330595
 20
267.63149215702811
 30
0.0
  0
VERTEX
  5
140FF
  8
0
 10
590.45480278356024
 20
266.74840448847903
 30
0.0
  0
VERTEX
  5
14100
  8
0
 10
591.17187009139377
 20
265.8350809860043
 30
0.0
  0
VERTEX
  5
14101
  8
0
 10
591.87007404602866
 20
264.8922944124696
 30
0.0
  0
VERTEX
  5
14102
  8
0
 10
592.21191701923306
 20
264.41010079720479
 30
0.0
  0
VERTEX
  5
14103
  8
0
 10
592.54882389721354
 20
263.92084245943983
 30
0.0
  0
VERTEX
  5
14104
  8
0
 10
593.20754535481103
 20
262.92154707225262
 30
0.0
  0
VERTEX
  5
14105
  8
0
 10
593.8456810747042
 20
261.89525375457077
 30
0.0
  0
VERTEX
  5
14106
  8
0
 10
594.46269113036544
 20
260.84283085300137
 30
0.0
  0
VERTEX
  5
14107
  8
0
 10
595.05805346968771
 20
259.76516882238911
 30
0.0
  0
VERTEX
  5
14108
  8
0
 10
595.63126435669403
 20
258.66317947240032
 30
0.0
  0
VERTEX
  5
14109
  8
0
 10
595.90941070161364
 20
258.10335264287318
 30
0.0
  0
VERTEX
  5
1410A
  8
0
 10
596.18183879774688
 20
257.53779519604308
 30
0.0
  0
VERTEX
  5
1410B
  8
0
 10
596.70931095190224
 20
256.38996818076862
 30
0.0
  0
VERTEX
  5
1410C
  8
0
 10
597.21323452505715
 20
255.22066960282581
 30
0.0
  0
VERTEX
  5
1410D
  8
0
 10
597.45623156496345
 20
254.62827696078099
 30
0.0
  0
VERTEX
  5
1410E
  8
0
 10
597.69318314755958
 20
254.03088880554921
 30
0.0
  0
VERTEX
  5
1410F
  8
0
 10
598.1487507349583
 20
252.8216324622758
 30
0.0
  0
VERTEX
  5
14110
  8
0
 10
598.57955183159299
 20
251.5939237245988
 30
0.0
  0
VERTEX
  5
14111
  8
0
 10
598.78555021228635
 20
250.97347373573871
 30
0.0
  0
VERTEX
  5
14112
  8
0
 10
598.98522193672648
 20
250.3488013566793
 30
0.0
  0
VERTEX
  5
14113
  8
0
 10
599.36541781294943
 20
249.08731885634819
 30
0.0
  0
VERTEX
  5
14114
  8
0
 10
599.71981777659369
 20
247.8105435637417
 30
0.0
  0
VERTEX
  5
14115
  8
0
 10
600.04812196990804
 20
246.51955575822461
 30
0.0
  0
VERTEX
  5
14116
  8
0
 10
600.35005261476852
 20
245.21544774436731
 30
0.0
  0
VERTEX
  5
14117
  8
0
 10
600.62535424770624
 20
243.89932292774569
 30
0.0
  0
VERTEX
  5
14118
  8
0
 10
600.75294550761635
 20
243.23710183850119
 30
0.0
  0
VERTEX
  5
14119
  8
0
 10
600.87379393605465
 20
242.5722948813509
 30
0.0
  0
VERTEX
  5
1411A
  8
0
 10
601.09516147503484
 20
241.23548640339499
 30
0.0
  0
VERTEX
  5
1411B
  8
0
 10
601.28926956560792
 20
239.89002856731071
 30
0.0
  0
VERTEX
  5
1411C
  8
0
 10
601.45595397295028
 20
238.53705976475291
 30
0.0
  0
VERTEX
  5
1411D
  8
0
 10
601.59507366541277
 20
237.17772474240221
 30
0.0
  0
VERTEX
  5
1411E
  8
0
 10
601.70651093384595
 20
235.81317363339801
 30
0.0
  0
VERTEX
  5
1411F
  8
0
 10
601.75181827710469
 20
235.1293026964658
 30
0.0
  0
VERTEX
  5
14120
  8
0
 10
601.79017149119602
 20
234.44456098420909
 30
0.0
  0
VERTEX
  5
14121
  8
0
 10
601.84598455227831
 20
233.07304477777271
 30
0.0
  0
VERTEX
  5
14122
  8
0
 10
601.8739028936717
 20
231.69978545372641
 30
0.0
  0
VERTEX
  5
14123
  8
0
 10
601.87739324007691
 20
231.01286519014201
 30
0.0
  0
SEQEND
  5
14124
  8
0
  0
POLYLINE
  5
85E4
  8
0
 66
     1
 10
0.0
 20
0.0
 30
0.0
  0
VERTEX
  5
14125
  8
0
 10
547.37739324007691
 20
195.37204995221231
 30
0.0
  0
VERTEX
  5
14126
  8
0
 10
547.29203524125103
 20
195.45066333119749
 30
0.0
  0
VERTEX
  5
14127
  8
0
 10
547.12365842346935
 20
195.6125501494661
 30
0.0
  0
VERTEX
  5
14128
  8
0
 10
546.95868510640207
 20
195.780629053486
 30
0.0
  0
VERTEX
  5
14129
  8
0
 10
546.87757750964158
 20
195.86697766700689
 30
0.0
  0
VERTEX
  5
1412A
  8
0
 10
546.78384029228437
 20
195.97003435694651
 30
0.0
  0
VERTEX
  5
1412B
  8
0
 10
546.60060363888817
 20
196.18238403049409
 30
0.0
  0
VERTEX
  5
1412C
  8
0
 10
546.42339024523289
 20
196.4029354889812
 30
0.0
  0
VERTEX
  5
1412D
  8
0
 10
546.33717073999389
 20
196.51624007309121
 30
0.0
  0
VERTEX
  5
1412E
  8
0
 10
546.1286562862125
 20
196.7977675750314
 30
0.0
  0
VERTEX
  5
1412F
  8
0
 10
545.7167924717329
 20
197.36854619911259
 30
0.0
  0
VERTEX
  5
14130
  8
0
 10
545.31191881907671
 20
197.94947910358309
 30
0.0
  0
VERTEX
  5
14131
  8
0
 10
545.11214157310064
 20
198.2436987377109
 30
0.0
  0
VERTEX
  5
14132
  8
0
 10
545.07447582275961
 20
198.29974703101169
 30
0.0
  0
VERTEX
  5
14133
  8
0
 10
544.99933801266741
 20
198.4121095205646
 30
0.0
  0
VERTEX
  5
14134
  8
0
 10
544.92445913539677
 20
198.52482553160721
 30
0.0
  0
VERTEX
  5
14135
  8
0
 10
544.88711705042454
 20
198.58131572587121
 30
0.0
  0
VERTEX
  5
14136
  8
0
 10
544.71272899969233
 20
198.84761484309419
 30
0.0
  0
VERTEX
  5
14137
  8
0
 10
544.36829225105782
 20
199.3859593663268
 30
0.0
  0
VERTEX
  5
14138
  8
0
 10
544.02970972181186
 20
199.93185826070331
 30
0.0
  0
VERTEX
  5
14139
  8
0
 10
543.86263911757646
 20
200.20759991893689
 30
0.0
  0
VERTEX
  5
1413A
  8
0
 10
543.6970622854393
 20
200.48518113335871
 30
0.0
  0
VERTEX
  5
1413B
  8
0
 10
543.37042939777439
 20
201.04579581814431
 30
0.0
  0
VERTEX
  5
1413C
  8
0
 10
543.04988907802306
 20
201.61356840719611
 30
0.0
  0
VERTEX
  5
1413D
  8
0
 10
541.97706897811918
 20
203.65516793949041
 30
0.0
  0
VERTEX
  5
1413E
  8
0
 10
540.32265157511745
 20
207.33781887283789
 30
0.0
  0
VERTEX
  5
1413F
  8
0
 10
539.58664879476987
 20
209.25748301960189
 30
0.0
  0
VERTEX
  5
14140
  8
0
 10
539.38712451847039
 20
209.81682630795621
 30
0.0
  0
VERTEX
  5
14141
  8
0
 10
539.00375261194586
 20
210.94665617374099
 30
0.0
  0
VERTEX
  5
14142
  8
0
 10
538.64150729093183
 20
212.0906768268469
 30
0.0
  0
VERTEX
  5
14143
  8
0
 10
538.46838774465277
 20
212.6677562471379
 30
0.0
  0
VERTEX
  5
14144
  8
0
 10
538.30064473467485
 20
213.24807921790261
 30
0.0
  0
VERTEX
  5
14145
  8
0
 10
537.98140600056809
 20
214.41804483399659
 30
0.0
  0
VERTEX
  5
14146
  8
0
 10
537.68401685367678
 20
215.5997462775257
 30
0.0
  0
VERTEX
  5
14147
  8
0
 10
537.40868760707633
 20
216.7923478513321
 30
0.0
  0
VERTEX
  5
14148
  8
0
 10
537.15561297312013
 20
217.9950061497033
 30
0.0
  0
VERTEX
  5
14149
  8
0
 10
536.92497192573921
 20
219.20687065483091
 30
0.0
  0
VERTEX
  5
1414A
  8
0
 10
536.81811559151549
 20
219.81598765132409
 30
0.0
  0
VERTEX
  5
1414B
  8
0
 10
536.71692757387211
 20
220.4270843382923
 30
0.0
  0
VERTEX
  5
1414C
  8
0
 10
536.53162704611429
 20
221.65478426714111
 30
0.0
  0
VERTEX
  5
1414D
  8
0
 10
536.36920138666937
 20
222.88910221417191
 30
0.0
  0
VERTEX
  5
1414E
  8
0
 10
536.22976546267455
 20
224.1291652719278
 30
0.0
  0
VERTEX
  5
1414F
  8
0
 10
536.11341788296761
 20
225.3740964700205
 30
0.0
  0
VERTEX
  5
14150
  8
0
 10
536.02024092834984
 20
226.62301539532149
 30
0.0
  0
VERTEX
  5
14151
  8
0
 10
535.98236266894503
 20
227.24869433837961
 30
0.0
  0
VERTEX
  5
14152
  8
0
 10
535.95030049339755
 20
227.87503881458829
 30
0.0
  0
VERTEX
  5
14153
  8
0
 10
535.90364603986211
 20
229.1292812990859
 30
0.0
  0
VERTEX
  5
14154
  8
0
 10
535.88031056169007
 20
230.3848558507608
 30
0.0
  0
VERTEX
  5
14155
  8
0
 10
535.87739324007691
 20
231.01286519014201
 30
0.0
  0
SEQEND
  5
14156
  8
0
  0
LINE
  5
85E9
  8
0
 10
547.37739324007691
 20
192.24368873141989
 30
0.0
 11
550.3773932400768
 21
192.24368873141989
 31
0.0
  0
LINE
  5
85EA
  8
0
 10
590.37739324007691
 20
192.24368873141989
 30
0.0
 11
590.37739324007691
 21
195.37204995221231
 31
0.0
  0
LINE
  5
85EB
  8
0
 10
587.3773932400768
 20
192.24368873141989
 30
0.0
 11
590.37739324007691
 21
192.24368873141989
 31
0.0
  0
POLYLINE
  5
85F1
  8
0
 66
     1
 10
0.0
 20
0.0
 30
0.0
  0
VERTEX
  5
14157
  8
0
 10
550.3773932400768
 20
196.29994437681529
 30
0.0
  0
VERTEX
  5
14158
  8
0
 10
549.5834869014792
 20
197.20429522296371
 30
0.0
  0
VERTEX
  5
14159
  8
0
 10
548.41289574221753
 20
198.6449286936988
 30
0.0
  0
VERTEX
  5
1415A
  8
0
 10
547.29473807310035
 20
200.1684942706076
 30
0.0
  0
VERTEX
  5
1415B
  8
0
 10
546.75622253213658
 20
200.9601647443391
 30
0.0
  0
VERTEX
  5
1415C
  8
0
 10
546.23187880244677
 20
201.77108832201449
 30
0.0
  0
VERTEX
  5
1415D
  8
0
 10
545.22704115476301
 20
203.44860473197849
 30
0.0
  0
VERTEX
  5
1415E
  8
0
 10
544.28279969338212
 20
205.19674542085431
 30
0.0
  0
VERTEX
  5
1415F
  8
0
 10
543.40157372400051
 20
207.0110313576958
 30
0.0
  0
VERTEX
  5
14160
  8
0
 10
542.58562109600723
 20
208.88681403628919
 30
0.0
  0
VERTEX
  5
14161
  8
0
 10
541.83703241749515
 20
210.8192873854079
 30
0.0
  0
VERTEX
  5
14162
  8
0
 10
541.48860581707027
 20
211.8052411025885
 30
0.0
  0
VERTEX
  5
14163
  8
0
 10
541.15772569876935
 20
212.80350008277671
 30
0.0
  0
VERTEX
  5
14164
  8
0
 10
540.54944143808314
 20
214.8343682411946
 30
0.0
  0
VERTEX
  5
14165
  8
0
 10
540.01373816218666
 20
216.90668843430871
 30
0.0
  0
VERTEX
  5
14166
  8
0
 10
539.55198843312053
 20
219.01515102867069
 30
0.0
  0
VERTEX
  5
14167
  8
0
 10
539.16537533147891
 20
221.1543537879115
 30
0.0
  0
VERTEX
  5
14168
  8
0
 10
538.85488942515951
 20
223.31881571418069
 30
0.0
  0
VERTEX
  5
14169
  8
0
 10
538.72845044771213
 20
224.40878796917369
 30
0.0
  0
VERTEX
  5
1416A
  8
0
 10
538.62132623135994
 20
225.50299109138649
 30
0.0
  0
VERTEX
  5
1416B
  8
0
 10
538.46528417833053
 20
227.7012836942553
 30
0.0
  0
VERTEX
  5
1416C
  8
0
 10
538.38716307209825
 20
229.90806112680269
 30
0.0
  0
VERTEX
  5
1416D
  8
0
 10
538.37739324007691
 20
231.01286519014201
 30
0.0
  0
SEQEND
  5
1416E
  8
0
  0
POLYLINE
  5
85F2
  8
0
 66
     1
 10
0.0
 20
0.0
 30
0.0
  0
VERTEX
  5
1416F
  8
0
 10
538.37739324007691
 20
231.01286519014201
 30
0.0
  0
VERTEX
  5
14170
  8
0
 10
538.38470967058095
 20
231.96895805072239
 30
0.0
  0
VERTEX
  5
14171
  8
0
 10
538.443220055251
 20
233.87930918881281
 30
0.0
  0
VERTEX
  5
14172
  8
0
 10
538.5601285529018
 20
235.7841600979508
 30
0.0
  0
VERTEX
  5
14173
  8
0
 10
538.64041635850515
 20
236.73338014621751
 30
0.0
  0
VERTEX
  5
14174
  8
0
 10
538.73521083558364
 20
237.6798556862793
 30
0.0
  0
VERTEX
  5
14175
  8
0
 10
538.96813094953643
 20
239.56275842947699
 30
0.0
  0
VERTEX
  5
14176
  8
0
 10
539.25844195982791
 20
241.42925535056381
 30
0.0
  0
VERTEX
  5
14177
  8
0
 10
539.60558680794759
 20
243.275764952602
 30
0.0
  0
VERTEX
  5
14178
  8
0
 10
540.00889938070975
 20
245.0987440909914
 30
0.0
  0
VERTEX
  5
14179
  8
0
 10
540.46760578841292
 20
246.89469477217631
 30
0.0
  0
VERTEX
  5
1417A
  8
0
 10
540.71746073093948
 20
247.78145531810191
 30
0.0
  0
VERTEX
  5
1417B
  8
0
 10
540.98082584980659
 20
248.66017086571171
 30
0.0
  0
VERTEX
  5
1417C
  8
0
 10
541.54757478101146
 20
250.39178471681379
 30
0.0
  0
VERTEX
  5
1417D
  8
0
 10
542.16676508515627
 20
252.0862136467062
 30
0.0
  0
VERTEX
  5
1417E
  8
0
 10
542.83720863910355
 20
253.74020632828771
 30
0.0
  0
VERTEX
  5
1417F
  8
0
 10
543.55761897325931
 20
255.35058902488731
 30
0.0
  0
VERTEX
  5
14180
  8
0
 10
544.32661374009501
 20
256.91427168013661
 30
0.0
  0
VERTEX
  5
14181
  8
0
 10
544.72887273461265
 20
257.67765919361472
 30
0.0
  0
VERTEX
  5
14182
  8
0
 10
545.14271736664205
 20
258.42825384727479
 30
0.0
  0
VERTEX
  5
14183
  8
0
 10
546.00436388587093
 20
259.88963044650473
 30
0.0
  0
VERTEX
  5
14184
  8
0
 10
546.90989994152062
 20
261.29559733935929
 30
0.0
  0
VERTEX
  5
14185
  8
0
 10
547.37858675357313
 20
261.97695478205958
 30
0.0
  0
SEQEND
  5
14186
  8
0
  0
POLYLINE
  5
85F3
  8
0
 66
     1
 10
0.0
 20
0.0
 30
0.0
  0
VERTEX
  5
14187
  8
0
 10
547.37858675357313
 20
261.97695478205958
 30
0.0
  0
VERTEX
  5
14188
  8
0
 10
547.85581447420418
 20
262.64104232010391
 30
0.0
  0
VERTEX
  5
14189
  8
0
 10
548.84007288848181
 20
263.92371886834911
 30
0.0
  0
VERTEX
  5
1418A
  8
0
 10
549.86249841684923
 20
265.14370677933692
 30
0.0
  0
VERTEX
  5
1418B
  8
0
 10
550.38741798895626
 20
265.7294615104974
 30
0.0
  0
SEQEND
  5
1418C
  8
0
  0
POLYLINE
  5
85F4
  8
0
 66
     1
 10
0.0
 20
0.0
 30
0.0
  0
VERTEX
  5
1418D
  8
0
 10
550.38741798895626
 20
265.7294615104974
 30
0.0
  0
VERTEX
  5
1418E
  8
0
 10
550.53403486229945
 20
265.88842151516008
 30
0.0
  0
VERTEX
  5
1418F
  8
0
 10
550.82926461918396
 20
266.20253066413977
 30
0.0
  0
VERTEX
  5
14190
  8
0
 10
551.12711989277443
 20
266.51152066439698
 30
0.0
  0
VERTEX
  5
14191
  8
0
 10
551.27701857248167
 20
266.66408190769602
 30
0.0
  0
VERTEX
  5
14192
  8
0
 10
551.42755735314961
 20
266.81534656620659
 30
0.0
  0
VERTEX
  5
14193
  8
0
 10
551.73053329474885
 20
267.1139641710817
 30
0.0
  0
VERTEX
  5
14194
  8
0
 10
552.03600364273177
 20
267.40733003820208
 30
0.0
  0
VERTEX
  5
14195
  8
0
 10
552.34392395938823
 20
267.69540149073413
 30
0.0
  0
VERTEX
  5
14196
  8
0
 10
552.65424945060442
 20
267.97813662203862
 30
0.0
  0
VERTEX
  5
14197
  8
0
 10
552.96693497237732
 20
268.25549430176761
 30
0.0
  0
VERTEX
  5
14198
  8
0
 10
553.12414854316478
 20
268.39214395779931
 30
0.0
  0
VERTEX
  5
14199
  8
0
 10
553.28193503738441
 20
268.52743418184758
 30
0.0
  0
VERTEX
  5
1419A
  8
0
 10
553.59920382159805
 20
268.79391670234872
 30
0.0
  0
VERTEX
  5
1419B
  8
0
 10
553.91869517095404
 20
269.05490309724058
 30
0.0
  0
VERTEX
  5
1419C
  8
0
 10
554.2403626080644
 20
269.3103554000304
 30
0.0
  0
VERTEX
  5
1419D
  8
0
 10
554.5641593389787
 20
269.560236449287
 30
0.0
  0
VERTEX
  5
1419E
  8
0
 10
554.89003825999282
 20
269.80450989404687
 30
0.0
  0
VERTEX
  5
1419F
  8
0
 10
555.05374373886582
 20
269.92453262798011
 30
0.0
  0
VERTEX
  5
141A0
  8
0
 10
555.21795196449807
 20
270.04314019910152
 30
0.0
  0
VERTEX
  5
141A1
  8
0
 10
555.5478527498816
 20
270.27609265016781
 30
0.0
  0
VERTEX
  5
141A2
  8
0
 10
555.87969262446234
 20
270.50333335893669
 30
0.0
  0
VERTEX
  5
141A3
  8
0
 10
556.04632464547694
 20
270.61480144693149
 30
0.0
  0
VERTEX
  5
141A4
  8
0
 10
556.21342331447443
 20
270.72482926800461
 30
0.0
  0
VERTEX
  5
141A5
  8
0
 10
556.54899627108955
 20
270.94054815568143
 30
0.0
  0
VERTEX
  5
141A6
  8
0
 10
556.88636267747904
 20
271.1504586406777
 30
0.0
  0
VERTEX
  5
141A7
  8
0
 10
557.05570309754557
 20
271.2532261564408
 30
0.0
  0
VERTEX
  5
141A8
  8
0
 10
557.22547345591522
 20
271.35453018667039
 30
0.0
  0
VERTEX
  5
141A9
  8
0
 10
557.56627927491184
 20
271.55273310674511
 30
0.0
  0
VERTEX
  5
141AA
  8
0
 10
557.90873055639929
 20
271.74503856771429
 30
0.0
  0
VERTEX
  5
141AB
  8
0
 10
558.25277748293831
 20
271.93141859431171
 30
0.0
  0
VERTEX
  5
141AC
  8
0
 10
558.59837000496509
 20
272.11184607326248
 30
0.0
  0
VERTEX
  5
141AD
  8
0
 10
558.94545784807462
 20
272.28629475722698
 30
0.0
  0
VERTEX
  5
141AE
  8
0
 10
559.11954674460242
 20
272.3712690865172
 30
0.0
  0
VERTEX
  5
141AF
  8
0
 10
559.29399052033193
 20
272.45473926861939
 30
0.0
  0
VERTEX
  5
141B0
  8
0
 10
559.64391731961871
 20
272.61715510329941
 30
0.0
  0
VERTEX
  5
141B1
  8
0
 10
559.99518734100832
 20
272.77351863413651
 30
0.0
  0
VERTEX
  5
141B2
  8
0
 10
560.34774948417225
 20
272.9238071144477
 30
0.0
  0
VERTEX
  5
141B3
  8
0
 10
560.70155246081265
 20
273.06799868130582
 30
0.0
  0
VERTEX
  5
141B4
  8
0
 10
561.05654480212354
 20
273.20607235872097
 30
0.0
  0
VERTEX
  5
141B5
  8
0
 10
561.23447085301325
 20
273.27280867716598
 30
0.0
  0
VERTEX
  5
141B6
  8
0
 10
561.41267486627873
 20
273.33800806069138
 30
0.0
  0
VERTEX
  5
141B7
  8
0
 10
561.76989084594391
 20
273.46378659412511
 30
0.0
  0
VERTEX
  5
141B8
  8
0
 10
562.12814077581345
 20
273.58338966163251
 30
0.0
  0
VERTEX
  5
141B9
  8
0
 10
562.48737254016953
 20
273.69679986418799
 30
0.0
  0
VERTEX
  5
141BA
  8
0
 10
562.84753388046386
 20
273.80400070366079
 30
0.0
  0
VERTEX
  5
141BB
  8
0
 10
563.20857240292025
 20
273.90497658521622
 30
0.0
  0
VERTEX
  5
141BC
  8
0
 10
563.38940419930304
 20
273.9531255409442
 30
0.0
  0
VERTEX
  5
141BD
  8
0
 10
563.5704355861559
 20
273.99971281958182
 30
0.0
  0
VERTEX
  5
141BE
  8
0
 10
563.93307078882185
 20
274.08819562518732
 30
0.0
  0
VERTEX
  5
141BF
  8
0
 10
564.29642525726183
 20
274.17041213016648
 30
0.0
  0
VERTEX
  5
141C0
  8
0
 10
564.66044613318445
 20
274.24635037423241
 30
0.0
  0
VERTEX
  5
141C1
  8
0
 10
565.02508046135551
 20
274.31599931041541
 30
0.0
  0
VERTEX
  5
141C2
  8
0
 10
565.39027519729905
 20
274.37934880667029
 30
0.0
  0
VERTEX
  5
141C3
  8
0
 10
565.57306611928357
 20
274.40865834910107
 30
0.0
  0
VERTEX
  5
141C4
  8
0
 10
565.75597721501492
 20
274.43638964735192
 30
0.0
  0
VERTEX
  5
141C5
  8
0
 10
566.12213331470764
 20
274.48711353455349
 30
0.0
  0
VERTEX
  5
141C6
  8
0
 10
566.4886902305243
 20
274.53151308931558
 30
0.0
  0
VERTEX
  5
141C7
  8
0
 10
566.85559463830486
 20
274.56958185269872
 30
0.0
  0
VERTEX
  5
141C8
  8
0
 10
567.22279316333845
 20
274.60131428672253
 30
0.0
  0
VERTEX
  5
141C9
  8
0
 10
567.59023238812699
 20
274.62670577517292
 30
0.0
  0
VERTEX
  5
141CA
  8
0
 10
567.77402556017455
 20
274.63702247445389
 30
0.0
  0
VERTEX
  5
141CB
  8
0
 10
567.95785886015835
 20
274.64575262427149
 30
0.0
  0
VERTEX
  5
141CC
  8
0
 10
568.32561909968024
 20
274.65845206321501
 30
0.0
  0
VERTEX
  5
141CD
  8
0
 10
568.69345960748115
 20
274.664802244577
 30
0.0
  0
VERTEX
  5
141CE
  8
0
 10
568.87739324007691
 20
274.6655960388988
 30
0.0
  0
VERTEX
  5
141CF
  8
0
 10
569.06132687267268
 20
274.664802244577
 30
0.0
  0
VERTEX
  5
141D0
  8
0
 10
569.4291673804737
 20
274.65845206321501
 30
0.0
  0
VERTEX
  5
141D1
  8
0
 10
569.79692761999559
 20
274.64575262427149
 30
0.0
  0
VERTEX
  5
141D2
  8
0
 10
569.98076091997928
 20
274.63702247445389
 30
0.0
  0
VERTEX
  5
141D3
  8
0
 10
570.16455409202695
 20
274.62670577517292
 30
0.0
  0
VERTEX
  5
141D4
  8
0
 10
570.5319933168156
 20
274.60131428672253
 30
0.0
  0
VERTEX
  5
141D5
  8
0
 10
570.89919184184885
 20
274.56958185269872
 30
0.0
  0
VERTEX
  5
141D6
  8
0
 10
571.26609624962964
 20
274.53151308931558
 30
0.0
  0
VERTEX
  5
141D7
  8
0
 10
571.63265316544641
 20
274.48711353455349
 30
0.0
  0
VERTEX
  5
141D8
  8
0
 10
571.99880926513913
 20
274.43638964735192
 30
0.0
  0
VERTEX
  5
141D9
  8
0
 10
572.18172036087026
 20
274.40865834910107
 30
0.0
  0
VERTEX
  5
141DA
  8
0
 10
572.36451128285501
 20
274.37934880667029
 30
0.0
  0
VERTEX
  5
141DB
  8
0
 10
572.72970601879854
 20
274.31599931041541
 30
0.0
  0
VERTEX
  5
141DC
  8
0
 10
573.09434034696937
 20
274.24635037423241
 30
0.0
  0
VERTEX
  5
141DD
  8
0
 10
573.45836122289222
 20
274.17041213016648
 30
0.0
  0
VERTEX
  5
141DE
  8
0
 10
573.82171569133209
 20
274.08819562518732
 30
0.0
  0
VERTEX
  5
141DF
  8
0
 10
574.18435089399804
 20
273.99971281958182
 30
0.0
  0
VERTEX
  5
141E0
  8
0
 10
574.36538228085112
 20
273.9531255409442
 30
0.0
  0
VERTEX
  5
141E1
  8
0
 10
574.54621407723357
 20
273.90497658521622
 30
0.0
  0
VERTEX
  5
141E2
  8
0
 10
574.90725259969008
 20
273.80400070366079
 30
0.0
  0
VERTEX
  5
141E3
  8
0
 10
575.26741393998452
 20
273.69679986418799
 30
0.0
  0
VERTEX
  5
141E4
  8
0
 10
575.62664570434049
 20
273.58338966163251
 30
0.0
  0
VERTEX
  5
141E5
  8
0
 10
575.98489563420992
 20
273.46378659412511
 30
0.0
  0
VERTEX
  5
141E6
  8
0
 10
576.3421116138752
 20
273.33800806069138
 30
0.0
  0
VERTEX
  5
141E7
  8
0
 10
576.52031562714069
 20
273.27280867716598
 30
0.0
  0
VERTEX
  5
141E8
  8
0
 10
576.6982416780304
 20
273.20607235872097
 30
0.0
  0
VERTEX
  5
141E9
  8
0
 10
577.0532340193414
 20
273.06799868130582
 30
0.0
  0
VERTEX
  5
141EA
  8
0
 10
577.40703699598157
 20
272.9238071144477
 30
0.0
  0
VERTEX
  5
141EB
  8
0
 10
577.75959913914539
 20
272.77351863413651
 30
0.0
  0
VERTEX
  5
141EC
  8
0
 10
578.11086916053534
 20
272.61715510329941
 30
0.0
  0
VERTEX
  5
141ED
  8
0
 10
578.46079595982212
 20
272.45473926861939
 30
0.0
  0
VERTEX
  5
141EE
  8
0
 10
578.63523973555164
 20
272.3712690865172
 30
0.0
  0
VERTEX
  5
141EF
  8
0
 10
578.80932863207943
 20
272.28629475722698
 30
0.0
  0
VERTEX
  5
141F0
  8
0
 10
579.15641647518885
 20
272.11184607326248
 30
0.0
  0
VERTEX
  5
141F1
  8
0
 10
579.50200899721574
 20
271.93141859431171
 30
0.0
  0
VERTEX
  5
141F2
  8
0
 10
579.84605592375465
 20
271.74503856771429
 30
0.0
  0
VERTEX
  5
141F3
  8
0
 10
580.18850720524222
 20
271.55273310674511
 30
0.0
  0
VERTEX
  5
141F4
  8
0
 10
580.52931302423883
 20
271.35453018667039
 30
0.0
  0
VERTEX
  5
141F5
  8
0
 10
580.69908338260859
 20
271.2532261564408
 30
0.0
  0
VERTEX
  5
141F6
  8
0
 10
580.8684238026749
 20
271.1504586406777
 30
0.0
  0
VERTEX
  5
141F7
  8
0
 10
581.2057902090645
 20
270.94054815568143
 30
0.0
  0
VERTEX
  5
141F8
  8
0
 10
581.54136316567963
 20
270.72482926800461
 30
0.0
  0
VERTEX
  5
141F9
  8
0
 10
581.70846183467688
 20
270.61480144693149
 30
0.0
  0
VERTEX
  5
141FA
  8
0
 10
581.87509385569172
 20
270.50333335893669
 30
0.0
  0
VERTEX
  5
141FB
  8
0
 10
582.20693373027245
 20
270.27609265016781
 30
0.0
  0
VERTEX
  5
141FC
  8
0
 10
582.53683451565576
 20
270.04314019910152
 30
0.0
  0
VERTEX
  5
141FD
  8
0
 10
582.70104274128823
 20
269.92453262798011
 30
0.0
  0
VERTEX
  5
141FE
  8
0
 10
582.86474822016123
 20
269.80450989404687
 30
0.0
  0
VERTEX
  5
141FF
  8
0
 10
583.19062714117524
 20
269.560236449287
 30
0.0
  0
VERTEX
  5
14200
  8
0
 10
583.51442387208965
 20
269.3103554000304
 30
0.0
  0
VERTEX
  5
14201
  8
0
 10
583.83609130920001
 20
269.05490309724058
 30
0.0
  0
VERTEX
  5
14202
  8
0
 10
584.155582658556
 20
268.79391670234872
 30
0.0
  0
VERTEX
  5
14203
  8
0
 10
584.47285144276975
 20
268.52743418184758
 30
0.0
  0
VERTEX
  5
14204
  8
0
 10
584.63063793698927
 20
268.39214395779931
 30
0.0
  0
VERTEX
  5
14205
  8
0
 10
584.78785150777674
 20
268.25549430176761
 30
0.0
  0
VERTEX
  5
14206
  8
0
 10
585.10053702954986
 20
267.97813662203862
 30
0.0
  0
VERTEX
  5
14207
  8
0
 10
585.41086252076582
 20
267.69540149073413
 30
0.0
  0
VERTEX
  5
14208
  8
0
 10
585.71878283742228
 20
267.40733003820208
 30
0.0
  0
VERTEX
  5
14209
  8
0
 10
586.02425318540509
 20
267.1139641710817
 30
0.0
  0
VERTEX
  5
1420A
  8
0
 10
586.32722912700444
 20
266.81534656620659
 30
0.0
  0
VERTEX
  5
1420B
  8
0
 10
586.47776790767239
 20
266.66408190769619
 30
0.0
  0
VERTEX
  5
1420C
  8
0
 10
586.62766658737962
 20
266.51152066439698
 30
0.0
  0
VERTEX
  5
1420D
  8
0
 10
586.92552186096998
 20
266.20253066413977
 30
0.0
  0
VERTEX
  5
1420E
  8
0
 10
587.22075161785438
 20
265.88842151516008
 30
0.0
  0
VERTEX
  5
1420F
  8
0
 10
587.36736849119768
 20
265.7294615104974
 30
0.0
  0
SEQEND
  5
14210
  8
0
  0
POLYLINE
  5
85F5
  8
0
 66
     1
 10
0.0
 20
0.0
 30
0.0
  0
VERTEX
  5
14211
  8
0
 10
587.36736849119768
 20
265.7294615104974
 30
0.0
  0
VERTEX
  5
14212
  8
0
 10
587.89228806330482
 20
265.14370677933692
 30
0.0
  0
VERTEX
  5
14213
  8
0
 10
588.91471359167224
 20
263.92371886834911
 30
0.0
  0
VERTEX
  5
14214
  8
0
 10
589.89897200594999
 20
262.64104232010391
 30
0.0
  0
VERTEX
  5
14215
  8
0
 10
590.37619972658092
 20
261.97695478205958
 30
0.0
  0
SEQEND
  5
14216
  8
0
  0
POLYLINE
  5
85F6
  8
0
 66
     1
 10
0.0
 20
0.0
 30
0.0
  0
VERTEX
  5
14217
  8
0
 10
590.37619972658092
 20
261.97695478205958
 30
0.0
  0
VERTEX
  5
14218
  8
0
 10
590.84488653863355
 20
261.29559733935929
 30
0.0
  0
VERTEX
  5
14219
  8
0
 10
591.75042259428312
 20
259.88963044650473
 30
0.0
  0
VERTEX
  5
1421A
  8
0
 10
592.61206911351178
 20
258.42825384727479
 30
0.0
  0
VERTEX
  5
1421B
  8
0
 10
593.02591374554106
 20
257.67765919361472
 30
0.0
  0
VERTEX
  5
1421C
  8
0
 10
593.42817274005904
 20
256.91427168013661
 30
0.0
  0
VERTEX
  5
1421D
  8
0
 10
594.19716750689486
 20
255.35058902488731
 30
0.0
  0
VERTEX
  5
1421E
  8
0
 10
594.9175778410505
 20
253.74020632828771
 30
0.0
  0
VERTEX
  5
1421F
  8
0
 10
595.58802139499778
 20
252.0862136467062
 30
0.0
  0
VERTEX
  5
14220
  8
0
 10
596.20721169914236
 20
250.39178471681379
 30
0.0
  0
VERTEX
  5
14221
  8
0
 10
596.77396063034735
 20
248.66017086571171
 30
0.0
  0
VERTEX
  5
14222
  8
0
 10
597.03732574921457
 20
247.78145531810191
 30
0.0
  0
VERTEX
  5
14223
  8
0
 10
597.28718069174113
 20
246.89469477217631
 30
0.0
  0
VERTEX
  5
14224
  8
0
 10
597.7458870994443
 20
245.0987440909914
 30
0.0
  0
VERTEX
  5
14225
  8
0
 10
598.14919967220635
 20
243.275764952602
 30
0.0
  0
VERTEX
  5
14226
  8
0
 10
598.49634452032603
 20
241.42925535056381
 30
0.0
  0
VERTEX
  5
14227
  8
0
 10
598.78665553061762
 20
239.56275842947699
 30
0.0
  0
VERTEX
  5
14228
  8
0
 10
599.01957564457007
 20
237.6798556862793
 30
0.0
  0
VERTEX
  5
14229
  8
0
 10
599.1143701216489
 20
236.73338014621751
 30
0.0
  0
VERTEX
  5
1422A
  8
0
 10
599.19465792725225
 20
235.7841600979508
 30
0.0
  0
VERTEX
  5
1422B
  8
0
 10
599.31156642490294
 20
233.87930918881281
 30
0.0
  0
VERTEX
  5
1422C
  8
0
 10
599.37007680957311
 20
231.96895805072239
 30
0.0
  0
VERTEX
  5
1422D
  8
0
 10
599.37739324007691
 20
231.01286519014201
 30
0.0
  0
SEQEND
  5
1422E
  8
0
  0
POLYLINE
  5
85F7
  8
0
 66
     1
 10
0.0
 20
0.0
 30
0.0
  0
VERTEX
  5
1422F
  8
0
 10
599.37739324007691
 20
231.01286519014201
 30
0.0
  0
VERTEX
  5
14230
  8
0
 10
599.36762340805569
 20
229.90806112680269
 30
0.0
  0
VERTEX
  5
14231
  8
0
 10
599.28950230182352
 20
227.7012836942553
 30
0.0
  0
VERTEX
  5
14232
  8
0
 10
599.13346024879388
 20
225.50299109138649
 30
0.0
  0
VERTEX
  5
14233
  8
0
 10
599.02633603244192
 20
224.40878796917369
 30
0.0
  0
VERTEX
  5
14234
  8
0
 10
598.89989705499454
 20
223.31881571418069
 30
0.0
  0
VERTEX
  5
14235
  8
0
 10
598.58941114867514
 20
221.1543537879115
 30
0.0
  0
VERTEX
  5
14236
  8
0
 10
598.20279804703353
 20
219.01515102867069
 30
0.0
  0
VERTEX
  5
14237
  8
0
 10
597.74104831796728
 20
216.90668843430871
 30
0.0
  0
VERTEX
  5
14238
  8
0
 10
597.20534504207092
 20
214.8343682411946
 30
0.0
  0
VERTEX
  5
14239
  8
0
 10
596.59706078138447
 20
212.80350008277671
 30
0.0
  0
VERTEX
  5
1423A
  8
0
 10
596.26618066308356
 20
211.8052411025885
 30
0.0
  0
VERTEX
  5
1423B
  8
0
 10
595.9177540626589
 20
210.8192873854079
 30
0.0
  0
VERTEX
  5
1423C
  8
0
 10
595.16916538414682
 20
208.88681403628919
 30
0.0
  0
VERTEX
  5
1423D
  8
0
 10
594.35321275615354
 20
207.0110313576958
 30
0.0
  0
VERTEX
  5
1423E
  8
0
 10
593.47198678677194
 20
205.19674542085431
 30
0.0
  0
VERTEX
  5
1423F
  8
0
 10
592.52774532539115
 20
203.44860473197849
 30
0.0
  0
VERTEX
  5
14240
  8
0
 10
591.52290767770705
 20
201.77108832201449
 30
0.0
  0
VERTEX
  5
14241
  8
0
 10
590.99856394801748
 20
200.9601647443391
 30
0.0
  0
VERTEX
  5
14242
  8
0
 10
590.46004840705359
 20
200.1684942706076
 30
0.0
  0
VERTEX
  5
14243
  8
0
 10
589.34189073793652
 20
198.6449286936988
 30
0.0
  0
VERTEX
  5
14244
  8
0
 10
588.17129957867485
 20
197.20429522296371
 30
0.0
  0
VERTEX
  5
14245
  8
0
 10
587.3773932400768
 20
196.29994437681501
 30
0.0
  0
SEQEND
  5
14246
  8
0
  0
LINE
  5
85FA
  8
0
 10
550.3773932400768
 20
265.71827495088559
 30
0.0
 11
550.3773932400768
 21
192.24368873141989
 31
0.0
  0
LINE
  5
85FB
  8
0
 10
587.3773932400768
 20
192.24368873141989
 30
0.0
 11
587.3773932400768
 21
265.71827495088581
 31
0.0
  0
LINE
  5
85FC
  8
1
 10
568.87739324007691
 20
303.38049231669049
 30
0.0
 11
568.87739324007691
 21
128.01527732418089
 31
0.0
  0
LINE
  5
85FD
  8
1
 10
244.6739045768085
 20
202.24368873141989
 30
0.0
 11
393.1307273912866
 21
202.24368873141989
 31
0.0
  0
LINE
  5
85FF
  8
0
 10
543.27739324007678
 20
196.42868873141981
 30
0.0
 11
543.87739324007691
 21
196.42868873141981
 31
0.0
  0
LINE
  5
8600
  8
0
 10
603.11039324007675
 20
206.24368873141989
 30
0.0
 11
600.87739324007691
 21
206.24368873141989
 31
0.0
  0
LINE
  5
8601
  8
0
 10
600.87739324007691
 20
198.24368873141989
 30
0.0
 11
603.11039324007675
 21
198.24368873141989
 31
0.0
  0
LINE
  5
8602
  8
0
 10
603.8773932400768
 20
205.4766887314199
 30
0.0
 11
603.11039324007675
 21
206.24368873141989
 31
0.0
  0
LINE
  5
8603
  8
0
 10
603.11039324007675
 20
198.24368873141989
 30
0.0
 11
603.8773932400768
 21
199.01068873142
 31
0.0
  0
LINE
  5
8604
  8
0
 10
538.83681294949236
 20
209.47018960077679
 30
0.0
 11
538.57739324007673
 21
208.50202206475339
 31
0.0
  0
LINE
  5
8605
  8
0
 10
538.57739324007673
 20
195.98535539808671
 30
0.0
 11
538.83681294949236
 21
195.017187862063
 31
0.0
  0
LINE
  5
8607
  8
0
 10
543.01797353066115
 20
195.017187862063
 30
0.0
 11
543.27739324007678
 21
195.98535539808651
 31
0.0
  0
LINE
  5
860A
  8
0
 10
600.87739324007691
 20
208.05868873142001
 30
0.0
 11
598.37739324007691
 21
208.05868873142001
 31
0.0
  0
LINE
  5
860B
  8
0
 10
598.37739324007691
 20
196.42868873141981
 30
0.0
 11
600.87739324007691
 21
196.42868873141981
 31
0.0
  0
LINE
  5
860D
  8
0
 10
592.87739324007691
 20
195.98535539808671
 30
0.0
 11
593.13681294949231
 21
195.017187862063
 31
0.0
  0
LINE
  5
860E
  8
0
 10
598.37739324007691
 20
208.50202206475339
 30
0.0
 11
598.17203817637608
 21
209.2684175960766
 31
0.0
  0
LINE
  5
860F
  8
0
 10
598.11797353066117
 20
195.017187862063
 30
0.0
 11
598.37739324007691
 21
195.98535539808671
 31
0.0
  0
LINE
  5
8611
  8
0
 10
543.87739324007691
 20
198.24368873141989
 30
0.0
 11
545.11214836744432
 21
198.24368873141989
 31
0.0
  0
LINE
  5
8614
  8
0
 10
550.3773932400768
 20
209.74368873141989
 30
0.0
 11
551.37739324007691
 21
209.74368873141989
 31
0.0
  0
LINE
  5
8616
  8
0
 10
586.37739324007691
 20
209.74368873141989
 30
0.0
 11
587.3773932400768
 21
209.74368873141989
 31
0.0
  0
LINE
  5
8619
  8
0
 10
545.8773932400768
 20
194.74368873141989
 30
0.0
 11
547.37739324007691
 21
194.74368873141989
 31
0.0
  0
LINE
  5
861B
  8
0
 10
587.3773932400768
 20
194.74368873141989
 30
0.0
 11
586.37739324007691
 21
194.74368873141989
 31
0.0
  0
LINE
  5
861D
  8
0
 10
551.37739324007691
 20
194.74368873141989
 30
0.0
 11
550.3773932400768
 21
194.74368873141989
 31
0.0
  0
LINE
  5
861F
  8
0
 10
590.37739324007691
 20
194.74368873141989
 30
0.0
 11
590.87739324007691
 21
194.74368873141989
 31
0.0
  0
LINE
  5
8620
  8
0
 10
543.87739324007691
 20
196.42868873141981
 30
0.0
 11
543.87739324007691
 21
200.1832489792688
 31
0.0
  0
LINE
  5
8621
  8
0
 10
603.11039324007675
 20
198.24368873141989
 30
0.0
 11
603.11039324007675
 21
206.24368873141989
 31
0.0
  0
LINE
  5
8622
  8
0
 10
603.8773932400768
 20
199.01068873142
 30
0.0
 11
603.8773932400768
 21
205.4766887314199
 31
0.0
  0
LINE
  5
8623
  8
0
 10
538.57739324007673
 20
195.98535539808651
 30
0.0
 11
538.57739324007673
 21
208.50202206475339
 31
0.0
  0
LINE
  5
8624
  8
0
 10
543.27739324007678
 20
195.98535539808651
 30
0.0
 11
543.27739324007678
 21
201.2105906251515
 31
0.0
  0
LINE
  5
8629
  8
0
 10
538.83681294949236
 20
195.017187862063
 30
0.0
 11
543.01797353066115
 21
195.017187862063
 31
0.0
  0
POLYLINE
  5
862A
  8
0
 66
     1
 10
0.0
 20
0.0
 30
0.0
  0
VERTEX
  5
14247
  8
0
 10
538.83681294949236
 20
195.017187862063
 30
0.0
  0
VERTEX
  5
14248
  8
0
 10
538.75596829623396
 20
195.3417617577353
 30
0.0
  0
VERTEX
  5
14249
  8
0
 10
538.64135795748109
 20
195.9513223365071
 30
0.0
  0
VERTEX
  5
1424A
  8
0
 10
538.58458337369677
 20
196.5337305080829
 30
0.0
  0
VERTEX
  5
1424B
  8
0
 10
538.57739324007673
 20
196.82381307940241
 30
0.0
  0
SEQEND
  5
1424C
  8
0
  0
POLYLINE
  5
862B
  8
0
 66
     1
 10
0.0
 20
0.0
 30
0.0
  0
VERTEX
  5
1424D
  8
0
 10
538.57739324007673
 20
196.82381307940241
 30
0.0
  0
VERTEX
  5
1424E
  8
0
 10
538.58458337369677
 20
197.1138956507217
 30
0.0
  0
VERTEX
  5
1424F
  8
0
 10
538.64135795748109
 20
197.69630382229741
 30
0.0
  0
VERTEX
  5
14250
  8
0
 10
538.75596829623396
 20
198.3058644010693
 30
0.0
  0
VERTEX
  5
14251
  8
0
 10
538.83681294949236
 20
198.6304382967416
 30
0.0
  0
SEQEND
  5
14252
  8
0
  0
POLYLINE
  5
862C
  8
0
 66
     1
 10
0.0
 20
0.0
 30
0.0
  0
VERTEX
  5
14253
  8
0
 10
543.01797353066115
 20
198.6304382967416
 30
0.0
  0
VERTEX
  5
14254
  8
0
 10
543.09881818391943
 20
198.3058644010693
 30
0.0
  0
VERTEX
  5
14255
  8
0
 10
543.21342852267242
 20
197.69630382229741
 30
0.0
  0
VERTEX
  5
14256
  8
0
 10
543.27020310645685
 20
197.1138956507217
 30
0.0
  0
VERTEX
  5
14257
  8
0
 10
543.27739324007678
 20
196.82381307940241
 30
0.0
  0
SEQEND
  5
14258
  8
0
  0
POLYLINE
  5
862D
  8
0
 66
     1
 10
0.0
 20
0.0
 30
0.0
  0
VERTEX
  5
14259
  8
0
 10
543.27739324007678
 20
196.82381307940241
 30
0.0
  0
VERTEX
  5
1425A
  8
0
 10
543.27020310645685
 20
196.5337305080829
 30
0.0
  0
VERTEX
  5
1425B
  8
0
 10
543.21342852267242
 20
195.9513223365071
 30
0.0
  0
VERTEX
  5
1425C
  8
0
 10
543.09881818391943
 20
195.3417617577353
 30
0.0
  0
VERTEX
  5
1425D
  8
0
 10
543.01797353066115
 20
195.017187862063
 30
0.0
  0
SEQEND
  5
1425E
  8
0
  0
LINE
  5
862E
  8
0
 10
538.83681294949236
 20
198.6304382967416
 30
0.0
 11
543.01797353066115
 21
198.6304382967416
 31
0.0
  0
POLYLINE
  5
862F
  8
0
 66
     1
 10
0.0
 20
0.0
 30
0.0
  0
VERTEX
  5
1425F
  8
0
 10
538.83681294949236
 20
198.6304382967416
 30
0.0
  0
VERTEX
  5
14260
  8
0
 10
538.75596829623396
 20
199.27958608808601
 30
0.0
  0
VERTEX
  5
14261
  8
0
 10
538.64135795748109
 20
200.49870724562959
 30
0.0
  0
VERTEX
  5
14262
  8
0
 10
538.58458337369677
 20
201.66352358878109
 30
0.0
  0
VERTEX
  5
14263
  8
0
 10
538.57739324007673
 20
202.24368873141989
 30
0.0
  0
SEQEND
  5
14264
  8
0
  0
POLYLINE
  5
8630
  8
0
 66
     1
 10
0.0
 20
0.0
 30
0.0
  0
VERTEX
  5
14265
  8
0
 10
538.57739324007673
 20
202.24368873141989
 30
0.0
  0
VERTEX
  5
14266
  8
0
 10
538.58458337369677
 20
202.82385387405881
 30
0.0
  0
VERTEX
  5
14267
  8
0
 10
538.64135795748109
 20
203.9886702172102
 30
0.0
  0
VERTEX
  5
14268
  8
0
 10
538.75596829623396
 20
205.2077913747539
 30
0.0
  0
VERTEX
  5
14269
  8
0
 10
538.83681294949236
 20
205.8569391660985
 30
0.0
  0
SEQEND
  5
1426A
  8
0
  0
POLYLINE
  5
8632
  8
0
 66
     1
 10
0.0
 20
0.0
 30
0.0
  0
VERTEX
  5
1426B
  8
0
 10
543.25045252931284
 20
201.25831066584141
 30
0.0
  0
VERTEX
  5
1426C
  8
0
 10
543.21342852267242
 20
200.49870724562959
 30
0.0
  0
VERTEX
  5
1426D
  8
0
 10
543.09881818391943
 20
199.27958608808601
 30
0.0
  0
VERTEX
  5
1426E
  8
0
 10
543.01797353066115
 20
198.6304382967416
 30
0.0
  0
SEQEND
  5
1426F
  8
0
  0
LINE
  5
8638
  8
0
 10
538.83681294949236
 20
205.8569391660985
 30
0.0
 11
540.98793134312268
 21
205.8569391660985
 31
0.0
  0
POLYLINE
  5
8639
  8
0
 66
     1
 10
0.0
 20
0.0
 30
0.0
  0
VERTEX
  5
14270
  8
0
 10
538.83681294949236
 20
205.8569391660985
 30
0.0
  0
VERTEX
  5
14271
  8
0
 10
538.75596829623396
 20
206.18151306177049
 30
0.0
  0
VERTEX
  5
14272
  8
0
 10
538.64135795748109
 20
206.79107364054241
 30
0.0
  0
VERTEX
  5
14273
  8
0
 10
538.58458337369677
 20
207.37348181211809
 30
0.0
  0
VERTEX
  5
14274
  8
0
 10
538.57739324007673
 20
207.6635643834376
 30
0.0
  0
SEQEND
  5
14275
  8
0
  0
POLYLINE
  5
863A
  8
0
 66
     1
 10
0.0
 20
0.0
 30
0.0
  0
VERTEX
  5
14276
  8
0
 10
538.57739324007673
 20
207.6635643834376
 30
0.0
  0
VERTEX
  5
14277
  8
0
 10
538.58458337369677
 20
207.95364695475689
 30
0.0
  0
VERTEX
  5
14278
  8
0
 10
538.64135795748109
 20
208.53605512633271
 30
0.0
  0
VERTEX
  5
14279
  8
0
 10
538.75596829623396
 20
209.14561570510449
 30
0.0
  0
VERTEX
  5
1427A
  8
0
 10
538.83681294949236
 20
209.47018960077679
 30
0.0
  0
SEQEND
  5
1427B
  8
0
  0
LINE
  5
863B
  8
0
 10
538.83681294949236
 20
209.47018960077679
 30
0.0
 11
539.51077387581267
 21
209.47018960077679
 31
0.0
  0
LINE
  5
8641
  8
0
 10
600.87739324007691
 20
196.42868873141981
 30
0.0
 11
600.87739324007691
 21
208.05868873142001
 31
0.0
  0
LINE
  5
8642
  8
0
 10
592.87739324007691
 20
195.98535539808651
 30
0.0
 11
592.87739324007691
 21
198.59616446178359
 31
0.0
  0
LINE
  5
8643
  8
0
 10
598.37739324007691
 20
195.98535539808651
 30
0.0
 11
598.37739324007691
 21
208.50202206475339
 31
0.0
  0
LINE
  5
8648
  8
0
 10
593.13681294949231
 20
195.017187862063
 30
0.0
 11
598.11797353066117
 21
195.017187862063
 31
0.0
  0
POLYLINE
  5
8649
  8
0
 66
     1
 10
0.0
 20
0.0
 30
0.0
  0
VERTEX
  5
1427C
  8
0
 10
593.13681294949231
 20
195.017187862063
 30
0.0
  0
VERTEX
  5
1427D
  8
0
 10
593.05596829623403
 20
195.3417617577353
 30
0.0
  0
VERTEX
  5
1427E
  8
0
 10
592.94135795748105
 20
195.9513223365071
 30
0.0
  0
VERTEX
  5
1427F
  8
0
 10
592.88458337369673
 20
196.5337305080829
 30
0.0
  0
VERTEX
  5
14280
  8
0
 10
592.87739324007691
 20
196.82381307940241
 30
0.0
  0
SEQEND
  5
14281
  8
0
  0
POLYLINE
  5
864A
  8
0
 66
     1
 10
0.0
 20
0.0
 30
0.0
  0
VERTEX
  5
14282
  8
0
 10
592.87739324007691
 20
196.82381307940241
 30
0.0
  0
VERTEX
  5
14283
  8
0
 10
592.88458337369673
 20
197.1138956507217
 30
0.0
  0
VERTEX
  5
14284
  8
0
 10
592.94135795748105
 20
197.69630382229741
 30
0.0
  0
VERTEX
  5
14285
  8
0
 10
593.05596829623425
 20
198.3058644010693
 30
0.0
  0
VERTEX
  5
14286
  8
0
 10
593.13681294949231
 20
198.6304382967416
 30
0.0
  0
SEQEND
  5
14287
  8
0
  0
POLYLINE
  5
864B
  8
0
 66
     1
 10
0.0
 20
0.0
 30
0.0
  0
VERTEX
  5
14288
  8
0
 10
598.11797353066117
 20
198.6304382967416
 30
0.0
  0
VERTEX
  5
14289
  8
0
 10
598.19881818391934
 20
198.3058644010693
 30
0.0
  0
VERTEX
  5
1428A
  8
0
 10
598.31342852267255
 20
197.69630382229741
 30
0.0
  0
VERTEX
  5
1428B
  8
0
 10
598.37020310645676
 20
197.1138956507217
 30
0.0
  0
VERTEX
  5
1428C
  8
0
 10
598.37739324007691
 20
196.82381307940241
 30
0.0
  0
SEQEND
  5
1428D
  8
0
  0
POLYLINE
  5
864C
  8
0
 66
     1
 10
0.0
 20
0.0
 30
0.0
  0
VERTEX
  5
1428E
  8
0
 10
598.37739324007691
 20
196.82381307940241
 30
0.0
  0
VERTEX
  5
1428F
  8
0
 10
598.37020310645676
 20
196.5337305080829
 30
0.0
  0
VERTEX
  5
14290
  8
0
 10
598.31342852267255
 20
195.9513223365071
 30
0.0
  0
VERTEX
  5
14291
  8
0
 10
598.19881818391934
 20
195.3417617577353
 30
0.0
  0
VERTEX
  5
14292
  8
0
 10
598.11797353066117
 20
195.017187862063
 30
0.0
  0
SEQEND
  5
14293
  8
0
  0
LINE
  5
864D
  8
0
 10
593.13681294949231
 20
198.6304382967416
 30
0.0
 11
598.11797353066117
 21
198.6304382967416
 31
0.0
  0
POLYLINE
  5
864E
  8
0
 66
     1
 10
0.0
 20
0.0
 30
0.0
  0
VERTEX
  5
14294
  8
0
 10
593.13681294949231
 20
198.6304382967416
 30
0.0
  0
VERTEX
  5
14295
  8
0
 10
593.0987337188684
 20
198.93619813934481
 30
0.0
  0
SEQEND
  5
14296
  8
0
  0
POLYLINE
  5
8650
  8
0
 66
     1
 10
0.0
 20
0.0
 30
0.0
  0
VERTEX
  5
14297
  8
0
 10
598.11797353066117
 20
205.8569391660985
 30
0.0
  0
VERTEX
  5
14298
  8
0
 10
598.19881818391934
 20
205.2077913747539
 30
0.0
  0
VERTEX
  5
14299
  8
0
 10
598.31342852267255
 20
203.9886702172102
 30
0.0
  0
VERTEX
  5
1429A
  8
0
 10
598.37020310645676
 20
202.82385387405881
 30
0.0
  0
VERTEX
  5
1429B
  8
0
 10
598.37739324007691
 20
202.24368873141989
 30
0.0
  0
SEQEND
  5
1429C
  8
0
  0
POLYLINE
  5
8651
  8
0
 66
     1
 10
0.0
 20
0.0
 30
0.0
  0
VERTEX
  5
1429D
  8
0
 10
598.37739324007691
 20
202.24368873141989
 30
0.0
  0
VERTEX
  5
1429E
  8
0
 10
598.37020310645676
 20
201.66352358878109
 30
0.0
  0
VERTEX
  5
1429F
  8
0
 10
598.31342852267255
 20
200.49870724562959
 30
0.0
  0
VERTEX
  5
142A0
  8
0
 10
598.19881818391934
 20
199.27958608808601
 30
0.0
  0
VERTEX
  5
142A1
  8
0
 10
598.11797353066117
 20
198.6304382967416
 30
0.0
  0
SEQEND
  5
142A2
  8
0
  0
POLYLINE
  5
8656
  8
0
 66
     1
 10
0.0
 20
0.0
 30
0.0
  0
VERTEX
  5
142A3
  8
0
 10
598.37739324007691
 20
207.6635643834376
 30
0.0
  0
VERTEX
  5
142A4
  8
0
 10
598.37020310645676
 20
207.37348181211809
 30
0.0
  0
VERTEX
  5
142A5
  8
0
 10
598.31342852267255
 20
206.79107364054241
 30
0.0
  0
VERTEX
  5
142A6
  8
0
 10
598.19881818391934
 20
206.18151306177049
 30
0.0
  0
VERTEX
  5
142A7
  8
0
 10
598.11797353066117
 20
205.8569391660985
 30
0.0
  0
SEQEND
  5
142A8
  8
0
  0
LINE
  5
8657
  8
0
 10
596.76685513703103
 20
205.8569391660985
 30
0.0
 11
598.11797353066117
 21
205.8569391660985
 31
0.0
  0
POLYLINE
  5
865B
  8
0
 66
     1
 10
0.0
 20
0.0
 30
0.0
  0
VERTEX
  5
142A9
  8
0
 10
598.169796237377
 20
209.2621325787581
 30
0.0
  0
VERTEX
  5
142AA
  8
0
 10
598.19881818391934
 20
209.14561570510449
 30
0.0
  0
VERTEX
  5
142AB
  8
0
 10
598.31342852267255
 20
208.53605512633271
 30
0.0
  0
VERTEX
  5
142AC
  8
0
 10
598.37020310645676
 20
207.95364695475689
 30
0.0
  0
VERTEX
  5
142AD
  8
0
 10
598.37739324007691
 20
207.6635643834376
 30
0.0
  0
SEQEND
  5
142AE
  8
0
  0
LINE
  5
8660
  8
0
 10
545.8773932400768
 20
194.74368873141989
 30
0.0
 11
545.8773932400768
 21
197.14597873297669
 31
0.0
  0
LINE
  5
8661
  8
0
 10
590.87739324007691
 20
194.74368873141989
 30
0.0
 11
590.87739324007691
 21
195.86718025688461
 31
0.0
  0
LINE
  5
8662
  8
3
 10
603.8773932400768
 20
205.4766887314199
 30
0.0
 11
600.87739324007691
 21
205.4766887314199
 31
0.0
  0
LINE
  5
8665
  8
3
 10
603.8773932400768
 20
199.01068873142
 30
0.0
 11
600.87739324007691
 21
199.01068873142
 31
0.0
  0
LINE
  5
8667
  8
1
 10
610.48642783259481
 20
202.24368873141989
 30
0.0
 11
527.26835864755901
 21
202.24368873141989
 31
0.0
  0
ARC
  5
8686
  8
0
 10
584.37739324007691
 20
143.76292266256621
 30
0.0
 40
2.0000000000000031
 50
284.84460444708958
 51
0.0
  0
ARC
  5
8687
  8
0
 10
584.37739324007691
 20
260.72445480027358
 30
0.0
 40
2.0000000000000129
 50
0.0
 51
75.155395552910377
  0
ARC
  5
8688
  8
0
 10
568.87739324007714
 20
202.2436887314197
 30
0.0
 40
62.499999999999837
 50
255.15539555291039
 51
284.84460444708958
  0
ARC
  5
8689
  8
0
 10
568.87739324007714
 20
202.24368873141989
 30
0.0
 40
62.500000000000071
 50
75.155395552910377
 51
104.84460444708959
  0
ARC
  5
868A
  8
0
 10
553.37739324007691
 20
143.76292266256621
 30
0.0
 40
1.9999999999999969
 50
180.0
 51
255.15539555291039
  0
ARC
  5
868B
  8
0
 10
553.37739324007691
 20
260.7244548002738
 30
0.0
 40
1.9999999999999889
 50
104.84460444708959
 51
180.0
  0
LINE
  5
8696
  8
0
 10
586.37739324007691
 20
143.76292266256621
 30
0.0
 11
586.37739324007691
 21
260.7244548002738
 31
0.0
  0
LINE
  5
8698
  8
0
 10
551.37739324007691
 20
143.76292266256621
 30
0.0
 11
551.37739324007691
 21
260.7244548002738
 31
0.0
  0
LINE
  5
86BE
  8
0
 10
147.4304029516787
 20
292.44368873142002
 30
0.0
 11
147.4304029516787
 21
293.24368873142021
 31
0.0
  0
LINE
  5
86BF
  8
0
 10
77.830402951678593
 20
293.24368873142021
 30
0.0
 11
77.830402951678593
 21
292.44368873142002
 31
0.0
  0
LINE
  5
86C0
  8
0
 10
147.13162361565671
 20
283.94368873141991
 30
0.0
 11
148.6304029516786
 21
292.44368873142002
 31
0.0
  0
LINE
  5
86C1
  8
0
 10
76.630402951678661
 20
292.44368873142002
 30
0.0
 11
78.129182287700587
 21
283.94368873141991
 31
0.0
  0
LINE
  5
86C2
  8
0
 10
145.6304029516786
 20
231.01286519014221
 30
0.0
 11
145.6304029516786
 21
283.94368873141991
 31
0.0
  0
LINE
  5
86C3
  8
0
 10
79.630402951678661
 20
283.94368873141991
 30
0.0
 11
79.630402951678661
 21
231.01286519014221
 31
0.0
  0
LINE
  5
86CA
  8
0
 10
155.1304029516786
 20
295.74368873142021
 30
0.0
 11
155.1304029516786
 21
293.24368873142021
 31
0.0
  0
LINE
  5
86CC
  8
0
 10
70.130402951678661
 20
295.74368873142021
 30
0.0
 11
155.1304029516786
 21
295.74368873142021
 31
0.0
  0
LINE
  5
86CE
  8
0
 10
70.130402951678661
 20
293.24368873142021
 30
0.0
 11
155.1304029516786
 21
293.24368873142021
 31
0.0
  0
LINE
  5
86CF
  8
0
 10
70.130402951678661
 20
295.74368873142021
 30
0.0
 11
70.130402951678661
 21
293.24368873142021
 31
0.0
  0
LINE
  5
86E2
  8
0
 10
76.630402951678661
 20
292.44368873142002
 30
0.0
 11
148.6304029516786
 21
292.44368873142002
 31
0.0
  0
LINE
  5
86E3
  8
0
 10
78.129182287700587
 20
283.94368873141991
 30
0.0
 11
147.13162361565671
 21
283.94368873141991
 31
0.0
  0
LINE
  5
86E4
  8
0
 10
134.1304029516786
 20
281.94368873142002
 30
0.0
 11
91.130402951678661
 21
281.94368873142002
 31
0.0
  0
LINE
  5
86E5
  8
0
 10
134.1304029516786
 20
195.37204995221231
 30
0.0
 11
134.1304029516786
 21
281.94368873142002
 31
0.0
  0
LINE
  5
86E6
  8
0
 10
91.130402951678661
 20
281.94368873142002
 30
0.0
 11
91.130402951678661
 21
195.37204995221231
 31
0.0
  0
POLYLINE
  5
86E7
  8
0
 66
     1
 10
0.0
 20
0.0
 30
0.0
  0
VERTEX
  5
142AF
  8
0
 10
90.090180451595529
 20
196.51624007309141
 30
0.0
  0
VERTEX
  5
142B0
  8
0
 10
89.547801164379621
 20
197.25892077596831
 30
0.0
  0
VERTEX
  5
142B1
  8
0
 10
88.876076627007365
 20
198.24368873142009
 30
0.0
  0
SEQEND
  5
142B2
  8
0
  0
POLYLINE
  5
86E9
  8
0
 66
     1
 10
0.0
 20
0.0
 30
0.0
  0
VERTEX
  5
142B3
  8
0
 10
145.6304029516786
 20
231.01286519014221
 30
0.0
  0
VERTEX
  5
142B4
  8
0
 10
145.62186596613839
 20
229.93860933463611
 30
0.0
  0
VERTEX
  5
142B5
  8
0
 10
145.55359658139429
 20
227.79232058616071
 30
0.0
  0
VERTEX
  5
142B6
  8
0
 10
145.41719908205491
 20
225.65269612530889
 30
0.0
  0
VERTEX
  5
142B7
  8
0
 10
145.3235349989362
 20
224.5867673968072
 30
0.0
  0
VERTEX
  5
142B8
  8
0
 10
145.21295571608729
 20
223.52416348672679
 30
0.0
  0
VERTEX
  5
142B9
  8
0
 10
144.9412891252191
 20
221.4111272527027
 30
0.0
  0
VERTEX
  5
142BA
  8
0
 10
144.6027614703647
 20
219.31795993874351
 30
0.0
  0
VERTEX
  5
142BB
  8
0
 10
144.19807326834311
 20
217.24899294551
 30
0.0
  0
VERTEX
  5
142BC
  8
0
 10
143.7280619422944
 20
215.20850759582839
 30
0.0
  0
VERTEX
  5
142BD
  8
0
 10
143.1937000887973
 20
213.20072627533091
 30
0.0
  0
VERTEX
  5
142BE
  8
0
 10
142.9027281225566
 20
212.21040085288311
 30
0.0
  0
VERTEX
  5
142BF
  8
0
 10
142.59609346527029
 20
211.22980369505191
 30
0.0
  0
VERTEX
  5
142C0
  8
0
 10
141.99470682578439
 20
209.4701896007773
 30
0.0
  0
SEQEND
  5
142C1
  8
0
  0
LINE
  5
86EA
  8
0
 10
91.130402951678661
 20
192.24368873142009
 30
0.0
 11
94.130402951678647
 21
192.24368873142009
 31
0.0
  0
LINE
  5
86EB
  8
0
 10
91.130402951678661
 20
192.24368873142009
 30
0.0
 11
91.130402951678661
 21
195.37204995221231
 31
0.0
  0
POLYLINE
  5
86EC
  8
0
 66
     1
 10
0.0
 20
0.0
 30
0.0
  0
VERTEX
  5
142C2
  8
0
 10
90.630402951678661
 20
195.86961553604499
 30
0.0
  0
VERTEX
  5
142C3
  8
0
 10
90.589358715148023
 20
195.9118633988507
 30
0.0
  0
VERTEX
  5
142C4
  8
0
 10
90.251305261654466
 20
196.3077671035102
 30
0.0
  0
VERTEX
  5
142C5
  8
0
 10
90.090180451595529
 20
196.51624007309141
 30
0.0
  0
SEQEND
  5
142C6
  8
0
  0
LINE
  5
86F0
  8
0
 10
94.130402951678647
 20
278.24368873142009
 30
0.0
 11
131.1304029516786
 21
278.24368873142009
 31
0.0
  0
LINE
  5
86F3
  8
0
 10
134.1304029516786
 20
195.37204995221231
 30
0.0
 11
134.1304029516786
 21
192.24368873142009
 31
0.0
  0
LINE
  5
86F4
  8
0
 10
131.1304029516786
 20
192.24368873142009
 30
0.0
 11
134.1304029516786
 21
192.24368873142009
 31
0.0
  0
POLYLINE
  5
86F7
  8
0
 66
     1
 10
0.0
 20
0.0
 30
0.0
  0
VERTEX
  5
142C7
  8
0
 10
94.130402951678647
 20
265.71653286230338
 30
0.0
  0
VERTEX
  5
142C8
  8
0
 10
94.774805221695473
 20
266.40315413002139
 30
0.0
  0
VERTEX
  5
142C9
  8
0
 10
95.136321642971765
 20
266.7710889036984
 30
0.0
  0
VERTEX
  5
142CA
  8
0
 10
95.501538694782198
 20
267.13145952055118
 30
0.0
  0
VERTEX
  5
142CB
  8
0
 10
96.242764897100528
 20
267.82920497435578
 30
0.0
  0
VERTEX
  5
142CC
  8
0
 10
96.997856677282812
 20
268.4958001291219
 30
0.0
  0
VERTEX
  5
142CD
  8
0
 10
97.766175152297706
 20
269.13068097879841
 30
0.0
  0
VERTEX
  5
142CE
  8
0
 10
98.547070248010087
 20
269.73331035080258
 30
0.0
  0
VERTEX
  5
142CF
  8
0
 10
99.339881249207679
 20
270.303178360522
 30
0.0
  0
VERTEX
  5
142D0
  8
0
 10
99.740545968587298
 20
270.57567508378543
 30
0.0
  0
VERTEX
  5
142D1
  8
0
 10
100.1439373586328
 20
270.83980284272769
 30
0.0
  0
VERTEX
  5
142D2
  8
0
 10
100.9585582645435
 20
271.34272975953257
 30
0.0
  0
VERTEX
  5
142D3
  8
0
 10
101.7830547163249
 20
271.81153358455589
 30
0.0
  0
VERTEX
  5
142D4
  8
0
 10
102.61672910766499
 20
272.2458176629579
 30
0.0
  0
VERTEX
  5
142D5
  8
0
 10
103.4588760667983
 20
272.64521454705158
 30
0.0
  0
VERTEX
  5
142D6
  8
0
 10
104.30878305332109
 20
273.00938630719878
 30
0.0
  0
VERTEX
  5
142D7
  8
0
 10
104.7364220760518
 20
273.17816530500198
 30
0.0
  0
VERTEX
  5
142D8
  8
0
 10
105.1657309610717
 20
273.33802481773313
 30
0.0
  0
VERTEX
  5
142D9
  8
0
 10
106.02899472656649
 20
273.63085201766461
 30
0.0
  0
VERTEX
  5
142DA
  8
0
 10
106.8978439424753
 20
273.88762014594789
 30
0.0
  0
VERTEX
  5
142DB
  8
0
 10
107.7715434756193
 20
274.10811195111182
 30
0.0
  0
VERTEX
  5
142DC
  8
0
 10
108.649354088967
 20
274.2921408750762
 30
0.0
  0
VERTEX
  5
142DD
  8
0
 10
109.53053306710321
 20
274.4395512109985
 30
0.0
  0
VERTEX
  5
142DE
  8
0
 10
109.9721527978751
 20
274.49948421889979
 30
0.0
  0
VERTEX
  5
142DF
  8
0
 10
110.414334844639
 20
274.55021823501829
 30
0.0
  0
VERTEX
  5
142E0
  8
0
 10
111.30001163703589
 20
274.62404831178418
 30
0.0
  0
VERTEX
  5
142E1
  8
0
 10
112.1868140733054
 20
274.66097897368081
 30
0.0
  0
VERTEX
  5
142E2
  8
0
 10
112.6304029516786
 20
274.6655960388988
 30
0.0
  0
VERTEX
  5
142E3
  8
0
 10
113.0739918300519
 20
274.66097897368081
 30
0.0
  0
VERTEX
  5
142E4
  8
0
 10
113.9607942663214
 20
274.62404831178418
 30
0.0
  0
VERTEX
  5
142E5
  8
0
 10
114.84647105871829
 20
274.55021823501829
 30
0.0
  0
VERTEX
  5
142E6
  8
0
 10
115.2886531054822
 20
274.49948421889979
 30
0.0
  0
VERTEX
  5
142E7
  8
0
 10
115.7302728362541
 20
274.4395512109985
 30
0.0
  0
VERTEX
  5
142E8
  8
0
 10
116.61145181439031
 20
274.2921408750762
 30
0.0
  0
VERTEX
  5
142E9
  8
0
 10
117.489262427738
 20
274.10811195111182
 30
0.0
  0
VERTEX
  5
142EA
  8
0
 10
118.3629619608821
 20
273.88762014594789
 30
0.0
  0
VERTEX
  5
142EB
  8
0
 10
119.2318111767907
 20
273.63085201766461
 30
0.0
  0
VERTEX
  5
142EC
  8
0
 10
120.09507494228551
 20
273.33802481773313
 30
0.0
  0
VERTEX
  5
142ED
  8
0
 10
120.5243838273055
 20
273.17816530500198
 30
0.0
  0
VERTEX
  5
142EE
  8
0
 10
120.9520228500362
 20
273.00938630719878
 30
0.0
  0
VERTEX
  5
142EF
  8
0
 10
121.801929836559
 20
272.64521454705158
 30
0.0
  0
VERTEX
  5
142F0
  8
0
 10
122.6440767956923
 20
272.2458176629579
 30
0.0
  0
VERTEX
  5
142F1
  8
0
 10
123.4777511870323
 20
271.81153358455589
 30
0.0
  0
VERTEX
  5
142F2
  8
0
 10
124.3022476388139
 20
271.34272975953257
 30
0.0
  0
VERTEX
  5
142F3
  8
0
 10
125.1168685447245
 20
270.83980284272769
 30
0.0
  0
VERTEX
  5
142F4
  8
0
 10
125.52025993477
 20
270.57567508378543
 30
0.0
  0
VERTEX
  5
142F5
  8
0
 10
125.9209246541496
 20
270.303178360522
 30
0.0
  0
VERTEX
  5
142F6
  8
0
 10
126.71373565534719
 20
269.73331035080258
 30
0.0
  0
VERTEX
  5
142F7
  8
0
 10
127.4946307510596
 20
269.13068097879841
 30
0.0
  0
VERTEX
  5
142F8
  8
0
 10
128.26294922607451
 20
268.4958001291219
 30
0.0
  0
VERTEX
  5
142F9
  8
0
 10
129.01804100625679
 20
267.82920497435578
 30
0.0
  0
VERTEX
  5
142FA
  8
0
 10
129.7592672085751
 20
267.13145952055118
 30
0.0
  0
VERTEX
  5
142FB
  8
0
 10
130.12448426038549
 20
266.7710889036984
 30
0.0
  0
VERTEX
  5
142FC
  8
0
 10
130.48600068166181
 20
266.40315413002139
 30
0.0
  0
VERTEX
  5
142FD
  8
0
 10
131.1304029516786
 20
265.71653286230338
 30
0.0
  0
SEQEND
  5
142FE
  8
0
  0
LINE
  5
86FB
  8
0
 10
94.130402951678647
 20
192.24368873142009
 30
0.0
 11
94.130402951678647
 21
278.24368873142038
 31
0.0
  0
LINE
  5
86FD
  8
0
 10
131.1304029516786
 20
278.24368873142038
 30
0.0
 11
131.1304029516786
 21
192.24368873142009
 31
0.0
  0
LINE
  5
8701
  8
0
 10
137.6304029516786
 20
196.4286887314201
 30
0.0
 11
138.2304029516786
 21
196.4286887314201
 31
0.0
  0
LINE
  5
8703
  8
0
 10
78.3974029516786
 20
198.24368873142009
 30
0.0
 11
80.630402951678661
 21
198.24368873142009
 31
0.0
  0
LINE
  5
8704
  8
0
 10
80.630402951678661
 20
206.24368873142021
 30
0.0
 11
78.3974029516786
 21
206.24368873142021
 31
0.0
  0
LINE
  5
8705
  8
0
 10
77.630402951678661
 20
199.01068873142
 30
0.0
 11
78.3974029516786
 21
198.24368873142009
 31
0.0
  0
LINE
  5
8706
  8
0
 10
78.3974029516786
 20
206.24368873142021
 30
0.0
 11
77.630402951678661
 21
205.4766887314199
 31
0.0
  0
LINE
  5
8707
  8
0
 10
142.9304029516787
 20
208.50202206475339
 30
0.0
 11
142.67098324226311
 21
209.47018960077679
 31
0.0
  0
LINE
  5
8708
  8
0
 10
142.67098324226311
 20
195.017187862063
 30
0.0
 11
142.9304029516787
 21
195.98535539808691
 31
0.0
  0
LINE
  5
870A
  8
0
 10
138.2304029516786
 20
195.98535539808671
 30
0.0
 11
138.48982266109419
 21
195.017187862063
 31
0.0
  0
LINE
  5
870B
  8
0
 10
88.630402951678661
 20
198.24368873142009
 30
0.0
 11
90.630402951678661
 21
198.24368873142009
 31
0.0
  0
LINE
  5
870D
  8
0
 10
90.630402951678661
 20
206.24368873142021
 30
0.0
 11
88.630402951678661
 21
206.24368873142021
 31
0.0
  0
LINE
  5
870E
  8
0
 10
80.630402951678661
 20
196.4286887314201
 30
0.0
 11
83.130402951678661
 21
196.4286887314201
 31
0.0
  0
LINE
  5
870F
  8
0
 10
83.130402951678661
 20
208.0586887314202
 30
0.0
 11
80.630402951678661
 21
208.0586887314202
 31
0.0
  0
LINE
  5
8711
  8
0
 10
88.370983242263165
 20
195.017187862063
 30
0.0
 11
88.630402951678661
 21
195.98535539808691
 31
0.0
  0
LINE
  5
8713
  8
0
 10
83.389822661094385
 20
209.4701896007773
 30
0.0
 11
83.130402951678661
 21
208.50202206475339
 31
0.0
  0
LINE
  5
8714
  8
0
 10
83.130402951678661
 20
195.98535539808691
 30
0.0
 11
83.389822661094158
 21
195.017187862063
 31
0.0
  0
LINE
  5
8716
  8
0
 10
135.6304029516786
 20
198.24368873142009
 30
0.0
 11
137.6304029516786
 21
198.24368873142009
 31
0.0
  0
LINE
  5
8718
  8
0
 10
90.630402951678661
 20
194.74368873142009
 30
0.0
 11
91.130402951678661
 21
194.74368873142009
 31
0.0
  0
LINE
  5
871A
  8
0
 10
94.130402951678647
 20
194.74368873142009
 30
0.0
 11
95.130402951678676
 21
194.74368873142009
 31
0.0
  0
LINE
  5
871C
  8
0
 10
130.1304029516786
 20
194.74368873142009
 30
0.0
 11
131.1304029516786
 21
194.74368873142009
 31
0.0
  0
LINE
  5
871E
  8
0
 10
134.1304029516786
 20
194.74368873142009
 30
0.0
 11
135.6304029516786
 21
194.74368873142009
 31
0.0
  0
LINE
  5
8720
  8
0
 10
131.13040295167829
 20
209.74368873142021
 30
0.0
 11
130.1304029516786
 21
209.74368873142021
 31
0.0
  0
LINE
  5
8722
  8
0
 10
95.130402951678676
 20
209.74368873142021
 30
0.0
 11
94.130402951679017
 21
209.74368873142021
 31
0.0
  0
LINE
  5
8725
  8
0
 10
137.63040295167849
 20
208.0586887314202
 30
0.0
 11
137.6304029516786
 21
196.4286887314201
 31
0.0
  0
LINE
  5
8726
  8
0
 10
78.3974029516786
 20
206.24368873142021
 30
0.0
 11
78.3974029516786
 21
198.24368873142009
 31
0.0
  0
LINE
  5
8727
  8
0
 10
77.630402951678661
 20
205.4766887314199
 30
0.0
 11
77.630402951678661
 21
199.01068873142
 31
0.0
  0
LINE
  5
8728
  8
0
 10
142.9304029516787
 20
208.50202206475339
 30
0.0
 11
142.9304029516787
 21
195.98535539808691
 31
0.0
  0
LINE
  5
872A
  8
0
 10
138.2304029516786
 20
208.50202206475359
 30
0.0
 11
138.2304029516786
 21
195.98535539808691
 31
0.0
  0
POLYLINE
  5
872B
  8
0
 66
     1
 10
0.0
 20
0.0
 30
0.0
  0
VERTEX
  5
142FF
  8
0
 10
142.67098324226311
 20
198.6304382967418
 30
0.0
  0
VERTEX
  5
14300
  8
0
 10
142.75182789552119
 20
198.3058644010693
 30
0.0
  0
VERTEX
  5
14301
  8
0
 10
142.86643823427431
 20
197.69630382229741
 30
0.0
  0
VERTEX
  5
14302
  8
0
 10
142.92321281805869
 20
197.11389565072199
 30
0.0
  0
VERTEX
  5
14303
  8
0
 10
142.9304029516787
 20
196.82381307940241
 30
0.0
  0
SEQEND
  5
14304
  8
0
  0
POLYLINE
  5
872C
  8
0
 66
     1
 10
0.0
 20
0.0
 30
0.0
  0
VERTEX
  5
14305
  8
0
 10
142.9304029516787
 20
196.82381307940241
 30
0.0
  0
VERTEX
  5
14306
  8
0
 10
142.92321281805869
 20
196.5337305080829
 30
0.0
  0
VERTEX
  5
14307
  8
0
 10
142.86643823427431
 20
195.95132233650739
 30
0.0
  0
VERTEX
  5
14308
  8
0
 10
142.75182789552119
 20
195.34176175773561
 30
0.0
  0
VERTEX
  5
14309
  8
0
 10
142.67098324226311
 20
195.017187862063
 30
0.0
  0
SEQEND
  5
1430A
  8
0
  0
POLYLINE
  5
872D
  8
0
 66
     1
 10
0.0
 20
0.0
 30
0.0
  0
VERTEX
  5
1430B
  8
0
 10
138.48982266109419
 20
195.017187862063
 30
0.0
  0
VERTEX
  5
1430C
  8
0
 10
138.408978007836
 20
195.34176175773561
 30
0.0
  0
VERTEX
  5
1430D
  8
0
 10
138.29436766908299
 20
195.95132233650739
 30
0.0
  0
VERTEX
  5
1430E
  8
0
 10
138.2375930852985
 20
196.5337305080829
 30
0.0
  0
VERTEX
  5
1430F
  8
0
 10
138.2304029516786
 20
196.82381307940241
 30
0.0
  0
SEQEND
  5
14310
  8
0
  0
POLYLINE
  5
872E
  8
0
 66
     1
 10
0.0
 20
0.0
 30
0.0
  0
VERTEX
  5
14311
  8
0
 10
138.2304029516786
 20
196.82381307940241
 30
0.0
  0
VERTEX
  5
14312
  8
0
 10
138.2375930852985
 20
197.11389565072199
 30
0.0
  0
VERTEX
  5
14313
  8
0
 10
138.29436766908299
 20
197.69630382229741
 30
0.0
  0
VERTEX
  5
14314
  8
0
 10
138.408978007836
 20
198.3058644010693
 30
0.0
  0
VERTEX
  5
14315
  8
0
 10
138.48982266109419
 20
198.6304382967418
 30
0.0
  0
SEQEND
  5
14316
  8
0
  0
LINE
  5
872F
  8
0
 10
142.67098324226311
 20
195.017187862063
 30
0.0
 11
138.48982266109419
 21
195.017187862063
 31
0.0
  0
POLYLINE
  5
8739
  8
0
 66
     1
 10
0.0
 20
0.0
 30
0.0
  0
VERTEX
  5
14317
  8
0
 10
142.67098324226311
 20
209.47018960077679
 30
0.0
  0
VERTEX
  5
14318
  8
0
 10
142.75182789552139
 20
209.14561570510469
 30
0.0
  0
VERTEX
  5
14319
  8
0
 10
142.86643823427431
 20
208.53605512633291
 30
0.0
  0
VERTEX
  5
1431A
  8
0
 10
142.92321281805869
 20
207.95364695475689
 30
0.0
  0
VERTEX
  5
1431B
  8
0
 10
142.9304029516787
 20
207.66356438343789
 30
0.0
  0
SEQEND
  5
1431C
  8
0
  0
POLYLINE
  5
873A
  8
0
 66
     1
 10
0.0
 20
0.0
 30
0.0
  0
VERTEX
  5
1431D
  8
0
 10
142.9304029516787
 20
207.66356438343789
 30
0.0
  0
VERTEX
  5
1431E
  8
0
 10
142.92321281805869
 20
207.37348181211831
 30
0.0
  0
VERTEX
  5
1431F
  8
0
 10
142.86643823427431
 20
206.79107364054241
 30
0.0
  0
VERTEX
  5
14320
  8
0
 10
142.75182789552119
 20
206.18151306177049
 30
0.0
  0
VERTEX
  5
14321
  8
0
 10
142.67098324226311
 20
205.8569391660985
 30
0.0
  0
SEQEND
  5
14322
  8
0
  0
LINE
  5
8743
  8
0
 10
142.67098324226311
 20
205.8569391660985
 30
0.0
 11
138.48982266109419
 21
205.8569391660985
 31
0.0
  0
POLYLINE
  5
8745
  8
0
 66
     1
 10
0.0
 20
0.0
 30
0.0
  0
VERTEX
  5
14323
  8
0
 10
142.67098324226311
 20
205.8569391660985
 30
0.0
  0
VERTEX
  5
14324
  8
0
 10
142.75182789552119
 20
205.2077913747539
 30
0.0
  0
VERTEX
  5
14325
  8
0
 10
142.86643823427431
 20
203.9886702172102
 30
0.0
  0
VERTEX
  5
14326
  8
0
 10
142.92321281805869
 20
202.82385387405901
 30
0.0
  0
VERTEX
  5
14327
  8
0
 10
142.9304029516787
 20
202.24368873142021
 30
0.0
  0
SEQEND
  5
14328
  8
0
  0
POLYLINE
  5
8746
  8
0
 66
     1
 10
0.0
 20
0.0
 30
0.0
  0
VERTEX
  5
14329
  8
0
 10
142.9304029516787
 20
202.24368873142021
 30
0.0
  0
VERTEX
  5
1432A
  8
0
 10
142.92321281805869
 20
201.66352358878109
 30
0.0
  0
VERTEX
  5
1432B
  8
0
 10
142.86643823427431
 20
200.49870724562959
 30
0.0
  0
VERTEX
  5
1432C
  8
0
 10
142.75182789552119
 20
199.27958608808601
 30
0.0
  0
VERTEX
  5
1432D
  8
0
 10
142.67098324226311
 20
198.6304382967418
 30
0.0
  0
SEQEND
  5
1432E
  8
0
  0
LINE
  5
8747
  8
0
 10
142.67098324226311
 20
198.6304382967418
 30
0.0
 11
138.48982266109419
 21
198.6304382967418
 31
0.0
  0
LINE
  5
874A
  8
0
 10
80.630402951678661
 20
208.0586887314202
 30
0.0
 11
80.630402951678661
 21
196.4286887314201
 31
0.0
  0
LINE
  5
874B
  8
0
 10
88.630402951678661
 20
208.50202206475339
 30
0.0
 11
88.630402951678661
 21
195.98535539808691
 31
0.0
  0
LINE
  5
874D
  8
0
 10
83.130402951678661
 20
208.50202206475339
 30
0.0
 11
83.130402951678661
 21
195.98535539808691
 31
0.0
  0
POLYLINE
  5
874E
  8
0
 66
     1
 10
0.0
 20
0.0
 30
0.0
  0
VERTEX
  5
1432F
  8
0
 10
88.370983242263165
 20
198.6304382967418
 30
0.0
  0
VERTEX
  5
14330
  8
0
 10
88.451827895521305
 20
198.3058644010693
 30
0.0
  0
VERTEX
  5
14331
  8
0
 10
88.566438234274415
 20
197.69630382229741
 30
0.0
  0
VERTEX
  5
14332
  8
0
 10
88.623212818058747
 20
197.11389565072199
 30
0.0
  0
VERTEX
  5
14333
  8
0
 10
88.630402951678661
 20
196.82381307940241
 30
0.0
  0
SEQEND
  5
14334
  8
0
  0
POLYLINE
  5
874F
  8
0
 66
     1
 10
0.0
 20
0.0
 30
0.0
  0
VERTEX
  5
14335
  8
0
 10
88.630402951678661
 20
196.82381307940241
 30
0.0
  0
VERTEX
  5
14336
  8
0
 10
88.623212818058747
 20
196.5337305080829
 30
0.0
  0
VERTEX
  5
14337
  8
0
 10
88.566438234274415
 20
195.95132233650739
 30
0.0
  0
VERTEX
  5
14338
  8
0
 10
88.451827895521305
 20
195.34176175773561
 30
0.0
  0
VERTEX
  5
14339
  8
0
 10
88.370983242263165
 20
195.017187862063
 30
0.0
  0
SEQEND
  5
1433A
  8
0
  0
POLYLINE
  5
8750
  8
0
 66
     1
 10
0.0
 20
0.0
 30
0.0
  0
VERTEX
  5
1433B
  8
0
 10
83.389822661094158
 20
195.017187862063
 30
0.0
  0
VERTEX
  5
1433C
  8
0
 10
83.308978007836004
 20
195.34176175773561
 30
0.0
  0
VERTEX
  5
1433D
  8
0
 10
83.194367669082908
 20
195.95132233650739
 30
0.0
  0
VERTEX
  5
1433E
  8
0
 10
83.137593085298576
 20
196.5337305080829
 30
0.0
  0
VERTEX
  5
1433F
  8
0
 10
83.130402951678661
 20
196.82381307940241
 30
0.0
  0
SEQEND
  5
14340
  8
0
  0
POLYLINE
  5
8751
  8
0
 66
     1
 10
0.0
 20
0.0
 30
0.0
  0
VERTEX
  5
14341
  8
0
 10
83.130402951678661
 20
196.82381307940241
 30
0.0
  0
VERTEX
  5
14342
  8
0
 10
83.137593085298576
 20
197.11389565072199
 30
0.0
  0
VERTEX
  5
14343
  8
0
 10
83.194367669082908
 20
197.69630382229741
 30
0.0
  0
VERTEX
  5
14344
  8
0
 10
83.308978007836004
 20
198.3058644010693
 30
0.0
  0
VERTEX
  5
14345
  8
0
 10
83.389822661094158
 20
198.6304382967418
 30
0.0
  0
SEQEND
  5
14346
  8
0
  0
LINE
  5
8752
  8
0
 10
88.370983242263165
 20
195.017187862063
 30
0.0
 11
83.389822661094158
 21
195.017187862063
 31
0.0
  0
POLYLINE
  5
875B
  8
0
 66
     1
 10
0.0
 20
0.0
 30
0.0
  0
VERTEX
  5
14347
  8
0
 10
83.130402951678661
 20
207.66356438343789
 30
0.0
  0
VERTEX
  5
14348
  8
0
 10
83.136141333408091
 20
207.92265641653049
 30
0.0
  0
VERTEX
  5
14349
  8
0
 10
83.181434241475813
 20
208.4413959833191
 30
0.0
  0
VERTEX
  5
1434A
  8
0
 10
83.272342672088698
 20
208.9780050221793
 30
0.0
  0
VERTEX
  5
1434B
  8
0
 10
83.389822661094158
 20
209.4701896007773
 30
0.0
  0
SEQEND
  5
1434C
  8
0
  0
POLYLINE
  5
875F
  8
0
 66
     1
 10
0.0
 20
0.0
 30
0.0
  0
VERTEX
  5
1434D
  8
0
 10
83.389822661094158
 20
205.8569391660985
 30
0.0
  0
VERTEX
  5
1434E
  8
0
 10
83.308978007836004
 20
206.18151306177049
 30
0.0
  0
VERTEX
  5
1434F
  8
0
 10
83.194367669082908
 20
206.79107364054241
 30
0.0
  0
VERTEX
  5
14350
  8
0
 10
83.137593085298576
 20
207.37348181211831
 30
0.0
  0
VERTEX
  5
14351
  8
0
 10
83.130402951678661
 20
207.66356438343789
 30
0.0
  0
SEQEND
  5
14352
  8
0
  0
POLYLINE
  5
8765
  8
0
 66
     1
 10
0.0
 20
0.0
 30
0.0
  0
VERTEX
  5
14353
  8
0
 10
83.130402951678661
 20
202.24368873142021
 30
0.0
  0
VERTEX
  5
14354
  8
0
 10
83.137593085298576
 20
202.82385387405901
 30
0.0
  0
VERTEX
  5
14355
  8
0
 10
83.194367669082908
 20
203.9886702172102
 30
0.0
  0
VERTEX
  5
14356
  8
0
 10
83.308978007836004
 20
205.2077913747539
 30
0.0
  0
VERTEX
  5
14357
  8
0
 10
83.389822661094158
 20
205.8569391660985
 30
0.0
  0
SEQEND
  5
14358
  8
0
  0
LINE
  5
876B
  8
0
 10
88.370983242263165
 20
198.6304382967418
 30
0.0
 11
83.389822661094158
 21
198.6304382967418
 31
0.0
  0
POLYLINE
  5
876C
  8
0
 66
     1
 10
0.0
 20
0.0
 30
0.0
  0
VERTEX
  5
14359
  8
0
 10
83.389822661094158
 20
198.6304382967418
 30
0.0
  0
VERTEX
  5
1435A
  8
0
 10
83.308978007836004
 20
199.27958608808601
 30
0.0
  0
VERTEX
  5
1435B
  8
0
 10
83.194367669082908
 20
200.49870724562959
 30
0.0
  0
VERTEX
  5
1435C
  8
0
 10
83.137593085298576
 20
201.66352358878109
 30
0.0
  0
VERTEX
  5
1435D
  8
0
 10
83.130402951678661
 20
202.24368873142021
 30
0.0
  0
SEQEND
  5
1435E
  8
0
  0
LINE
  5
876E
  8
0
 10
135.6304029516786
 20
209.74368873142021
 30
0.0
 11
135.6304029516786
 21
194.74368873142009
 31
0.0
  0
LINE
  5
8770
  8
0
 10
90.630402951678661
 20
209.74368873142021
 30
0.0
 11
90.630402951678661
 21
194.74368873142009
 31
0.0
  0
LINE
  5
8771
  8
3
 10
77.630402951678661
 20
205.4766887314199
 30
0.0
 11
80.630402951678661
 21
205.4766887314201
 31
0.0
  0
ARC
  5
8796
  8
0
 10
128.1304029516786
 20
260.7244548002738
 30
0.0
 40
2.0000000000000031
 50
0.0
 51
75.155395552896962
  0
ARC
  5
8797
  8
0
 10
128.1304029516786
 20
143.76292266256621
 30
0.0
 40
2.0000000000000129
 50
284.84460444710299
 51
0.0
  0
ARC
  5
8798
  8
0
 10
112.6304029516786
 20
202.24368873142021
 30
0.0
 40
62.499999999999901
 50
255.15539555289689
 51
284.84460444710299
  0
ARC
  5
8799
  8
0
 10
112.6304029516786
 20
202.24368873142021
 30
0.0
 40
62.500000000000092
 50
75.155395552896962
 51
104.84460444710299
  0
ARC
  5
879A
  8
0
 10
97.130402951678661
 20
260.7244548002738
 30
0.0
 40
1.9999999999999969
 50
104.84460444710299
 51
180.0
  0
ARC
  5
879B
  8
0
 10
97.130402951678661
 20
143.76292266256621
 30
0.0
 40
1.9999999999999889
 50
180.0
 51
255.15539555289689
  0
LINE
  5
87A6
  8
0
 10
130.1304029516786
 20
260.72445480027397
 30
0.0
 11
130.1304029516786
 21
143.76292266256621
 31
0.0
  0
LINE
  5
87A8
  8
0
 10
95.130402951678676
 20
260.72445480027397
 30
0.0
 11
95.130402951678676
 21
143.76292266256621
 31
0.0
  0
LINE
  5
87AE
  8
0
 10
390.70231598404752
 20
292.44368873142002
 30
0.0
 11
390.70231598404752
 21
293.24368873142021
 31
0.0
  0
LINE
  5
87AF
  8
0
 10
321.10231598404749
 20
293.24368873142021
 30
0.0
 11
321.10231598404749
 21
292.44368873142002
 31
0.0
  0
LINE
  5
87B0
  8
0
 10
390.40353664802558
 20
283.94368873141991
 30
0.0
 11
391.9023159840475
 21
292.44368873142002
 31
0.0
  0
LINE
  5
87B1
  8
0
 10
319.9023159840475
 20
292.44368873142002
 30
0.0
 11
321.40109532006937
 21
283.94368873141991
 31
0.0
  0
LINE
  5
87B2
  8
0
 10
388.9023159840475
 20
278.24368873142009
 30
0.0
 11
388.9023159840475
 21
283.94368873141991
 31
0.0
  0
LINE
  5
87B3
  8
0
 10
322.9023159840475
 20
283.94368873141991
 30
0.0
 11
322.9023159840475
 21
281.94368873142002
 31
0.0
  0
LINE
  5
87B4
  8
0
 10
405.90231598404739
 20
295.74368873142021
 30
0.0
 11
405.90231598404739
 21
293.24368873142021
 31
0.0
  0
LINE
  5
87B6
  8
0
 10
305.9023159840475
 20
295.74368873142021
 30
0.0
 11
305.9023159840475
 21
293.24368873142021
 31
0.0
  0
LINE
  5
87B7
  8
0
 10
305.9023159840475
 20
295.74368873142021
 30
0.0
 11
405.90231598404739
 21
295.74368873142021
 31
0.0
  0
LINE
  5
87B9
  8
0
 10
305.9023159840475
 20
293.24368873142021
 30
0.0
 11
405.90231598404739
 21
293.24368873142021
 31
0.0
  0
LINE
  5
87BA
  8
0
 10
319.9023159840475
 20
292.44368873142002
 30
0.0
 11
391.9023159840475
 21
292.44368873142002
 31
0.0
  0
LINE
  5
87BB
  8
0
 10
321.40109532006937
 20
283.94368873141991
 30
0.0
 11
390.40353664802558
 21
283.94368873141991
 31
0.0
  0
LINE
  5
87BC
  8
0
 10
330.86734044980727
 20
281.94368873142002
 30
0.0
 11
310.9023159840475
 21
281.94368873142002
 31
0.0
  0
LINE
  5
87BD
  8
0
 10
330.86734044980727
 20
281.94368873142002
 30
0.0
 11
330.86734044980727
 21
195.37204995221231
 31
0.0
  0
LINE
  5
87BE
  8
0
 10
310.9023159840475
 20
281.94368873142002
 30
0.0
 11
310.9023159840475
 21
278.24368873142009
 31
0.0
  0
LINE
  5
87BF
  8
0
 10
310.9023159840475
 20
278.24368873142009
 30
0.0
 11
304.24140119739963
 21
203.12696479989461
 31
0.0
  0
LINE
  5
87C0
  8
0
 10
314.20231598404752
 20
192.24368873142009
 30
0.0
 11
323.60231598404749
 21
192.24368873142009
 31
0.0
  0
ARC
  5
87C1
  8
0
 10
323.60231598404749
 20
202.24368873142021
 30
0.0
 40
9.9999999999999964
 50
270.0
 51
316.59397758948558
  0
POLYLINE
  5
87C2
  8
0
 66
     1
 10
0.0
 20
0.0
 30
0.0
  0
VERTEX
  5
1435F
  8
0
 10
330.86734044980727
 20
195.37204995221231
 30
0.0
  0
VERTEX
  5
14360
  8
0
 10
331.02683342623772
 20
195.54469322831571
 30
0.0
  0
VERTEX
  5
14361
  8
0
 10
331.34234104588239
 20
195.91186339885039
 30
0.0
  0
VERTEX
  5
14362
  8
0
 10
331.64997616743688
 20
196.3077671035102
 30
0.0
  0
VERTEX
  5
14363
  8
0
 10
331.79965286050981
 20
196.51624007309141
 30
0.0
  0
SEQEND
  5
14364
  8
0
  0
ARC
  5
87C3
  8
0
 10
314.20231598404752
 20
202.24368873142021
 30
0.0
 40
10.000000000000011
 50
174.93259717391371
 51
270.0
  0
LINE
  5
87C7
  8
1
 10
355.9023159840475
 20
304.01020722943713
 30
0.0
 11
355.9023159840475
 21
244.6190420720902
 31
0.0
  0
ARC
  5
87DB
  8
0
 10
318.9023159840475
 20
202.24368873142021
 30
0.0
 40
62.499999999999957
 50
98.518683704570833
 51
42.252533922179651
  0
ARC
  5
87DC
  8
0
 10
318.9023159840475
 20
202.24368873142021
 30
0.0
 40
51.897929133429727
 50
101.3656208277112
 51
39.576897589302533
  0
ARC
  5
87E0
  8
0
 10
318.9023159840475
 20
202.24368873142021
 30
0.0
 40
20.033056072867549
 50
132.06015359464129
 51
11.241308766668279
  0
ARC
  5
87E1
  8
0
 10
318.9023159840475
 20
202.24368873142021
 30
0.0
 40
58.480766068853789
 50
99.472285677929122
 51
41.355852469076773
  0
LINE
  5
87E4
  8
1
 10
318.9023159840475
 20
128.01527732418089
 30
0.0
 11
318.9023159840475
 21
276.47210013865902
 31
0.0
  0
LINE
  5
87E8
  8
0
 10
331.79965286050981
 20
196.51624007309141
 30
0.0
 11
388.9023159840475
 21
278.24368873142009
 31
0.0
  0
LINE
  5
896F
  8
1
 10
402.76081126706168
 20
404.77251748446031
 30
0.0
 11
389.04382070103333
 21
404.77251748446031
 31
0.0
  0
LINE
  5
8970
  8
1
 10
395.9023159840475
 20
397.91402220144619
 30
0.0
 11
395.9023159840475
 21
411.63101276747449
 31
0.0
  0
LINE
  5
8971
  8
1
 10
400.26081126706168
 20
412.27251748446031
 30
0.0
 11
386.54382070103333
 21
412.27251748446031
 31
0.0
  0
LINE
  5
8972
  8
1
 10
393.4023159840475
 20
405.41402220144607
 30
0.0
 11
393.4023159840475
 21
419.13101276747409
 31
0.0
  0
LINE
  5
8973
  8
1
 10
325.2608112670618
 20
412.27251748446031
 30
0.0
 11
311.54382070103338
 21
412.27251748446031
 31
0.0
  0
LINE
  5
8974
  8
1
 10
318.4023159840475
 20
405.41402220144607
 30
0.0
 11
318.4023159840475
 21
419.13101276747409
 31
0.0
  0
LINE
  5
8975
  8
1
 10
322.76081126706163
 20
404.77251748446031
 30
0.0
 11
309.04382070103338
 21
404.77251748446031
 31
0.0
  0
LINE
  5
8976
  8
1
 10
315.9023159840475
 20
397.91402220144619
 30
0.0
 11
315.9023159840475
 21
411.63101276747409
 31
0.0
  0
LINE
  5
8977
  8
1
 10
402.76081126706168
 20
464.77251748445991
 30
0.0
 11
389.04382070103333
 21
464.77251748445991
 31
0.0
  0
LINE
  5
8978
  8
1
 10
395.9023159840475
 20
471.63101276747409
 30
0.0
 11
395.9023159840475
 21
457.91402220144568
 31
0.0
  0
LINE
  5
8979
  8
1
 10
400.26081126706168
 20
457.27251748445991
 30
0.0
 11
386.54382070103333
 21
457.27251748445991
 31
0.0
  0
LINE
  5
897A
  8
1
 10
393.4023159840475
 20
464.13101276747409
 30
0.0
 11
393.4023159840475
 21
450.41402220144607
 31
0.0
  0
LINE
  5
897B
  8
1
 10
325.2608112670618
 20
457.27251748445991
 30
0.0
 11
311.54382070103338
 21
457.27251748445991
 31
0.0
  0
LINE
  5
897C
  8
1
 10
318.4023159840475
 20
464.13101276747409
 30
0.0
 11
318.4023159840475
 21
450.41402220144607
 31
0.0
  0
LINE
  5
897D
  8
1
 10
322.76081126706163
 20
464.77251748445991
 30
0.0
 11
309.04382070103338
 21
464.77251748445991
 31
0.0
  0
LINE
  5
897E
  8
1
 10
315.9023159840475
 20
471.63101276747409
 30
0.0
 11
315.9023159840475
 21
457.91402220144607
 31
0.0
  0
LINE
  5
8986
  8
0
 10
325.16064931738077
 20
205.8569391660985
 30
0.0
 11
325.16064931738077
 21
198.6304382967414
 31
0.0
  0
LINE
  5
8987
  8
0
 10
312.64398265071418
 20
205.8569391660985
 30
0.0
 11
312.64398265071418
 21
198.6304382967414
 31
0.0
  0
LINE
  5
8988
  8
0
 10
325.16064931738077
 20
198.6304382967414
 30
0.0
 11
318.9023159840475
 21
195.017187862063
 31
0.0
  0
LINE
  5
8989
  8
0
 10
312.64398265071418
 20
198.6304382967414
 30
0.0
 11
318.9023159840475
 21
195.017187862063
 31
0.0
  0
LINE
  5
898A
  8
0
 10
325.16064931738077
 20
205.8569391660989
 30
0.0
 11
318.9023159840475
 21
209.4701896007773
 31
0.0
  0
LINE
  5
898B
  8
0
 10
312.64398265071418
 20
205.8569391660989
 30
0.0
 11
318.9023159840475
 21
209.4701896007773
 31
0.0
  0
CIRCLE
  5
898C
  8
0
 10
318.90231598404802
 20
202.24368873141989
 30
0.0
 40
6.2583333333333311
  0
LINE
  5
89CE
  8
1
 10
318.90231598404739
 20
483.36311804212522
 30
0.0
 11
318.90231598404739
 21
386.181916926795
 31
0.0
  0
POLYLINE
  5
8A12
  8
0
 66
     1
 10
0.0
 20
0.0
 30
0.0
  0
VERTEX
  5
14365
  8
0
 10
590.37739324007691
 20
195.37204995221231
 30
0.0
  0
VERTEX
  5
14366
  8
0
 10
590.46275123890268
 20
195.45066333119749
 30
0.0
  0
VERTEX
  5
14367
  8
0
 10
590.63112805668436
 20
195.6125501494661
 30
0.0
  0
VERTEX
  5
14368
  8
0
 10
590.79610137375164
 20
195.780629053486
 30
0.0
  0
VERTEX
  5
14369
  8
0
 10
590.87720897051224
 20
195.86697766700689
 30
0.0
  0
VERTEX
  5
1436A
  8
0
 10
590.97094618786934
 20
195.97003435694651
 30
0.0
  0
VERTEX
  5
1436B
  8
0
 10
591.15418284126565
 20
196.18238403049409
 30
0.0
  0
VERTEX
  5
1436C
  8
0
 10
591.3313962349207
 20
196.4029354889812
 30
0.0
  0
VERTEX
  5
1436D
  8
0
 10
591.41761574015993
 20
196.51624007309121
 30
0.0
  0
VERTEX
  5
1436E
  8
0
 10
591.62613019394132
 20
196.7977675750314
 30
0.0
  0
VERTEX
  5
1436F
  8
0
 10
592.03799400842092
 20
197.36854619911259
 30
0.0
  0
VERTEX
  5
14370
  8
0
 10
592.44286766107689
 20
197.94947910358309
 30
0.0
  0
VERTEX
  5
14371
  8
0
 10
592.64264490705307
 20
198.2436987377109
 30
0.0
  0
VERTEX
  5
14372
  8
0
 10
592.68031065739422
 20
198.29974703101169
 30
0.0
  0
VERTEX
  5
14373
  8
0
 10
592.75544846748642
 20
198.4121095205646
 30
0.0
  0
VERTEX
  5
14374
  8
0
 10
592.83032734475694
 20
198.52482553160721
 30
0.0
  0
VERTEX
  5
14375
  8
0
 10
592.86766942972918
 20
198.58131572587121
 30
0.0
  0
VERTEX
  5
14376
  8
0
 10
593.04205748046149
 20
198.84761484309419
 30
0.0
  0
VERTEX
  5
14377
  8
0
 10
593.38649422909589
 20
199.3859593663268
 30
0.0
  0
VERTEX
  5
14378
  8
0
 10
593.72507675834186
 20
199.93185826070331
 30
0.0
  0
VERTEX
  5
14379
  8
0
 10
593.89214736257725
 20
200.20759991893689
 30
0.0
  0
VERTEX
  5
1437A
  8
0
 10
594.05772419471452
 20
200.48518113335871
 30
0.0
  0
VERTEX
  5
1437B
  8
0
 10
594.38435708237932
 20
201.04579581814431
 30
0.0
  0
VERTEX
  5
1437C
  8
0
 10
594.70489740213065
 20
201.61356840719611
 30
0.0
  0
VERTEX
  5
1437D
  8
0
 10
595.77771750203453
 20
203.65516793949041
 30
0.0
  0
VERTEX
  5
1437E
  8
0
 10
597.43213490503626
 20
207.33781887283789
 30
0.0
  0
VERTEX
  5
1437F
  8
0
 10
598.16813768538384
 20
209.25748301960189
 30
0.0
  0
VERTEX
  5
14380
  8
0
 10
598.36766196168344
 20
209.81682630795621
 30
0.0
  0
VERTEX
  5
14381
  8
0
 10
598.75103386820786
 20
210.94665617374099
 30
0.0
  0
VERTEX
  5
14382
  8
0
 10
599.11327918922188
 20
212.0906768268469
 30
0.0
  0
VERTEX
  5
14383
  8
0
 10
599.28639873550094
 20
212.6677562471379
 30
0.0
  0
VERTEX
  5
14384
  8
0
 10
599.45414174547886
 20
213.24807921790261
 30
0.0
  0
VERTEX
  5
14385
  8
0
 10
599.77338047958563
 20
214.41804483399659
 30
0.0
  0
VERTEX
  5
14386
  8
0
 10
600.07076962647704
 20
215.5997462775257
 30
0.0
  0
VERTEX
  5
14387
  8
0
 10
600.34609887307749
 20
216.7923478513321
 30
0.0
  0
VERTEX
  5
14388
  8
0
 10
600.59917350703358
 20
217.9950061497033
 30
0.0
  0
VERTEX
  5
14389
  8
0
 10
600.82981455441461
 20
219.20687065483091
 30
0.0
  0
VERTEX
  5
1438A
  8
0
 10
600.93667088863833
 20
219.81598765132409
 30
0.0
  0
VERTEX
  5
1438B
  8
0
 10
601.03785890628171
 20
220.4270843382923
 30
0.0
  0
VERTEX
  5
1438C
  8
0
 10
601.22315943403953
 20
221.65478426714111
 30
0.0
  0
VERTEX
  5
1438D
  8
0
 10
601.38558509348434
 20
222.88910221417191
 30
0.0
  0
VERTEX
  5
1438E
  8
0
 10
601.52502101747905
 20
224.1291652719278
 30
0.0
  0
VERTEX
  5
1438F
  8
0
 10
601.64136859718622
 20
225.3740964700205
 30
0.0
  0
VERTEX
  5
14390
  8
0
 10
601.73454555180388
 20
226.62301539532149
 30
0.0
  0
VERTEX
  5
14391
  8
0
 10
601.77242381120868
 20
227.24869433837961
 30
0.0
  0
VERTEX
  5
14392
  8
0
 10
601.80448598675616
 20
227.87503881458829
 30
0.0
  0
VERTEX
  5
14393
  8
0
 10
601.85114044029172
 20
229.1292812990859
 30
0.0
  0
VERTEX
  5
14394
  8
0
 10
601.87447591846365
 20
230.3848558507608
 30
0.0
  0
VERTEX
  5
14395
  8
0
 10
601.87739324007691
 20
231.01286519014201
 30
0.0
  0
SEQEND
  5
14396
  8
0
  0
LINE
  5
8A16
  8
0
 10
547.37739324007691
 20
195.37204995221231
 30
0.0
 11
547.37739324007691
 21
192.24368873141989
 31
0.0
  0
LINE
  5
8A8F
  8
0
 10
88.370983242263165
 20
209.4701896007773
 30
0.0
 11
83.389822661094158
 21
209.4701896007773
 31
0.0
  0
LINE
  5
8A90
  8
0
 10
88.370983242263165
 20
209.4701896007773
 30
0.0
 11
88.630402951678661
 21
208.50202206475339
 31
0.0
  0
LINE
  5
8B33
  8
3
 10
77.630402951678661
 20
199.0106887314204
 30
0.0
 11
80.630402951678661
 21
199.0106887314204
 31
0.0
  0
LINE
  5
8B34
  8
0
 10
88.370983242263165
 20
205.8569391660985
 30
0.0
 11
83.389822661094158
 21
205.8569391660985
 31
0.0
  0
POLYLINE
  5
8B35
  8
0
 66
     1
 10
0.0
 20
0.0
 30
0.0
  0
VERTEX
  5
14397
  8
0
 10
88.370983242263165
 20
205.8569391660985
 30
0.0
  0
VERTEX
  5
14398
  8
0
 10
88.451827895521305
 20
206.181513061771
 30
0.0
  0
VERTEX
  5
14399
  8
0
 10
88.566438234274415
 20
206.79107364054281
 30
0.0
  0
VERTEX
  5
1439A
  8
0
 10
88.623212818058747
 20
207.37348181211831
 30
0.0
  0
VERTEX
  5
1439B
  8
0
 10
88.630402951678661
 20
207.66356438343789
 30
0.0
  0
SEQEND
  5
1439C
  8
0
  0
POLYLINE
  5
8B36
  8
0
 66
     1
 10
0.0
 20
0.0
 30
0.0
  0
VERTEX
  5
1439D
  8
0
 10
88.630402951678661
 20
207.66356438343789
 30
0.0
  0
VERTEX
  5
1439E
  8
0
 10
88.623212818058747
 20
207.9536469547574
 30
0.0
  0
VERTEX
  5
1439F
  8
0
 10
88.566438234274415
 20
208.53605512633291
 30
0.0
  0
VERTEX
  5
143A0
  8
0
 10
88.451827895521305
 20
209.14561570510469
 30
0.0
  0
VERTEX
  5
143A1
  8
0
 10
88.370983242263165
 20
209.4701896007773
 30
0.0
  0
SEQEND
  5
143A2
  8
0
  0
POLYLINE
  5
8B38
  8
0
 66
     1
 10
0.0
 20
0.0
 30
0.0
  0
VERTEX
  5
143A3
  8
0
 10
88.370983242263165
 20
205.8569391660985
 30
0.0
  0
VERTEX
  5
143A4
  8
0
 10
88.451827895521305
 20
205.20779137475409
 30
0.0
  0
VERTEX
  5
143A5
  8
0
 10
88.566438234274415
 20
203.9886702172104
 30
0.0
  0
VERTEX
  5
143A6
  8
0
 10
88.623212818058747
 20
202.82385387405901
 30
0.0
  0
VERTEX
  5
143A7
  8
0
 10
88.630402951678661
 20
202.24368873141989
 30
0.0
  0
SEQEND
  5
143A8
  8
0
  0
POLYLINE
  5
8B3A
  8
0
 66
     1
 10
0.0
 20
0.0
 30
0.0
  0
VERTEX
  5
143A9
  8
0
 10
88.370983242263165
 20
198.6304382967418
 30
0.0
  0
VERTEX
  5
143AA
  8
0
 10
88.451827895521305
 20
199.27958608808621
 30
0.0
  0
VERTEX
  5
143AB
  8
0
 10
88.566438234274415
 20
200.4987072456299
 30
0.0
  0
VERTEX
  5
143AC
  8
0
 10
88.623212818058747
 20
201.66352358878129
 30
0.0
  0
VERTEX
  5
143AD
  8
0
 10
88.630402951678661
 20
202.24368873142041
 30
0.0
  0
SEQEND
  5
143AE
  8
0
  0
POLYLINE
  5
8B3B
  8
0
 66
     1
 10
0.0
 20
0.0
 30
0.0
  0
VERTEX
  5
143AF
  8
0
 10
83.335991751161615
 20
209.26928990989029
 30
0.0
  0
VERTEX
  5
143B0
  8
0
 10
83.324327201534857
 20
209.29981829406799
 30
0.0
  0
VERTEX
  5
143B1
  8
0
 10
82.664712438086895
 20
211.22980369505191
 30
0.0
  0
VERTEX
  5
143B2
  8
0
 10
82.358077780800727
 20
212.21040085288311
 30
0.0
  0
VERTEX
  5
143B3
  8
0
 10
82.067105814559909
 20
213.20072627533091
 30
0.0
  0
VERTEX
  5
143B4
  8
0
 10
81.53274396106292
 20
215.20850759582839
 30
0.0
  0
VERTEX
  5
143B5
  8
0
 10
81.062732635014186
 20
217.24899294551
 30
0.0
  0
VERTEX
  5
143B6
  8
0
 10
80.658044432992597
 20
219.31795993874351
 30
0.0
  0
VERTEX
  5
143B7
  8
0
 10
80.319516778138222
 20
221.4111272527027
 30
0.0
  0
VERTEX
  5
143B8
  8
0
 10
80.047850187270001
 20
223.52416348672679
 30
0.0
  0
VERTEX
  5
143B9
  8
0
 10
79.937270904421098
 20
224.5867673968072
 30
0.0
  0
VERTEX
  5
143BA
  8
0
 10
79.843606821302387
 20
225.65269612530889
 30
0.0
  0
VERTEX
  5
143BB
  8
0
 10
79.707209321962964
 20
227.79232058616071
 30
0.0
  0
VERTEX
  5
143BC
  8
0
 10
79.638939937218879
 20
229.93860933463611
 30
0.0
  0
VERTEX
  5
143BD
  8
0
 10
79.630402951678661
 20
231.01286519014221
 30
0.0
  0
SEQEND
  5
143BE
  8
0
  0
LINE
  5
8B3C
  8
0
 10
90.630402951678661
 20
209.74368873142021
 30
0.0
 11
91.130402951678661
 21
209.74368873142021
 31
0.0
  0
LINE
  5
8B3D
  8
0
 10
137.6304029516786
 20
208.0586887314202
 30
0.0
 11
138.2304029516786
 21
208.0586887314202
 31
0.0
  0
LINE
  5
8B3E
  8
0
 10
138.2304029516786
 20
208.50202206475359
 30
0.0
 11
138.48982266109419
 21
209.4701896007773
 31
0.0
  0
POLYLINE
  5
8B3F
  8
0
 66
     1
 10
0.0
 20
0.0
 30
0.0
  0
VERTEX
  5
143BF
  8
0
 10
138.48982266109419
 20
209.4701896007773
 30
0.0
  0
VERTEX
  5
143C0
  8
0
 10
138.408978007836
 20
209.14561570510469
 30
0.0
  0
VERTEX
  5
143C1
  8
0
 10
138.29436766908299
 20
208.53605512633291
 30
0.0
  0
VERTEX
  5
143C2
  8
0
 10
138.2375930852985
 20
207.9536469547574
 30
0.0
  0
VERTEX
  5
143C3
  8
0
 10
138.2304029516786
 20
207.66356438343789
 30
0.0
  0
SEQEND
  5
143C4
  8
0
  0
POLYLINE
  5
8B40
  8
0
 66
     1
 10
0.0
 20
0.0
 30
0.0
  0
VERTEX
  5
143C5
  8
0
 10
138.2304029516786
 20
207.66356438343789
 30
0.0
  0
VERTEX
  5
143C6
  8
0
 10
138.2375930852985
 20
207.37348181211831
 30
0.0
  0
VERTEX
  5
143C7
  8
0
 10
138.29436766908299
 20
206.79107364054281
 30
0.0
  0
VERTEX
  5
143C8
  8
0
 10
138.408978007836
 20
206.181513061771
 30
0.0
  0
VERTEX
  5
143C9
  8
0
 10
138.48982266109419
 20
205.8569391660985
 30
0.0
  0
SEQEND
  5
143CA
  8
0
  0
LINE
  5
8B41
  8
0
 10
142.67098324226311
 20
209.4701896007773
 30
0.0
 11
138.48982266109419
 21
209.4701896007773
 31
0.0
  0
LINE
  5
8B42
  8
0
 10
134.1304029516786
 20
209.74368873142021
 30
0.0
 11
135.6304029516786
 21
209.74368873142021
 31
0.0
  0
LINE
  5
8B43
  8
0
 10
135.6304029516786
 20
206.24368873142021
 30
0.0
 11
137.6304029516786
 21
206.24368873142021
 31
0.0
  0
POLYLINE
  5
8B44
  8
0
 66
     1
 10
0.0
 20
0.0
 30
0.0
  0
VERTEX
  5
143CB
  8
0
 10
136.3847292763499
 20
198.24368873142009
 30
0.0
  0
VERTEX
  5
143CC
  8
0
 10
135.7130047389777
 20
197.25892077596831
 30
0.0
  0
VERTEX
  5
143CD
  8
0
 10
135.6304029516786
 20
197.14581403517619
 30
0.0
  0
SEQEND
  5
143CE
  8
0
  0
POLYLINE
  5
8B45
  8
0
 66
     1
 10
0.0
 20
0.0
 30
0.0
  0
VERTEX
  5
143CF
  8
0
 10
138.2304029516786
 20
202.24368873142021
 30
0.0
  0
VERTEX
  5
143D0
  8
0
 10
138.2375930852985
 20
202.8238538740593
 30
0.0
  0
VERTEX
  5
143D1
  8
0
 10
138.29436766908299
 20
203.98867021721071
 30
0.0
  0
VERTEX
  5
143D2
  8
0
 10
138.408978007836
 20
205.20779137475429
 30
0.0
  0
VERTEX
  5
143D3
  8
0
 10
138.48982266109419
 20
205.8569391660987
 30
0.0
  0
SEQEND
  5
143D4
  8
0
  0
POLYLINE
  5
8B46
  8
0
 66
     1
 10
0.0
 20
0.0
 30
0.0
  0
VERTEX
  5
143D5
  8
0
 10
138.2304029516786
 20
202.24368873142041
 30
0.0
  0
VERTEX
  5
143D6
  8
0
 10
138.2375930852987
 20
201.66352358878129
 30
0.0
  0
VERTEX
  5
143D7
  8
0
 10
138.2943676690837
 20
200.4987072456299
 30
0.0
  0
VERTEX
  5
143D8
  8
0
 10
138.40897800783711
 20
199.27958608808621
 30
0.0
  0
VERTEX
  5
143D9
  8
0
 10
138.4898226610955
 20
198.6304382967418
 30
0.0
  0
SEQEND
  5
143DA
  8
0
  0
LINE
  5
8C01
  8
1
 10
112.6304029516786
 20
303.380492316691
 30
0.0
 11
112.6304029516786
 21
128.01527732418131
 31
0.0
  0
LINE
  5
8C03
  8
1
 10
154.23943754419651
 20
202.24368873141989
 30
0.0
 11
71.021368359160761
 21
202.24368873141989
 31
0.0
  0
LINE
  5
13F33
  8
3
 10
88.630402951678661
 20
205.4766887314199
 30
0.0
 11
90.630402951678661
 21
205.47668873142001
 31
0.0
  0
LINE
  5
13F34
  8
3
 10
88.630402951678661
 20
199.0106887314204
 30
0.0
 11
90.630402951678661
 21
199.0106887314204
 31
0.0
  0
LINE
  5
13F35
  8
3
 10
135.6304029516786
 20
205.47668873141981
 30
0.0
 11
137.6304029516786
 21
205.47668873142001
 31
0.0
  0
LINE
  5
13F36
  8
3
 10
135.6304029516786
 20
199.0106887314204
 30
0.0
 11
137.6304029516786
 21
199.0106887314204
 31
0.0
  0
TEXT
  5
13FDA
  8
0
 62
     3
 10
0.0
 20
0.0
 30
0.0
 40
10.0
  1
CAG1-125SBL
  7
STANDARD1
  0
ENDSEC
  0
EOF
