  0
SECTION
  2
HEADER
  9
$ACADVER
  1
AC1009
  9
$INSBASE
 10
0.0
 20
0.0
 30
0.0
  9
$EXTMIN
 10
0.0
 20
-2.960436562073669
 30
0.0
  9
$EXTMAX
 10
769.36857370762846
 20
529.65630738896255
 30
0.0
  9
$LIMMIN
 10
0.0
 20
0.0
  9
$LIMMAX
 10
375.0
 20
270.0
  9
$ORTHOMODE
 70
     1
  9
$REGENMODE
 70
     1
  9
$FILLMODE
 70
     1
  9
$QTEXTMODE
 70
     0
  9
$MIRRTEXT
 70
     1
  9
$DRAGMODE
 70
     2
  9
$LTSCALE
 40
10.0
  9
$OSMODE
 70
  3071
  9
$ATTMODE
 70
     1
  9
$TEXTSIZE
 40
5.0
  9
$TRACEWID
 40
0.05
  9
$TEXTSTYLE
  7
STANDARD
  9
$CLAYER
  8
0
  9
$CELTYPE
  6
BYLAYER
  9
$CECOLOR
 62
   256
  9
$DIMSCALE
 40
1.0
  9
$DIMASZ
 40
3.0
  9
$DIMEXO
 40
2.0
  9
$DIMDLI
 40
0.38
  9
$DIMRND
 40
0.0
  9
$DIMDLE
 40
0.0
  9
$DIMEXE
 40
2.0
  9
$DIMTP
 40
0.0
  9
$DIMTM
 40
0.0
  9
$DIMTXT
 40
3.2000000000000002
  9
$DIMCEN
 40
0.0
  9
$DIMTSZ
 40
0.0
  9
$DIMTOL
 70
     0
  9
$DIMLIM
 70
     0
  9
$DIMTIH
 70
     0
  9
$DIMTOH
 70
     0
  9
$DIMSE1
 70
     0
  9
$DIMSE2
 70
     0
  9
$DIMTAD
 70
     1
  9
$DIMZIN
 70
     8
  9
$DIMBLK
  1

  9
$DIMASO
 70
     0
  9
$DIMSHO
 70
     0
  9
$DIMPOST
  1

  9
$DIMAPOST
  1

  9
$DIMALT
 70
     0
  9
$DIMALTD
 70
     2
  9
$DIMALTF
 40
25.399999999999999
  9
$DIMLFAC
 40
1.0
  9
$DIMTOFL
 70
     0
  9
$DIMTVP
 40
1.6000000000000001
  9
$DIMTIX
 70
     1
  9
$DIMSOXD
 70
     0
  9
$DIMSAH
 70
     0
  9
$DIMBLK1
  1

  9
$DIMBLK2
  1

  9
$DIMSTYLE
  2
STANDARD
  9
$DIMCLRD
 70
     0
  9
$DIMCLRE
 70
     0
  9
$DIMCLRT
 70
     0
  9
$DIMTFAC
 40
1.0
  9
$DIMGAP
 40
1.1999999999999991
  9
$LUNITS
 70
     2
  9
$LUPREC
 70
     4
  9
$SKETCHINC
 40
0.1
  9
$FILLETRAD
 40
0.0
  9
$AUNITS
 70
     0
  9
$AUPREC
 70
     4
  9
$MENU
  1
ACAD
  9
$ELEVATION
 40
0.0
  9
$PELEVATION
 40
0.0
  9
$THICKNESS
 40
0.0
  9
$LIMCHECK
 70
     0
  9
$BLIPMODE
 70
     0
  9
$CHAMFERA
 40
0.0
  9
$CHAMFERB
 40
0.0
  9
$SKPOLY
 70
     0
  9
$TDCREATE
 40
2448055.7149187499
  9
$TDUPDATE
 40
2456598.5778394449
  9
$TDINDWG
 40
2.0668915393999998
  9
$TDUSRTIMER
 40
2.0668915393999998
  9
$USRTIMER
 70
     1
  9
$ANGBASE
 50
0.0
  9
$ANGDIR
 70
     0
  9
$PDMODE
 70
     0
  9
$PDSIZE
 40
0.0
  9
$PLINEWID
 40
0.0
  9
$COORDS
 70
     1
  9
$SPLFRAME
 70
     0
  9
$SPLINETYPE
 70
     6
  9
$SPLINESEGS
 70
     8
  9
$ATTDIA
 70
     0
  9
$ATTREQ
 70
     1
  9
$HANDLING
 70
     1
  9
$HANDSEED
  5
1477E
  9
$SURFTAB1
 70
     6
  9
$SURFTAB2
 70
     6
  9
$SURFTYPE
 70
     6
  9
$SURFU
 70
     6
  9
$SURFV
 70
     6
  9
$UCSNAME
  2

  9
$UCSORG
 10
0.0
 20
0.0
 30
0.0
  9
$UCSXDIR
 10
1.0
 20
0.0
 30
0.0
  9
$UCSYDIR
 10
0.0
 20
1.0
 30
0.0
  9
$PUCSNAME
  2

  9
$PUCSORG
 10
0.0
 20
0.0
 30
0.0
  9
$PUCSXDIR
 10
1.0
 20
0.0
 30
0.0
  9
$PUCSYDIR
 10
0.0
 20
1.0
 30
0.0
  9
$USERI1
 70
     0
  9
$USERI2
 70
     0
  9
$USERI3
 70
     0
  9
$USERI4
 70
     0
  9
$USERI5
 70
     0
  9
$USERR1
 40
0.0
  9
$USERR2
 40
0.0
  9
$USERR3
 40
0.0
  9
$USERR4
 40
0.0
  9
$USERR5
 40
0.0
  9
$WORLDVIEW
 70
     1
  9
$SHADEDGE
 70
     3
  9
$SHADEDIF
 70
    70
  9
$TILEMODE
 70
     1
  9
$MAXACTVP
 70
    16
  9
$PLIMCHECK
 70
     0
  9
$PEXTMIN
 10
1.0000000000000000E+020
 20
1.0000000000000000E+020
 30
1.0000000000000000E+020
  9
$PEXTMAX
 10
-1.0000000000000000E+020
 20
-1.0000000000000000E+020
 30
-1.0000000000000000E+020
  9
$PLIMMIN
 10
0.0
 20
0.0
  9
$PLIMMAX
 10
12.0
 20
9.0
  9
$UNITMODE
 70
     0
  9
$VISRETAIN
 70
     0
  9
$PLINEGEN
 70
     1
  9
$PSLTSCALE
 70
     0
  0
ENDSEC
  0
SECTION
  2
TABLES
  0
TABLE
  2
VPORT
 70
     1
  0
VPORT
  2
*ACTIVE
 70
     0
 10
0.0
 20
0.0
 11
1.0
 21
1.0
 12
399.44312723362412
 22
263.35320564467872
 13
0.0
 23
0.0
 14
5.0
 24
5.0
 15
10.0
 25
10.0
 16
0.0
 26
0.0
 36
1.0
 17
0.0
 27
0.0
 37
0.0
 40
537.41556081775946
 41
1.831871345029239
 42
50.0
 43
0.0
 44
0.0
 50
0.0
 51
0.0
 71
     0
 72
   500
 73
     1
 74
     1
 75
     0
 76
     0
 77
     0
 78
     2
  0
ENDTAB
  0
TABLE
  2
LTYPE
 70
     4
  0
LTYPE
  2
CONTINUOUS
 70
     0
  3
実線
 72
    65
 73
     0
 40
0.0
  0
LTYPE
  2
CENTER
 70
     0
  3
____ _ ____ _ ____ _ ____ _ ____ _ ____ _ ____
 72
    65
 73
     4
 40
2.0
 49
1.25
 49
-0.25
 49
0.25
 49
-0.25
  0
LTYPE
  2
HIDDEN
 70
     0
  3
_ _ _ _ _ _ _ _ _ _ _ _ _ _ _ _ _ _ _ _ _ _ _
 72
    65
 73
     2
 40
0.375
 49
0.25
 49
-0.125
  0
LTYPE
  2
PHANTOM2
 70
     0
  3
___ _ _ ___ _ _ ___ _ _ ___ _ _
 72
    65
 73
     6
 40
1.25
 49
0.625
 49
-0.125
 49
0.125
 49
-0.125
 49
0.125
 49
-0.125
  0
ENDTAB
  0
TABLE
  2
LAYER
 70
     5
  0
LAYER
  2
0
 70
     0
 62
     7
  6
CONTINUOUS
  0
LAYER
  2
1
 70
     0
 62
     1
  6
CENTER
  0
LAYER
  2
2
 70
     0
 62
     2
  6
HIDDEN
  0
LAYER
  2
DEFPOINTS
 70
     0
 62
     7
  6
CONTINUOUS
  0
LAYER
  2
3
 70
     0
 62
     3
  6
CONTINUOUS
  0
ENDTAB
  0
TABLE
  2
STYLE
 70
     3
  0
STYLE
  2
STANDARD
 70
     0
 40
0.0
 41
1.0
 50
0.0
 71
     0
 42
5.0
  3
simplex.shx
  4
bigfont.shx
  0
STYLE
  2
07500
 70
     0
 40
0.0
 41
0.75
 50
0.0
 71
     0
 42
0.2
  3
simplex.shx
  4
bigfont.shx
  0
STYLE
  2
STANDARD1
 70
     0
 40
0.0
 41
1.0
 50
0.0
 71
     0
 42
3.0
  3
txt
  4

  0
ENDTAB
  0
TABLE
  2
VIEW
 70
     2
  0
VIEW
  2
ALL
 70
     0
 40
270.0
 10
220.99159663865549
 20
135.0
 41
0.0
 11
0.0
 21
0.0
 31
1.0
 12
0.0
 22
0.0
 32
0.0
 42
0.0
 43
0.0
 44
0.0
 50
0.0
 71
     0
  0
VIEW
  2
OLE1
 70
     0
 40
168.2487151179721
 10
2892.3009567448912
 20
702.51600084347126
 41
162.5749581879237
 11
0.0
 21
0.0
 31
1.0
 12
0.0
 22
0.0
 32
0.0
 42
50.0
 43
0.0
 44
0.0
 50
0.0
 71
     0
  0
ENDTAB
  0
TABLE
  2
UCS
 70
     0
  0
ENDTAB
  0
TABLE
  2
APPID
 70
    48
  0
APPID
  2
ACAD
 70
     0
  0
APPID
  2
DCO15
 70
     0
  0
APPID
  2
GENIUS_GENOREF_13
 70
     0
  0
APPID
  2
GENIUS_GENOENT_13
 70
     0
  0
APPID
  2
GENIUS_GENBH_13
 70
     0
  0
APPID
  2
GENIUS_GENOBJ_13
 70
     0
  0
APPID
  2
GENIUS_GENODEF_13
 70
     0
  0
APPID
  2
GENIUS_GENOLIS_13
 70
     0
  0
APPID
  2
GENIUS_GENOBJ-NBEHI-BHF_13
 70
     0
  0
APPID
  2
GENIUS_GENOBJ-NBEHI-BHB_13
 70
     0
  0
APPID
  2
GENIUS_GENOBJ-F-PART_13
 70
     0
  0
APPID
  2
GENIUS_GEFSTDP_13
 70
     0
  0
APPID
  2
GENIUS_GENOBJ-N-RSSYM_13
 70
     0
  0
APPID
  2
GENIUS_GENSYMENT_13
 70
     0
  0
APPID
  2
GENIUS_GENOBJ-N-TIT_13
 70
     0
  0
APPID
  2
GENIUS_GENTITLE_13
 70
     0
  0
APPID
  2
GENIUS_GENZVEED_13
 70
     0
  0
APPID
  2
GENIUS_GENOBJ-N-LEADER_13
 70
     0
  0
APPID
  2
GENIUS_GENOBJ-N-FIL_13
 70
     0
  0
APPID
  2
GENIUS_GENOBJ-N-SEC_13
 70
     0
  0
APPID
  2
GENIUS_GENOBJ-N-CRS_13
 70
     0
  0
APPID
  2
GENIUS_GENOBJ-N-ZOO_13
 70
     0
  0
APPID
  2
GENIUS_GENZOO_13
 70
     0
  0
APPID
  2
GENIUS_GENOBJ-F-TOL_13
 70
     0
  0
APPID
  2
GENIUS_GENFIL_13
 70
     0
  0
APPID
  2
GENIUS_GENOBJ-N-CHA_13
 70
     0
  0
APPID
  2
_CALL_MAC$
 70
     0
  0
APPID
  2
ASM_BASE
 70
     0
  0
APPID
  2
ASM_EXPLO_VER_2_00
 70
     0
  0
APPID
  2
ASM_CADM_VER_12_00
 70
     0
  0
APPID
  2
ASM_BASEFORO
 70
     0
  0
APPID
  2
ASM_BASETRAVI
 70
     0
  0
APPID
  2
ASM_BASETRAVI1
 70
     0
  0
APPID
  2
ASM_GRUPPI
 70
     0
  0
APPID
  2
ASM_CADM_ALBERO
 70
     0
  0
APPID
  2
ASM_GOLE
 70
     0
  0
APPID
  2
ACAD_MLEADERVER
 70
     0
  0
APPID
  2
ACAD_DSTYLE_DIMJAG
 70
     0
  0
APPID
  2
ACAD_DSTYLE_DIMTALN
 70
     0
  0
APPID
  2
ACAD_EXEMPT_FROM_CAD_STANDARDS
 70
     0
  0
APPID
  2
ACAD_DSTYLE_DIMRADIAL_EXTENSION
 70
     0
  0
APPID
  2
ACAD_PSEXT
 70
     0
  0
APPID
  2
ACAD_DSTYLE_DIMBREAK
 70
     0
  0
APPID
  2
ACAECLAYERSTANDARD
 70
     0
  0
APPID
  2
ACCMTRANSPARENCY
 70
     0
  0
APPID
  2
GRADIENTCOLOR1ACI
 70
     0
  0
APPID
  2
GRADIENTCOLOR2ACI
 70
     0
  0
APPID
  2
ACAD_NAV_VCDISPLAY
 70
     0
  0
ENDTAB
  0
TABLE
  2
DIMSTYLE
 70
     1
  0
DIMSTYLE
  2
STANDARD
 70
     0
  3

  4

  5

  6

  7

 40
1.0
 41
0.18
 42
0.0625
 43
0.38
 44
0.18
 45
0.0
 46
0.0
 47
0.0
 48
0.0
140
0.18
141
0.09
142
0.0
143
25.399999999999999
144
1.0
145
0.0
146
1.0
147
0.09
 71
     0
 72
     0
 73
     1
 74
     1
 75
     0
 76
     0
 77
     0
 78
     0
170
     0
171
     2
172
     0
173
     0
174
     0
175
     0
176
     0
177
     0
178
     0
  0
ENDTAB
  0
ENDSEC
  0
SECTION
  2
BLOCKS
  0
BLOCK
  8
0
  2
$MODEL_SPACE
 70
     0
 10
0.0
 20
0.0
 30
0.0
  3
$MODEL_SPACE
  1

  0
ENDBLK
  5
36
  8
0
  0
BLOCK
 67
     1
  8
0
  2
$PAPER_SPACE
 70
     0
 10
0.0
 20
0.0
 30
0.0
  3
$PAPER_SPACE
  1

  0
ENDBLK
  5
34
 67
     1
  8
0
  0
ENDSEC
  0
SECTION
  2
ENTITIES
  0
LINE
  5
E7E8
  8
0
 10
475.98428809197088
 20
264.22272068512922
 30
0.0
 11
475.98428809197088
 21
267.52272068512889
 31
0.0
  0
LINE
  5
E7E9
  8
0
 10
450.48428809197088
 20
267.52272068512889
 30
0.0
 11
450.48428809197088
 21
264.22272068512922
 31
0.0
  0
ARC
  5
E7EA
  8
0
 10
422.88428809197097
 20
261.2227206851291
 30
0.0
 40
2.9999999999999849
 50
90.0
 51
180.0
  0
ARC
  5
E7EB
  8
0
 10
503.58428809197079
 20
261.2227206851291
 30
0.0
 40
3.0
 50
0.0
 51
90.0
  0
LINE
  5
E7EC
  8
0
 10
506.58428809197079
 20
260.72272068512922
 30
0.0
 11
506.58428809197079
 21
261.2227206851291
 31
0.0
  0
LINE
  5
E7ED
  8
0
 10
419.88428809197097
 20
261.2227206851291
 30
0.0
 11
419.88428809197097
 21
260.72272068512922
 31
0.0
  0
ARC
  5
E7EE
  8
0
 10
416.23428809197088
 20
256.72272068512922
 30
0.0
 40
4.0000000000000142
 50
90.0
 51
180.0
  0
ARC
  5
E7EF
  8
0
 10
510.23428809197088
 20
256.72272068512922
 30
0.0
 40
4.0000000000000284
 50
0.0
 51
90.0
  0
LINE
  5
E7F0
  8
0
 10
514.23428809197094
 20
255.72272068512919
 30
0.0
 11
514.23428809197094
 21
256.72272068512922
 31
0.0
  0
LINE
  5
E7F1
  8
0
 10
412.23428809197088
 20
256.72272068512922
 30
0.0
 11
412.23428809197088
 21
255.72272068512919
 31
0.0
  0
LINE
  5
E7F2
  8
0
 10
415.73428809197088
 20
255.72272068512919
 30
0.0
 11
415.73428809197088
 21
253.72272068512919
 31
0.0
  0
LINE
  5
E7F3
  8
2
 10
508.23428809197088
 20
252.743007995017
 30
0.0
 11
508.23428809197088
 21
253.52272068512889
 31
0.0
  0
LINE
  5
E7F5
  8
2
 10
473.23428809197088
 20
253.52272068512889
 30
0.0
 11
473.23428809197088
 21
267.52272068512889
 31
0.0
  0
LINE
  5
E7F6
  8
2
 10
453.23428809197088
 20
267.52272068512889
 30
0.0
 11
453.23428809197088
 21
253.52272068512889
 31
0.0
  0
LINE
  5
E7F7
  8
0
 10
450.48428809197088
 20
267.52272068512889
 30
0.0
 11
475.98428809197088
 21
267.52272068512889
 31
0.0
  0
LINE
  5
E7F8
  8
0
 10
422.88428809197097
 20
264.22272068512922
 30
0.0
 11
503.58428809197079
 21
264.22272068512922
 31
0.0
  0
LINE
  5
E7FA
  8
0
 10
416.23428809197088
 20
260.72272068512922
 30
0.0
 11
510.23428809197088
 21
260.72272068512922
 31
0.0
  0
LINE
  5
E7FC
  8
0
 10
412.23428809197088
 20
255.72272068512919
 30
0.0
 11
514.23428809197094
 21
255.72272068512919
 31
0.0
  0
LINE
  5
E7FD
  8
0
 10
427.24470626611492
 20
253.72272068512919
 30
0.0
 11
409.23428809197088
 21
253.72272068512919
 31
0.0
  0
LINE
  5
E7FE
  8
0
 10
427.24470626611492
 20
253.72272068512919
 30
0.0
 11
427.24470626611492
 21
156.21273410166961
 31
0.0
  0
LINE
  5
E7FF
  8
0
 10
409.23428809197088
 20
253.72272068512919
 30
0.0
 11
409.23428809197088
 21
250.02272068512889
 31
0.0
  0
LINE
  5
E800
  8
2
 10
418.23428809197088
 20
253.52272068512889
 30
0.0
 11
508.23428809197088
 21
253.52272068512889
 31
0.0
  0
ARC
  5
E801
  8
0
 10
402.53428809197112
 20
153.52272068512909
 30
0.0
 40
10.000000000000011
 50
170.09459624540651
 51
270.0
  0
LINE
  5
E802
  8
0
 10
409.23428809197088
 20
250.02272068512889
 30
0.0
 11
392.68335702626018
 21
155.24294076948399
 31
0.0
  0
LINE
  5
E803
  8
0
 10
402.53428809197112
 20
143.52272068512909
 30
0.0
 11
411.9342880919707
 21
143.52272068512909
 31
0.0
  0
ARC
  5
E804
  8
0
 10
411.9342880919707
 20
153.52272068512889
 30
0.0
 40
9.9999999999998934
 50
270.0
 51
320.00311243723382
  0
LINE
  5
E805
  8
0
 10
419.59508168872662
 20
147.0952607305355
 30
0.0
 11
427.24470626611492
 21
156.21273410166961
 31
0.0
  0
POLYLINE
  5
E806
  8
0
 66
     1
 10
0.0
 20
0.0
 30
0.0
  0
VERTEX
  5
143CB
  8
0
 10
427.24470626611492
 20
156.21273410166961
 30
0.0
  0
VERTEX
  5
143CC
  8
0
 10
427.59580488244131
 20
156.63120330268899
 30
0.0
  0
VERTEX
  5
143CD
  8
0
 10
428.311494448757
 20
157.48422301586169
 30
0.0
  0
VERTEX
  5
143CE
  8
0
 10
429.04487079370978
 20
158.35832333653551
 30
0.0
  0
VERTEX
  5
143CF
  8
0
 10
429.41807578384851
 20
158.80314079458731
 30
0.0
  0
VERTEX
  5
143D0
  8
0
 10
429.79556249612409
 20
159.25306157335399
 30
0.0
  0
VERTEX
  5
143D1
  8
0
 10
430.56318936539759
 20
160.16798458281181
 30
0.0
  0
VERTEX
  5
143D2
  8
0
 10
431.34736263404881
 20
161.1026289987505
 30
0.0
  0
VERTEX
  5
143D3
  8
0
 10
432.14768515461168
 20
162.05652146703181
 30
0.0
  0
VERTEX
  5
143D4
  8
0
 10
432.96375160077048
 20
163.0291788852698
 30
0.0
  0
VERTEX
  5
143D5
  8
0
 10
433.79514867264152
 20
164.02010864749991
 30
0.0
  0
VERTEX
  5
143D6
  8
0
 10
434.21646490816232
 20
164.52226918091259
 30
0.0
  0
VERTEX
  5
143D7
  8
0
 10
434.6414553060867
 20
165.02880889366111
 30
0.0
  0
VERTEX
  5
143D8
  8
0
 10
435.5022428859665
 20
166.05476876376471
 30
0.0
  0
VERTEX
  5
143D9
  8
0
 10
436.37707546321229
 20
167.0974686566214
 30
0.0
  0
VERTEX
  5
143DA
  8
0
 10
437.26550997561287
 20
168.15638049299511
 30
0.0
  0
VERTEX
  5
143DB
  8
0
 10
438.16709647220841
 20
169.2309679830507
 30
0.0
  0
VERTEX
  5
143DC
  8
0
 10
439.08137834116633
 20
170.3206868979598
 30
0.0
  0
VERTEX
  5
143DD
  8
0
 10
439.54313558459393
 20
170.87104846515689
 30
0.0
  0
VERTEX
  5
143DE
  8
0
 10
440.00789254103569
 20
171.4249853455278
 30
0.0
  0
VERTEX
  5
143DF
  8
0
 10
440.94616983525702
 20
172.5433040497019
 30
0.0
  0
VERTEX
  5
143E0
  8
0
 10
441.89573502980687
 20
173.6750766338175
 30
0.0
  0
VERTEX
  5
143E1
  8
0
 10
442.37460052174532
 20
174.24582926709169
 30
0.0
  0
VERTEX
  5
143E2
  8
0
 10
442.8561072138636
 20
174.81972990744339
 30
0.0
  0
VERTEX
  5
143E3
  8
0
 10
443.82680000336529
 20
175.97668415667451
 30
0.0
  0
VERTEX
  5
143E4
  8
0
 10
444.8073217873407
 20
177.1453534377315
 30
0.0
  0
VERTEX
  5
143E5
  8
0
 10
445.30111355581403
 20
177.73389647724909
 30
0.0
  0
VERTEX
  5
143E6
  8
0
 10
445.7971759768879
 20
178.3251458737133
 30
0.0
  0
VERTEX
  5
143E7
  8
0
 10
446.7958612566739
 20
179.51546395435591
 30
0.0
  0
VERTEX
  5
143E8
  8
0
 10
447.80287183882677
 20
180.7157048386434
 30
0.0
  0
VERTEX
  5
143E9
  8
0
 10
448.81769771909512
 20
181.92526066011871
 30
0.0
  0
VERTEX
  5
143EA
  8
0
 10
449.83982493513889
 20
183.14351883474089
 30
0.0
  0
VERTEX
  5
143EB
  8
0
 10
450.8687358268316
 20
184.3698623711295
 30
0.0
  0
VERTEX
  5
143EC
  8
0
 10
451.38557243562491
 20
184.9858722119036
 30
0.0
  0
VERTEX
  5
143ED
  8
0
 10
451.90390929842761
 20
185.6036701830424
 30
0.0
  0
VERTEX
  5
143EE
  8
0
 10
452.94482108247519
 20
186.84431740392759
 30
0.0
  0
VERTEX
  5
143EF
  8
0
 10
453.99094400533198
 20
188.0911757033893
 30
0.0
  0
VERTEX
  5
143F0
  8
0
 10
455.041748254156
 20
189.3436136054072
 30
0.0
  0
VERTEX
  5
143F1
  8
0
 10
456.0967016452305
 20
190.60099680815119
 30
0.0
  0
VERTEX
  5
143F2
  8
0
 10
457.15526989348831
 20
191.8626885052247
 30
0.0
  0
VERTEX
  5
143F3
  8
0
 10
457.68574211696199
 20
192.4949504316391
 30
0.0
  0
VERTEX
  5
143F4
  8
0
 10
458.21691688310688
 20
193.12804970817879
 30
0.0
  0
VERTEX
  5
143F5
  8
0
 10
459.28110493902147
 20
194.3964395701291
 30
0.0
  0
VERTEX
  5
143F6
  8
0
 10
460.34729509923721
 20
195.6672157103157
 30
0.0
  0
VERTEX
  5
143F7
  8
0
 10
461.4149473877842
 20
196.9397345394398
 30
0.0
  0
VERTEX
  5
143F8
  8
0
 10
462.48352108819239
 20
198.2133515856103
 30
0.0
  0
VERTEX
  5
143F9
  8
0
 10
463.55247501733987
 20
199.48742182074079
 30
0.0
  0
VERTEX
  5
143FA
  8
0
 10
464.08692538781258
 20
200.1244252411941
 30
0.0
  0
VERTEX
  5
143FB
  8
0
 10
464.62126779953672
 20
200.76129998722561
 30
0.0
  0
VERTEX
  5
143FC
  8
0
 10
465.68935814070568
 20
202.03434092473231
 30
0.0
  0
VERTEX
  5
143FD
  8
0
 10
466.75620510252338
 20
203.30589989694701
 30
0.0
  0
VERTEX
  5
143FE
  8
0
 10
467.82126837638179
 20
204.57533291810179
 30
0.0
  0
VERTEX
  5
143FF
  8
0
 10
468.88400855702628
 20
205.8419970791258
 30
0.0
  0
VERTEX
  5
14400
  8
0
 10
469.94388741574352
 20
207.10525087324621
 30
0.0
  0
VERTEX
  5
14401
  8
0
 10
470.47258604171287
 20
207.7353988752636
 30
0.0
  0
VERTEX
  5
14402
  8
0
 10
471.00036817294591
 20
208.36445452088381
 30
0.0
  0
VERTEX
  5
14403
  8
0
 10
472.05291577002703
 20
209.61897029367199
 30
0.0
  0
VERTEX
  5
14404
  8
0
 10
473.10099714034499
 20
210.86816283743411
 30
0.0
  0
VERTEX
  5
14405
  8
0
 10
474.14408147919357
 20
212.111399493964
 30
0.0
  0
VERTEX
  5
14406
  8
0
 10
475.18164051263329
 20
213.34805062143619
 30
0.0
  0
VERTEX
  5
14407
  8
0
 10
476.21314876503533
 20
214.57748991329089
 30
0.0
  0
VERTEX
  5
14408
  8
0
 10
476.72647046790053
 20
215.18931039014589
 30
0.0
  0
VERTEX
  5
14409
  8
0
 10
477.23808382521111
 20
215.7990947154297
 30
0.0
  0
VERTEX
  5
1440A
  8
0
 10
478.25592661099017
 20
217.0122463415598
 30
0.0
  0
VERTEX
  5
1440B
  8
0
 10
479.26616163211111
 20
218.21633038653161
 30
0.0
  0
VERTEX
  5
1440C
  8
0
 10
479.76826618666792
 20
218.81478131172179
 30
0.0
  0
VERTEX
  5
1440D
  8
0
 10
480.26827725129209
 20
219.41073703750479
 30
0.0
  0
VERTEX
  5
1440E
  8
0
 10
481.26176594335351
 20
220.594861382792
 30
0.0
  0
VERTEX
  5
1440F
  8
0
 10
482.24612455225491
 20
221.7681037182181
 30
0.0
  0
VERTEX
  5
14410
  8
0
 10
482.73472409670279
 20
222.35045822340791
 30
0.0
  0
VERTEX
  5
14411
  8
0
 10
483.22085454592019
 20
222.92986985084119
 30
0.0
  0
VERTEX
  5
14412
  8
0
 10
484.18546226872149
 20
224.07957139988531
 30
0.0
  0
VERTEX
  5
14413
  8
0
 10
485.13945919149228
 20
225.2166260947285
 30
0.0
  0
VERTEX
  5
14414
  8
0
 10
486.08236215894522
 20
226.3404580697941
 30
0.0
  0
VERTEX
  5
14415
  8
0
 10
487.01369363436828
 20
227.45049815620149
 30
0.0
  0
VERTEX
  5
14416
  8
0
 10
487.93298194147383
 20
228.5461841700232
 30
0.0
  0
VERTEX
  5
14417
  8
0
 10
488.38796416937828
 20
229.08847069732809
 30
0.0
  0
VERTEX
  5
14418
  8
0
 10
488.83976150328272
 20
229.6269611970053
 30
0.0
  0
VERTEX
  5
14419
  8
0
 10
489.73357307791503
 20
230.69228187360551
 30
0.0
  0
VERTEX
  5
1441A
  8
0
 10
490.61396399117712
 20
231.74160666420789
 30
0.0
  0
VERTEX
  5
1441B
  8
0
 10
491.48048836581847
 20
232.77440413437239
 30
0.0
  0
VERTEX
  5
1441C
  8
0
 10
492.33270734734919
 20
233.7901512199812
 30
0.0
  0
VERTEX
  5
1441D
  8
0
 10
493.1701893262989
 20
234.78833349214781
 30
0.0
  0
VERTEX
  5
1441E
  8
0
 10
493.58327109677703
 20
235.28067948956661
 30
0.0
  0
VERTEX
  5
1441F
  8
0
 10
493.99251015680642
 20
235.7684454177504
 30
0.0
  0
VERTEX
  5
14420
  8
0
 10
494.79925337143129
 20
236.7299906154619
 30
0.0
  0
VERTEX
  5
14421
  8
0
 10
495.5900103920734
 20
237.6724821071432
 30
0.0
  0
VERTEX
  5
14422
  8
0
 10
496.36438073690078
 20
238.59544256447469
 30
0.0
  0
VERTEX
  5
14423
  8
0
 10
497.12197222317491
 20
239.49840455070279
 30
0.0
  0
VERTEX
  5
14424
  8
0
 10
497.86240116587072
 20
240.3809107573741
 30
0.0
  0
VERTEX
  5
14425
  8
0
 10
498.22606215331189
 20
240.8143528610446
 30
0.0
  0
VERTEX
  5
14426
  8
0
 10
498.5852925719991
 20
241.24251423593961
 30
0.0
  0
VERTEX
  5
14427
  8
0
 10
499.29028033052089
 20
242.08277862411541
 30
0.0
  0
VERTEX
  5
14428
  8
0
 10
499.97700739776468
 20
242.90127836687981
 30
0.0
  0
VERTEX
  5
14429
  8
0
 10
500.64512597825518
 20
243.69759893199469
 30
0.0
  0
VERTEX
  5
1442A
  8
0
 10
501.29429770085471
 20
244.47133701995131
 30
0.0
  0
VERTEX
  5
1442B
  8
0
 10
501.92419379013108
 20
245.2221007682185
 30
0.0
  0
VERTEX
  5
1442C
  8
0
 10
502.23181339485473
 20
245.58874798418739
 30
0.0
  0
VERTEX
  5
1442D
  8
0
 10
502.53449523286872
 20
245.94950994970651
 30
0.0
  0
VERTEX
  5
1442E
  8
0
 10
503.12489293963381
 20
246.65319616533071
 30
0.0
  0
VERTEX
  5
1442F
  8
0
 10
503.6950879013134
 20
247.33280303059269
 30
0.0
  0
VERTEX
  5
14430
  8
0
 10
504.24479134055031
 20
247.98798635606931
 30
0.0
  0
VERTEX
  5
14431
  8
0
 10
504.77372485799373
 20
248.6184143217304
 30
0.0
  0
VERTEX
  5
14432
  8
0
 10
505.28162057329928
 20
249.22376764498969
 30
0.0
  0
VERTEX
  5
14433
  8
0
 10
505.52759845232953
 20
249.51694500804319
 30
0.0
  0
VERTEX
  5
14434
  8
0
 10
505.76822126079281
 20
249.80373974240661
 30
0.0
  0
VERTEX
  5
14435
  8
0
 10
506.23328047974837
 20
250.3580368849569
 30
0.0
  0
VERTEX
  5
14436
  8
0
 10
506.67656269919593
 20
250.8863783467925
 30
0.0
  0
VERTEX
  5
14437
  8
0
 10
506.88996684328271
 20
251.1407315612953
 30
0.0
  0
VERTEX
  5
14438
  8
0
 10
507.09784341720791
 20
251.38849654741651
 30
0.0
  0
VERTEX
  5
14439
  8
0
 10
507.49690927459909
 20
251.86413718720021
 30
0.0
  0
VERTEX
  5
1443A
  8
0
 10
507.87355816298259
 20
252.31305937617319
 30
0.0
  0
VERTEX
  5
1443B
  8
0
 10
508.05341618662351
 20
252.52742947035739
 30
0.0
  0
VERTEX
  5
1443C
  8
0
 10
508.2275993271287
 20
252.7350357560247
 30
0.0
  0
VERTEX
  5
1443D
  8
0
 10
508.55885346157493
 20
253.12985261524889
 30
0.0
  0
VERTEX
  5
1443E
  8
0
 10
508.86715280143238
 20
253.49730999737969
 30
0.0
  0
VERTEX
  5
1443F
  8
0
 10
509.15234120735568
 20
253.8372218022607
 30
0.0
  0
VERTEX
  5
14440
  8
0
 10
509.41427424461608
 20
254.14941588029461
 30
0.0
  0
VERTEX
  5
14441
  8
0
 10
509.65281925625362
 20
254.43373411963029
 30
0.0
  0
VERTEX
  5
14442
  8
0
 10
509.7632830343041
 20
254.5653942481315
 30
0.0
  0
VERTEX
  5
14443
  8
0
 10
509.86785543026048
 20
254.69003252623881
 30
0.0
  0
VERTEX
  5
14444
  8
0
 10
510.05927386076741
 20
254.91818129683969
 30
0.0
  0
VERTEX
  5
14445
  8
0
 10
510.22697760319852
 20
255.11806488464009
 30
0.0
  0
VERTEX
  5
14446
  8
0
 10
510.37088172336951
 20
255.28958205785349
 30
0.0
  0
VERTEX
  5
14447
  8
0
 10
510.4909133405053
 20
255.43264595097091
 30
0.0
  0
VERTEX
  5
14448
  8
0
 10
510.5870116641463
 20
255.54718410875131
 30
0.0
  0
VERTEX
  5
14449
  8
0
 10
510.6260701575365
 20
255.59373734411631
 30
0.0
  0
VERTEX
  5
1444A
  8
0
 10
510.65912802493949
 20
255.63313852291941
 30
0.0
  0
VERTEX
  5
1444B
  8
0
 10
510.70722589928562
 20
255.6904656615427
 30
0.0
  0
VERTEX
  5
1444C
  8
0
 10
510.73128092783821
 20
255.71913649107799
 30
0.0
  0
VERTEX
  5
1444D
  8
0
 10
510.73428809197088
 20
255.72272068512919
 30
0.0
  0
SEQEND
  5
1444E
  8
0
  0
LINE
  5
E80A
  8
0
 10
395.76760908876167
 20
253.52272068512889
 30
0.0
 11
347.25094859036648
 21
240.52272068512889
 31
0.0
  0
LINE
  5
E80B
  8
0
 10
409.23428809197088
 20
253.52272068512889
 30
0.0
 11
395.76760908876167
 21
253.52272068512889
 31
0.0
  0
LINE
  5
E80C
  8
0
 10
350.734288091971
 20
227.52272068512889
 30
0.0
 11
405.30522274375062
 21
227.52272068512889
 31
0.0
  0
LINE
  5
E810
  8
0
 10
347.25094859036648
 20
240.52272068512889
 30
0.0
 11
350.734288091971
 21
227.52272068512889
 31
0.0
  0
POLYLINE
  5
E81F
  8
2
 66
     1
 10
0.0
 20
0.0
 30
0.0
  0
VERTEX
  5
1444F
  8
2
 10
407.23428809197088
 20
144.52012727141889
 30
0.0
  0
VERTEX
  5
14450
  8
2
 10
407.23506630219663
 20
144.52057657130209
 30
0.0
  0
VERTEX
  5
14451
  8
2
 10
407.23662259296128
 20
144.52147509619411
 30
0.0
  0
VERTEX
  5
14452
  8
2
 10
407.23817871088198
 20
144.52237352129441
 30
0.0
  0
VERTEX
  5
14453
  8
2
 10
407.2389567050526
 20
144.5228226964382
 30
0.0
  0
SEQEND
  5
14454
  8
2
  0
POLYLINE
  5
E826
  8
2
 66
     1
 10
0.0
 20
0.0
 30
0.0
  0
VERTEX
  5
14455
  8
2
 10
407.22961947888911
 20
144.5228226964382
 30
0.0
  0
VERTEX
  5
14456
  8
2
 10
407.23039747305978
 20
144.52237352129441
 30
0.0
  0
VERTEX
  5
14457
  8
2
 10
407.23195359098048
 20
144.52147509619411
 30
0.0
  0
VERTEX
  5
14458
  8
2
 10
407.23350988174519
 20
144.52057657130209
 30
0.0
  0
VERTEX
  5
14459
  8
2
 10
407.23428809197088
 20
144.52012727141889
 30
0.0
  0
SEQEND
  5
1445A
  8
2
  0
ARC
  5
E845
  8
0
 10
407.23428809197088
 20
154.52272068512909
 30
0.0
 40
75.000000000000156
 50
103.2614755361659
 51
39.055526809030461
  0
ARC
  5
E847
  8
0
 10
407.23428809197088
 20
154.52272068512909
 30
0.0
 40
61.832662348034837
 50
93.616865245776509
 51
36.68527653573144
  0
ARC
  5
E84F
  8
0
 10
407.23428809197088
 20
154.52272068512909
 30
0.0
 40
24.358818170688291
 50
116.5031674006987
 51
14.21923140350259
  0
ARC
  5
E857
  8
0
 10
407.23428809197088
 20
154.52272068512909
 30
0.0
 40
70.062472123098814
 50
92.003572768020916
 51
38.27343041832394
  0
LINE
  5
E860
  8
0
 10
696.79101270766978
 20
264.22272068512922
 30
0.0
 11
696.79101270766978
 21
267.52272068512929
 31
0.0
  0
LINE
  5
E861
  8
0
 10
722.29101270766978
 20
267.52272068512929
 30
0.0
 11
722.29101270766978
 21
264.22272068512922
 31
0.0
  0
ARC
  5
E863
  8
0
 10
749.89101270766969
 20
261.2227206851291
 30
0.0
 40
2.9999999999999849
 50
0.0
 51
90.0
  0
ARC
  5
E864
  8
0
 10
669.19101270766976
 20
261.2227206851291
 30
0.0
 40
2.9999999999999849
 50
90.0
 51
180.0
  0
LINE
  5
E865
  8
0
 10
666.19101270766987
 20
260.72272068512922
 30
0.0
 11
666.19101270766987
 21
261.2227206851291
 31
0.0
  0
LINE
  5
E866
  8
0
 10
752.89101270766969
 20
261.2227206851291
 30
0.0
 11
752.89101270766969
 21
260.72272068512922
 31
0.0
  0
ARC
  5
E867
  8
0
 10
756.54101270766967
 20
256.72272068512922
 30
0.0
 40
4.0000000000000142
 50
0.0
 51
90.0
  0
ARC
  5
E868
  8
0
 10
662.54101270766978
 20
256.72272068512922
 30
0.0
 40
4.0000000000000142
 50
90.0
 51
180.0
  0
LINE
  5
E869
  8
0
 10
658.54101270766978
 20
255.72272068512919
 30
0.0
 11
658.54101270766978
 21
256.72272068512922
 31
0.0
  0
LINE
  5
E86A
  8
0
 10
760.54101270766967
 20
256.72272068512922
 30
0.0
 11
760.54101270766967
 21
255.72272068512919
 31
0.0
  0
LINE
  5
E86B
  8
0
 10
662.04101270766978
 20
199.10817957300131
 30
0.0
 11
662.04101270766978
 21
255.72272068512919
 31
0.0
  0
LINE
  5
E86C
  8
0
 10
757.04101270766978
 20
255.72272068512919
 30
0.0
 11
757.04101270766978
 21
199.10817957300131
 31
0.0
  0
LINE
  5
E86D
  8
2
 10
664.54101270766967
 20
199.10817957300131
 30
0.0
 11
664.54101270766967
 21
253.52272068512929
 31
0.0
  0
LINE
  5
E86E
  8
2
 10
754.54101270766978
 20
253.52272068512929
 30
0.0
 11
754.54101270766978
 21
199.10817957300131
 31
0.0
  0
LINE
  5
E873
  8
2
 10
699.54101270766978
 20
253.52272068512929
 30
0.0
 11
699.54101270766978
 21
267.52272068512929
 31
0.0
  0
LINE
  5
E874
  8
2
 10
719.54101270766978
 20
267.52272068512929
 30
0.0
 11
719.54101270766978
 21
253.52272068512929
 31
0.0
  0
LINE
  5
E875
  8
0
 10
722.29101270766978
 20
267.52272068512929
 30
0.0
 11
696.79101270766978
 21
267.52272068512929
 31
0.0
  0
LINE
  5
E876
  8
0
 10
749.89101270766969
 20
264.22272068512922
 30
0.0
 11
669.19101270766976
 21
264.22272068512922
 31
0.0
  0
LINE
  5
E878
  8
0
 10
756.54101270766967
 20
260.72272068512922
 30
0.0
 11
662.54101270766978
 21
260.72272068512922
 31
0.0
  0
LINE
  5
E87A
  8
0
 10
760.54101270766967
 20
255.72272068512919
 30
0.0
 11
658.54101270766978
 21
255.72272068512919
 31
0.0
  0
LINE
  5
E87E
  8
2
 10
754.54101270766978
 20
253.52272068512929
 30
0.0
 11
664.54101270766967
 21
253.52272068512929
 31
0.0
  0
LINE
  5
E881
  8
0
 10
678.54101270766978
 20
156.21273410166981
 30
0.0
 11
678.54101270766978
 21
143.52272068512929
 31
0.0
  0
LINE
  5
E882
  8
0
 10
681.54101270766967
 20
143.52272068512929
 30
0.0
 11
678.54101270766978
 21
143.52272068512929
 31
0.0
  0
LINE
  5
E883
  8
0
 10
740.54101270766978
 20
143.52272068512929
 30
0.0
 11
737.54101270766978
 21
143.52272068512929
 31
0.0
  0
LINE
  5
E884
  8
0
 10
740.54101270766978
 20
143.52272068512929
 30
0.0
 11
740.54101270766978
 21
156.21273410166981
 31
0.0
  0
POLYLINE
  5
E885
  8
0
 66
     1
 10
0.0
 20
0.0
 30
0.0
  0
VERTEX
  5
1445B
  8
0
 10
737.54101270766978
 20
157.12065484466751
 30
0.0
  0
VERTEX
  5
1445C
  8
0
 10
738.41211752833033
 20
157.9672605600399
 30
0.0
  0
VERTEX
  5
1445D
  8
0
 10
740.09975844121482
 20
159.7369290480101
 30
0.0
  0
VERTEX
  5
1445E
  8
0
 10
741.7111510268478
 20
161.60483429021471
 30
0.0
  0
VERTEX
  5
1445F
  8
0
 10
742.48699003482579
 20
162.57417849133179
 30
0.0
  0
VERTEX
  5
14460
  8
0
 10
743.24227463627085
 20
163.56631560288679
 30
0.0
  0
VERTEX
  5
14461
  8
0
 10
744.68930890280205
 20
165.61647881692849
 30
0.0
  0
VERTEX
  5
14462
  8
0
 10
746.04864327438372
 20
167.75020848954611
 30
0.0
  0
VERTEX
  5
14463
  8
0
 10
747.31688602241127
 20
169.96218066799059
 30
0.0
  0
VERTEX
  5
14464
  8
0
 10
748.49087270457039
 20
172.24687617356261
 30
0.0
  0
VERTEX
  5
14465
  8
0
 10
749.56767406055951
 20
174.5985943727319
 30
0.0
  0
VERTEX
  5
14466
  8
0
 10
750.06878096598848
 20
175.7977594095718
 30
0.0
  0
VERTEX
  5
14467
  8
0
 10
750.54460332100405
 20
177.011467401011
 30
0.0
  0
VERTEX
  5
14468
  8
0
 10
751.41922291131857
 20
179.4794748040963
 30
0.0
  0
VERTEX
  5
14469
  8
0
 10
752.18935053379664
 20
181.99645855973881
 30
0.0
  0
VERTEX
  5
1446A
  8
0
 10
752.85306461274513
 20
184.55613844286739
 30
0.0
  0
VERTEX
  5
1446B
  8
0
 10
753.40870908908664
 20
187.15212769562621
 30
0.0
  0
VERTEX
  5
1446C
  8
0
 10
753.85489755245453
 20
189.77794896322391
 30
0.0
  0
VERTEX
  5
1446D
  8
0
 10
754.03658712335425
 20
191.1000016299715
 30
0.0
  0
VERTEX
  5
1446E
  8
0
 10
754.19051670048111
 20
192.4270504558371
 30
0.0
  0
VERTEX
  5
1446F
  8
0
 10
754.41472911664232
 20
195.09282229623821
 30
0.0
  0
VERTEX
  5
14470
  8
0
 10
754.52697535972902
 20
197.76861301235951
 30
0.0
  0
VERTEX
  5
14471
  8
0
 10
754.54101270766978
 20
199.10817957300131
 30
0.0
  0
SEQEND
  5
14472
  8
0
  0
POLYLINE
  5
E886
  8
0
 66
     1
 10
0.0
 20
0.0
 30
0.0
  0
VERTEX
  5
14473
  8
0
 10
754.54101270766978
 20
199.10817957300131
 30
0.0
  0
VERTEX
  5
14474
  8
0
 10
754.53625314438966
 20
199.88823902813121
 30
0.0
  0
VERTEX
  5
14475
  8
0
 10
754.49818267885348
 20
201.44769793021419
 30
0.0
  0
VERTEX
  5
14476
  8
0
 10
754.42207395919547
 20
203.00517736620009
 30
0.0
  0
VERTEX
  5
14477
  8
0
 10
754.36977412179829
 20
203.7827628812654
 30
0.0
  0
VERTEX
  5
14478
  8
0
 10
754.30799138099098
 20
204.55935955299381
 30
0.0
  0
VERTEX
  5
14479
  8
0
 10
754.15603146949115
 20
206.1089294973028
 30
0.0
  0
VERTEX
  5
1447A
  8
0
 10
753.96632279795165
 20
207.6525761082514
 30
0.0
  0
VERTEX
  5
1447B
  8
0
 10
753.73902587884822
 20
209.1889933066966
 30
0.0
  0
VERTEX
  5
1447C
  8
0
 10
753.47433302806655
 20
210.71688113029879
 30
0.0
  0
VERTEX
  5
1447D
  8
0
 10
753.17246820218497
 20
212.2349468334217
 30
0.0
  0
VERTEX
  5
1447E
  8
0
 10
753.00767489067755
 20
212.98989464942471
 30
0.0
  0
VERTEX
  5
1447F
  8
0
 10
752.83368680898229
 20
213.7419059809238
 30
0.0
  0
VERTEX
  5
14480
  8
0
 10
752.45827549133992
 20
215.23648353491791
 30
0.0
  0
VERTEX
  5
14481
  8
0
 10
752.04655188471168
 20
216.71741493358169
 30
0.0
  0
VERTEX
  5
14482
  8
0
 10
751.59886434837415
 20
218.18344716110121
 30
0.0
  0
VERTEX
  5
14483
  8
0
 10
751.11559167067753
 20
219.6333398078512
 30
0.0
  0
VERTEX
  5
14484
  8
0
 10
750.5971427485556
 20
221.06586611990019
 30
0.0
  0
VERTEX
  5
14485
  8
0
 10
750.32486312431911
 20
221.7752375294742
 30
0.0
  0
VERTEX
  5
14486
  8
0
 10
750.04395624155541
 20
222.4798140369719
 30
0.0
  0
VERTEX
  5
14487
  8
0
 10
749.45650020068979
 20
223.873987217966
 30
0.0
  0
VERTEX
  5
14488
  8
0
 10
748.83527167241834
 20
225.24720605318339
 30
0.0
  0
VERTEX
  5
14489
  8
0
 10
748.51215587796958
 20
225.9255937840091
 30
0.0
  0
VERTEX
  5
1448A
  8
0
 10
748.1807962780972
 20
226.59830866239301
 30
0.0
  0
VERTEX
  5
1448B
  8
0
 10
747.49362776924954
 20
227.92615187789971
 30
0.0
  0
VERTEX
  5
1448C
  8
0
 10
746.77434755903778
 20
229.22961221177661
 30
0.0
  0
VERTEX
  5
1448D
  8
0
 10
746.4028547006742
 20
229.87185332360079
 30
0.0
  0
VERTEX
  5
1448E
  8
0
 10
746.02356423032904
 20
230.50758680644981
 30
0.0
  0
VERTEX
  5
1448F
  8
0
 10
745.24191302077543
 20
231.7589943678251
 30
0.0
  0
VERTEX
  5
14490
  8
0
 10
744.43005528533558
 20
232.9827760801702
 30
0.0
  0
VERTEX
  5
14491
  8
0
 10
743.58867793670686
 20
234.17789650198009
 30
0.0
  0
VERTEX
  5
14492
  8
0
 10
742.71849286412544
 20
235.34334444206141
 30
0.0
  0
VERTEX
  5
14493
  8
0
 10
741.8202363310379
 20
236.478133815104
 30
0.0
  0
VERTEX
  5
14494
  8
0
 10
741.36081786106433
 20
237.03373045798551
 30
0.0
  0
VERTEX
  5
14495
  8
0
 10
740.89466835214944
 20
237.58130447600641
 30
0.0
  0
VERTEX
  5
14496
  8
0
 10
739.94257205037445
 20
238.65192303225311
 30
0.0
  0
VERTEX
  5
14497
  8
0
 10
738.96475299423798
 20
239.68908363365989
 30
0.0
  0
VERTEX
  5
14498
  8
0
 10
737.96203851628195
 20
240.691908738813
 30
0.0
  0
VERTEX
  5
14499
  8
0
 10
736.9352770130622
 20
241.65954985755499
 30
0.0
  0
VERTEX
  5
1449A
  8
0
 10
735.885337227317
 20
242.59118826889451
 30
0.0
  0
VERTEX
  5
1449B
  8
0
 10
735.35195234346702
 20
243.04325891998471
 30
0.0
  0
VERTEX
  5
1449C
  8
0
 10
734.81310751292665
 20
243.4860357137257
 30
0.0
  0
VERTEX
  5
1449D
  8
0
 10
733.7194950832768
 20
244.34333506177131
 30
0.0
  0
VERTEX
  5
1449E
  8
0
 10
732.60542524366383
 20
245.16236095219509
 30
0.0
  0
VERTEX
  5
1449F
  8
0
 10
731.47184060839572
 20
245.94242040732499
 30
0.0
  0
VERTEX
  5
144A0
  8
0
 10
730.31970030324635
 20
246.68285341898471
 30
0.0
  0
VERTEX
  5
144A1
  8
0
 10
729.14997915393815
 20
247.38303350692439
 30
0.0
  0
VERTEX
  5
144A2
  8
0
 10
728.55883448600105
 20
247.7178422282488
 30
0.0
  0
VERTEX
  5
144A3
  8
0
 10
727.96366686134388
 20
248.04236824888741
 30
0.0
  0
VERTEX
  5
144A4
  8
0
 10
726.76176716409873
 20
248.66029978185651
 30
0.0
  0
VERTEX
  5
144A5
  8
0
 10
725.54529698933902
 20
249.2363052740632
 30
0.0
  0
VERTEX
  5
144A6
  8
0
 10
724.31528559227991
 20
249.7698973673553
 30
0.0
  0
VERTEX
  5
144A7
  8
0
 10
723.07277368536177
 20
250.26062458955059
 30
0.0
  0
VERTEX
  5
144A8
  8
0
 10
721.81881255770531
 20
250.70807173642669
 30
0.0
  0
VERTEX
  5
144A9
  8
0
 10
721.18786973728311
 20
250.9154455344094
 30
0.0
  0
VERTEX
  5
144AA
  8
0
 10
720.55446318561417
 20
251.11186022302689
 30
0.0
  0
VERTEX
  5
144AB
  8
0
 10
719.28079533488415
 20
251.47164840397801
 30
0.0
  0
VERTEX
  5
144AC
  8
0
 10
717.9988866556746
 20
251.78713186255999
 30
0.0
  0
VERTEX
  5
144AD
  8
0
 10
716.70982177070834
 20
252.05804366827061
 30
0.0
  0
VERTEX
  5
144AE
  8
0
 10
715.41469135757177
 20
252.28415460267499
 30
0.0
  0
VERTEX
  5
144AF
  8
0
 10
714.11459122589577
 20
252.46527335334869
 30
0.0
  0
VERTEX
  5
144B0
  8
0
 10
713.46302113131424
 20
252.53891128007419
 30
0.0
  0
VERTEX
  5
144B1
  8
0
 10
712.81062139018729
 20
252.60124667574721
 30
0.0
  0
VERTEX
  5
144B2
  8
0
 10
711.50388513911003
 20
252.69195952286441
 30
0.0
  0
VERTEX
  5
144B3
  8
0
 10
710.19548810199103
 20
252.73733514257509
 30
0.0
  0
VERTEX
  5
144B4
  8
0
 10
709.54101270766967
 20
252.743007995017
 30
0.0
  0
VERTEX
  5
144B5
  8
0
 10
708.88653731334853
 20
252.73733514257509
 30
0.0
  0
VERTEX
  5
144B6
  8
0
 10
707.57814027622953
 20
252.69195952286441
 30
0.0
  0
VERTEX
  5
144B7
  8
0
 10
706.27140402515215
 20
252.60124667574721
 30
0.0
  0
VERTEX
  5
144B8
  8
0
 10
705.61900428402532
 20
252.53891128007419
 30
0.0
  0
VERTEX
  5
144B9
  8
0
 10
704.96743418944368
 20
252.46527335334869
 30
0.0
  0
VERTEX
  5
144BA
  8
0
 10
703.66733405776756
 20
252.28415460267499
 30
0.0
  0
VERTEX
  5
144BB
  8
0
 10
702.3722036446311
 20
252.05804366827061
 30
0.0
  0
VERTEX
  5
144BC
  8
0
 10
701.08313875966485
 20
251.78713186255999
 30
0.0
  0
VERTEX
  5
144BD
  8
0
 10
699.80123008045518
 20
251.47164840397801
 30
0.0
  0
VERTEX
  5
144BE
  8
0
 10
698.52756222972539
 20
251.11186022302689
 30
0.0
  0
VERTEX
  5
144BF
  8
0
 10
697.89415567805645
 20
250.9154455344094
 30
0.0
  0
VERTEX
  5
144C0
  8
0
 10
697.26321285763368
 20
250.70807173642669
 30
0.0
  0
VERTEX
  5
144C1
  8
0
 10
696.00925172997756
 20
250.26062458955059
 30
0.0
  0
VERTEX
  5
144C2
  8
0
 10
694.76673982305965
 20
249.7698973673553
 30
0.0
  0
VERTEX
  5
144C3
  8
0
 10
693.53672842600054
 20
249.2363052740632
 30
0.0
  0
VERTEX
  5
144C4
  8
0
 10
692.32025825124083
 20
248.66029978185651
 30
0.0
  0
VERTEX
  5
144C5
  8
0
 10
691.11835855399568
 20
248.04236824888741
 30
0.0
  0
VERTEX
  5
144C6
  8
0
 10
690.5231909293384
 20
247.7178422282488
 30
0.0
  0
VERTEX
  5
144C7
  8
0
 10
689.93204626140096
 20
247.38303350692439
 30
0.0
  0
VERTEX
  5
144C8
  8
0
 10
688.76232511209298
 20
246.68285341898471
 30
0.0
  0
VERTEX
  5
144C9
  8
0
 10
687.61018480694383
 20
245.94242040732499
 30
0.0
  0
VERTEX
  5
144CA
  8
0
 10
686.47660017167573
 20
245.16236095219509
 30
0.0
  0
VERTEX
  5
144CB
  8
0
 10
685.36253033206265
 20
244.34333506177131
 30
0.0
  0
VERTEX
  5
144CC
  8
0
 10
684.26891790241234
 20
243.4860357137257
 30
0.0
  0
VERTEX
  5
144CD
  8
0
 10
683.73007307187254
 20
243.04325891998471
 30
0.0
  0
VERTEX
  5
144CE
  8
0
 10
683.19668818802256
 20
242.59118826889451
 30
0.0
  0
VERTEX
  5
144CF
  8
0
 10
682.14674840227735
 20
241.65954985755499
 30
0.0
  0
VERTEX
  5
144D0
  8
0
 10
681.11998689905738
 20
240.691908738813
 30
0.0
  0
VERTEX
  5
144D1
  8
0
 10
680.11727242110135
 20
239.68908363365989
 30
0.0
  0
VERTEX
  5
144D2
  8
0
 10
679.13945336496499
 20
238.65192303225311
 30
0.0
  0
VERTEX
  5
144D3
  8
0
 10
678.18735706319012
 20
237.58130447600641
 30
0.0
  0
VERTEX
  5
144D4
  8
0
 10
677.72120755427522
 20
237.03373045798551
 30
0.0
  0
VERTEX
  5
144D5
  8
0
 10
677.26178908430165
 20
236.478133815104
 30
0.0
  0
VERTEX
  5
144D6
  8
0
 10
676.36353255121412
 20
235.34334444206141
 30
0.0
  0
VERTEX
  5
144D7
  8
0
 10
675.49334747863259
 20
234.17789650198009
 30
0.0
  0
VERTEX
  5
144D8
  8
0
 10
674.65197013000386
 20
232.9827760801702
 30
0.0
  0
VERTEX
  5
144D9
  8
0
 10
673.84011239456413
 20
231.7589943678251
 30
0.0
  0
VERTEX
  5
144DA
  8
0
 10
673.0584611850104
 20
230.50758680644981
 30
0.0
  0
VERTEX
  5
144DB
  8
0
 10
672.67917071466525
 20
229.87185332360079
 30
0.0
  0
VERTEX
  5
144DC
  8
0
 10
672.30767785630178
 20
229.22961221177661
 30
0.0
  0
VERTEX
  5
144DD
  8
0
 10
671.58839764609002
 20
227.92615187789971
 30
0.0
  0
VERTEX
  5
144DE
  8
0
 10
670.90122913724235
 20
226.59830866239301
 30
0.0
  0
VERTEX
  5
144DF
  8
0
 10
670.56986953736987
 20
225.9255937840091
 30
0.0
  0
VERTEX
  5
144E0
  8
0
 10
670.24675374292099
 20
225.24720605318339
 30
0.0
  0
VERTEX
  5
144E1
  8
0
 10
669.62552521464977
 20
223.873987217966
 30
0.0
  0
VERTEX
  5
144E2
  8
0
 10
669.03806917378415
 20
222.4798140369719
 30
0.0
  0
VERTEX
  5
144E3
  8
0
 10
668.75716229102045
 20
221.7752375294742
 30
0.0
  0
VERTEX
  5
144E4
  8
0
 10
668.48488266678385
 20
221.06586611990019
 30
0.0
  0
VERTEX
  5
144E5
  8
0
 10
667.96643374466203
 20
219.6333398078512
 30
0.0
  0
VERTEX
  5
144E6
  8
0
 10
667.48316106696518
 20
218.18344716110121
 30
0.0
  0
VERTEX
  5
144E7
  8
0
 10
667.03547353062766
 20
216.71741493358169
 30
0.0
  0
VERTEX
  5
144E8
  8
0
 10
666.62374992399964
 20
215.23648353491791
 30
0.0
  0
VERTEX
  5
144E9
  8
0
 10
666.24833860635727
 20
213.7419059809238
 30
0.0
  0
VERTEX
  5
144EA
  8
0
 10
666.07435052466178
 20
212.98989464942471
 30
0.0
  0
VERTEX
  5
144EB
  8
0
 10
665.90955721315459
 20
212.2349468334217
 30
0.0
  0
VERTEX
  5
144EC
  8
0
 10
665.60769238727289
 20
210.71688113029879
 30
0.0
  0
VERTEX
  5
144ED
  8
0
 10
665.34299953649133
 20
209.1889933066966
 30
0.0
  0
VERTEX
  5
144EE
  8
0
 10
665.11570261738768
 20
207.6525761082514
 30
0.0
  0
VERTEX
  5
144EF
  8
0
 10
664.9259939458484
 20
206.1089294973028
 30
0.0
  0
VERTEX
  5
144F0
  8
0
 10
664.77403403434835
 20
204.55935955299381
 30
0.0
  0
VERTEX
  5
144F1
  8
0
 10
664.71225129354104
 20
203.7827628812654
 30
0.0
  0
VERTEX
  5
144F2
  8
0
 10
664.65995145614386
 20
203.00517736620009
 30
0.0
  0
VERTEX
  5
144F3
  8
0
 10
664.58384273648608
 20
201.44769793021419
 30
0.0
  0
VERTEX
  5
144F4
  8
0
 10
664.54577227094967
 20
199.88823902813121
 30
0.0
  0
VERTEX
  5
144F5
  8
0
 10
664.54101270766967
 20
199.10817957300131
 30
0.0
  0
SEQEND
  5
144F6
  8
0
  0
POLYLINE
  5
E887
  8
0
 66
     1
 10
0.0
 20
0.0
 30
0.0
  0
VERTEX
  5
144F7
  8
0
 10
664.54101270766967
 20
199.10817957300131
 30
0.0
  0
VERTEX
  5
144F8
  8
0
 10
664.55505005561054
 20
197.76861301235931
 30
0.0
  0
VERTEX
  5
144F9
  8
0
 10
664.66729629869724
 20
195.09282229623821
 30
0.0
  0
VERTEX
  5
144FA
  8
0
 10
664.89150871485845
 20
192.4270504558371
 30
0.0
  0
VERTEX
  5
144FB
  8
0
 10
665.04543829198519
 20
191.1000016299715
 30
0.0
  0
VERTEX
  5
144FC
  8
0
 10
665.22712786288503
 20
189.77794896322391
 30
0.0
  0
VERTEX
  5
144FD
  8
0
 10
665.67331632625292
 20
187.15212769562621
 30
0.0
  0
VERTEX
  5
144FE
  8
0
 10
666.22896080259443
 20
184.55613844286739
 30
0.0
  0
VERTEX
  5
144FF
  8
0
 10
666.89267488154292
 20
181.99645855973881
 30
0.0
  0
VERTEX
  5
14500
  8
0
 10
667.66280250402087
 20
179.4794748040963
 30
0.0
  0
VERTEX
  5
14501
  8
0
 10
668.53742209433528
 20
177.011467401011
 30
0.0
  0
VERTEX
  5
14502
  8
0
 10
669.01324444935096
 20
175.7977594095718
 30
0.0
  0
VERTEX
  5
14503
  8
0
 10
669.51435135478005
 20
174.5985943727319
 30
0.0
  0
VERTEX
  5
14504
  8
0
 10
670.59115271076917
 20
172.24687617356261
 30
0.0
  0
VERTEX
  5
14505
  8
0
 10
671.76513939292818
 20
169.96218066799059
 30
0.0
  0
VERTEX
  5
14506
  8
0
 10
673.03338214095584
 20
167.75020848954611
 30
0.0
  0
VERTEX
  5
14507
  8
0
 10
674.39271651253739
 20
165.61647881692849
 30
0.0
  0
VERTEX
  5
14508
  8
0
 10
675.83975077906871
 20
163.56631560288679
 30
0.0
  0
VERTEX
  5
14509
  8
0
 10
676.59503538051376
 20
162.57417849133179
 30
0.0
  0
VERTEX
  5
1450A
  8
0
 10
677.37087438849176
 20
161.60483429021471
 30
0.0
  0
VERTEX
  5
1450B
  8
0
 10
678.98226697412474
 20
159.7369290480101
 30
0.0
  0
VERTEX
  5
1450C
  8
0
 10
680.66990788700923
 20
157.9672605600399
 30
0.0
  0
VERTEX
  5
1450D
  8
0
 10
681.54101270766967
 20
157.12065484466751
 30
0.0
  0
SEQEND
  5
1450E
  8
0
  0
POLYLINE
  5
E889
  8
0
 66
     1
 10
0.0
 20
0.0
 30
0.0
  0
VERTEX
  5
1450F
  8
0
 10
740.54101270766978
 20
156.21273410166981
 30
0.0
  0
VERTEX
  5
14510
  8
0
 10
741.39158620487797
 20
157.10727632167499
 30
0.0
  0
VERTEX
  5
14511
  8
0
 10
743.03776417521829
 20
158.9676977880363
 30
0.0
  0
VERTEX
  5
14512
  8
0
 10
744.60753864526566
 20
160.91967658988301
 30
0.0
  0
VERTEX
  5
14513
  8
0
 10
745.36264861718792
 20
161.92861652698039
 30
0.0
  0
VERTEX
  5
14514
  8
0
 10
746.09732908082242
 20
162.95876041448599
 30
0.0
  0
VERTEX
  5
14515
  8
0
 10
747.50373738508677
 20
165.08029826929331
 30
0.0
  0
VERTEX
  5
14516
  8
0
 10
748.8235556494551
 20
167.279451090485
 30
0.0
  0
VERTEX
  5
14517
  8
0
 10
750.05377347050671
 20
169.5512027805037
 30
0.0
  0
VERTEX
  5
14518
  8
0
 10
751.19158481650675
 20
171.89037164938509
 30
0.0
  0
VERTEX
  5
14519
  8
0
 10
752.23439442774543
 20
174.2916222337924
 30
0.0
  0
VERTEX
  5
1451A
  8
0
 10
752.71942166399856
 20
175.51382177777759
 30
0.0
  0
VERTEX
  5
1451B
  8
0
 10
753.17982373612404
 20
176.7494774667955
 30
0.0
  0
VERTEX
  5
1451C
  8
0
 10
754.02571629048634
 20
179.2583311706376
 30
0.0
  0
VERTEX
  5
1451D
  8
0
 10
754.77014267531604
 20
181.81246084399211
 30
0.0
  0
VERTEX
  5
1451E
  8
0
 10
755.41140491158421
 20
184.40604071454709
 30
0.0
  0
VERTEX
  5
1451F
  8
0
 10
755.94804032971024
 20
187.03315502714079
 30
0.0
  0
VERTEX
  5
14520
  8
0
 10
756.3788249057942
 20
189.68781153714161
 30
0.0
  0
VERTEX
  5
14521
  8
0
 10
756.55420657362117
 20
191.02357798512821
 30
0.0
  0
VERTEX
  5
14522
  8
0
 10
756.70277605352555
 20
192.3639551782955
 30
0.0
  0
VERTEX
  5
14523
  8
0
 10
756.91915486538164
 20
195.0554818738633
 30
0.0
  0
VERTEX
  5
14524
  8
0
 10
757.02746779802226
 20
197.75625245954799
 30
0.0
  0
VERTEX
  5
14525
  8
0
 10
757.04101270766978
 20
199.10817957300131
 30
0.0
  0
SEQEND
  5
14526
  8
0
  0
POLYLINE
  5
E88A
  8
0
 66
     1
 10
0.0
 20
0.0
 30
0.0
  0
VERTEX
  5
14527
  8
0
 10
757.04101270766978
 20
199.10817957300131
 30
0.0
  0
VERTEX
  5
14528
  8
0
 10
756.99580323280804
 20
201.5776711722817
 30
0.0
  0
VERTEX
  5
14529
  8
0
 10
756.63464362292552
 20
206.49786004865271
 30
0.0
  0
VERTEX
  5
1452A
  8
0
 10
755.91507304586639
 20
211.36180899459279
 30
0.0
  0
VERTEX
  5
1452B
  8
0
 10
755.42248945640029
 20
213.7611010425596
 30
0.0
  0
VERTEX
  5
1452C
  8
0
 10
754.84256786821061
 20
216.13250042169119
 30
0.0
  0
VERTEX
  5
1452D
  8
0
 10
753.42529050195571
 20
220.773626487565
 30
0.0
  0
VERTEX
  5
1452E
  8
0
 10
751.67402728363538
 20
225.24986542046389
 30
0.0
  0
VERTEX
  5
1452F
  8
0
 10
749.60210638378203
 20
229.5271503392826
 30
0.0
  0
VERTEX
  5
14530
  8
0
 10
748.25157732881416
 20
231.91733986646679
 30
0.0
  0
VERTEX
  5
14531
  8
0
 10
747.84713141037525
 20
232.5849039702791
 30
0.0
  0
VERTEX
  5
14532
  8
0
 10
747.43458236322567
 20
233.24538653683911
 30
0.0
  0
VERTEX
  5
14533
  8
0
 10
747.22529637150365
 20
233.5729285230934
 30
0.0
  0
VERTEX
  5
14534
  8
0
 10
747.01401745640169
 20
233.8986478502099
 30
0.0
  0
VERTEX
  5
14535
  8
0
 10
746.58552565458149
 20
234.5445497220114
 30
0.0
  0
VERTEX
  5
14536
  8
0
 10
746.14919759927034
 20
235.18295552065109
 30
0.0
  0
VERTEX
  5
14537
  8
0
 10
745.70512558962309
 20
235.8137302002267
 30
0.0
  0
VERTEX
  5
14538
  8
0
 10
745.25340356292088
 20
236.43674032909371
 30
0.0
  0
VERTEX
  5
14539
  8
0
 10
744.7941270747009
 20
237.0518541180906
 30
0.0
  0
VERTEX
  5
1453A
  8
0
 10
744.56168620615051
 20
237.35640915700901
 30
0.0
  0
VERTEX
  5
1453B
  8
0
 10
744.3273932785404
 20
237.65894144841721
 30
0.0
  0
VERTEX
  5
1453C
  8
0
 10
743.85330090550815
 20
238.2578738991599
 30
0.0
  0
VERTEX
  5
1453D
  8
0
 10
743.37195024327718
 20
238.84852477445591
 30
0.0
  0
VERTEX
  5
1453E
  8
0
 10
743.12858481403089
 20
239.14070550715149
 30
0.0
  0
VERTEX
  5
1453F
  8
0
 10
742.8834431149121
 20
239.43076913029589
 30
0.0
  0
VERTEX
  5
14540
  8
0
 10
742.38788285732744
 20
240.00448380095281
 30
0.0
  0
VERTEX
  5
14541
  8
0
 10
741.88537429943017
 20
240.56954742503669
 30
0.0
  0
VERTEX
  5
14542
  8
0
 10
741.63154756941356
 20
240.84879766887821
 30
0.0
  0
VERTEX
  5
14543
  8
0
 10
741.37602373994423
 20
241.1258404711659
 30
0.0
  0
VERTEX
  5
14544
  8
0
 10
740.85993892492286
 20
241.6732452632543
 30
0.0
  0
VERTEX
  5
14545
  8
0
 10
740.33722902495992
 20
242.21164600540101
 30
0.0
  0
VERTEX
  5
14546
  8
0
 10
739.80800461209219
 20
242.74092880638889
 30
0.0
  0
VERTEX
  5
14547
  8
0
 10
739.27237763641267
 20
243.26098170377389
 30
0.0
  0
VERTEX
  5
14548
  8
0
 10
738.73046140238694
 20
243.77169468757049
 30
0.0
  0
VERTEX
  5
14549
  8
0
 10
738.45718058558396
 20
244.02351487336341
 30
0.0
  0
VERTEX
  5
1454A
  8
0
 10
738.18237054488679
 20
244.27295972352269
 30
0.0
  0
VERTEX
  5
1454B
  8
0
 10
737.62822100493975
 20
244.7646707759566
 30
0.0
  0
VERTEX
  5
1454C
  8
0
 10
737.06813000520367
 20
245.24672383021129
 30
0.0
  0
VERTEX
  5
1454D
  8
0
 10
736.50221602517013
 20
245.71901691464129
 30
0.0
  0
VERTEX
  5
1454E
  8
0
 10
735.93059877610085
 20
246.18145012218861
 30
0.0
  0
VERTEX
  5
1454F
  8
0
 10
735.35339917570582
 20
246.63392563151481
 30
0.0
  0
VERTEX
  5
14550
  8
0
 10
735.0627441041438
 20
246.85639925559209
 30
0.0
  0
VERTEX
  5
14551
  8
0
 10
734.77073932256371
 20
247.0763477276939
 30
0.0
  0
VERTEX
  5
14552
  8
0
 10
734.18274247029456
 20
247.50862282246109
 30
0.0
  0
VERTEX
  5
14553
  8
0
 10
733.58953300148585
 20
247.93065947400899
 30
0.0
  0
VERTEX
  5
14554
  8
0
 10
732.99123640138214
 20
248.3423684063311
 30
0.0
  0
VERTEX
  5
14555
  8
0
 10
732.38797923134052
 20
248.7436625281064
 30
0.0
  0
VERTEX
  5
14556
  8
0
 10
731.77988910205795
 20
249.1344569511237
 30
0.0
  0
VERTEX
  5
14557
  8
0
 10
731.47407183633368
 20
249.3258908548726
 30
0.0
  0
VERTEX
  5
14558
  8
0
 10
731.16709464657595
 20
249.51466900823581
 30
0.0
  0
VERTEX
  5
14559
  8
0
 10
730.5497254930724
 20
249.8842182708506
 30
0.0
  0
VERTEX
  5
1455A
  8
0
 10
729.92791223743825
 20
250.24302656594071
 30
0.0
  0
VERTEX
  5
1455B
  8
0
 10
729.30178641565271
 20
250.59101799258289
 30
0.0
  0
VERTEX
  5
1455C
  8
0
 10
728.67148047595992
 20
250.92811893801201
 30
0.0
  0
VERTEX
  5
1455D
  8
0
 10
728.03712775084784
 20
251.2542580931925
 30
0.0
  0
VERTEX
  5
1455E
  8
0
 10
727.71847574501135
 20
251.4131953490153
 30
0.0
  0
VERTEX
  5
1455F
  8
0
 10
727.39886242884768
 20
251.56936646790541
 30
0.0
  0
VERTEX
  5
14560
  8
0
 10
726.75681952614548
 20
251.8733774053392
 30
0.0
  0
VERTEX
  5
14561
  8
0
 10
726.11113485802252
 20
252.16622659619159
 30
0.0
  0
VERTEX
  5
14562
  8
0
 10
725.46194501012451
 20
252.44785209227419
 30
0.0
  0
VERTEX
  5
14563
  8
0
 10
724.80938730956996
 20
252.71819431961441
 30
0.0
  0
VERTEX
  5
14564
  8
0
 10
724.15359979589948
 20
252.97719609105999
 30
0.0
  0
VERTEX
  5
14565
  8
0
 10
723.82453818412284
 20
253.1024270904702
 30
0.0
  0
VERTEX
  5
14566
  8
0
 10
723.49472119187703
 20
253.2248026183741
 30
0.0
  0
VERTEX
  5
14567
  8
0
 10
722.83289087414175
 20
253.46096152382569
 30
0.0
  0
VERTEX
  5
14568
  8
0
 10
722.16824884372954
 20
253.68562285127129
 30
0.0
  0
VERTEX
  5
14569
  8
0
 10
721.83491735003963
 20
253.7936269767099
 30
0.0
  0
VERTEX
  5
1456A
  8
0
 10
721.5009356964523
 20
253.89873907671901
 30
0.0
  0
VERTEX
  5
1456B
  8
0
 10
720.83109259316325
 20
254.1002651183837
 30
0.0
  0
VERTEX
  5
1456C
  8
0
 10
720.15886122988877
 20
254.29015834622331
 30
0.0
  0
VERTEX
  5
1456D
  8
0
 10
719.82189436972965
 20
254.38073000569901
 30
0.0
  0
VERTEX
  5
1456E
  8
0
 10
719.48438380786183
 20
254.46837859095669
 30
0.0
  0
VERTEX
  5
1456F
  8
0
 10
718.80780300343577
 20
254.6348881525598
 30
0.0
  0
VERTEX
  5
14570
  8
0
 10
718.12926193790679
 20
254.78965180824181
 30
0.0
  0
VERTEX
  5
14571
  8
0
 10
717.44890414723704
 20
254.93263681989609
 30
0.0
  0
VERTEX
  5
14572
  8
0
 10
716.76687355169076
 20
255.06381294102329
 30
0.0
  0
VERTEX
  5
14573
  8
0
 10
716.08331442539145
 20
255.1831524231327
 30
0.0
  0
VERTEX
  5
14574
  8
0
 10
715.74100683812219
 20
255.23837543765671
 30
0.0
  0
VERTEX
  5
14575
  8
0
 10
715.39837136580206
 20
255.2906300216107
 30
0.0
  0
VERTEX
  5
14576
  8
0
 10
714.71218926313804
 20
255.38622300106019
 30
0.0
  0
VERTEX
  5
14577
  8
0
 10
714.02491326971631
 20
255.4699111401103
 30
0.0
  0
VERTEX
  5
14578
  8
0
 10
713.33668876925128
 20
255.54167673569529
 30
0.0
  0
VERTEX
  5
14579
  8
0
 10
712.64766134610124
 20
255.60150460679711
 30
0.0
  0
VERTEX
  5
1457A
  8
0
 10
711.95797675447227
 20
255.64938209765859
 30
0.0
  0
VERTEX
  5
1457B
  8
0
 10
711.61293360752325
 20
255.66883618674569
 30
0.0
  0
VERTEX
  5
1457C
  8
0
 10
711.26778088758465
 20
255.6852990804598
 30
0.0
  0
VERTEX
  5
1457D
  8
0
 10
710.57721974681135
 20
255.709247957461
 30
0.0
  0
VERTEX
  5
1457E
  8
0
 10
709.88643941079454
 20
255.72122366260899
 30
0.0
  0
VERTEX
  5
1457F
  8
0
 10
709.54101270766967
 20
255.72272068512919
 30
0.0
  0
SEQEND
  5
14580
  8
0
  0
POLYLINE
  5
E88B
  8
0
 66
     1
 10
0.0
 20
0.0
 30
0.0
  0
VERTEX
  5
14581
  8
0
 10
709.54101270766967
 20
255.72272068512919
 30
0.0
  0
VERTEX
  5
14582
  8
0
 10
709.19558600454502
 20
255.72122366260899
 30
0.0
  0
VERTEX
  5
14583
  8
0
 10
708.50480566852809
 20
255.709247957461
 30
0.0
  0
VERTEX
  5
14584
  8
0
 10
707.81424452775491
 20
255.6852990804598
 30
0.0
  0
VERTEX
  5
14585
  8
0
 10
707.46909180781631
 20
255.66883618674569
 30
0.0
  0
VERTEX
  5
14586
  8
0
 10
707.12404866086706
 20
255.64938209765859
 30
0.0
  0
VERTEX
  5
14587
  8
0
 10
706.43436406923809
 20
255.60150460679711
 30
0.0
  0
VERTEX
  5
14588
  8
0
 10
705.74533664608805
 20
255.54167673569529
 30
0.0
  0
VERTEX
  5
14589
  8
0
 10
705.05711214562325
 20
255.4699111401103
 30
0.0
  0
VERTEX
  5
1458A
  8
0
 10
704.36983615220151
 20
255.38622300106019
 30
0.0
  0
VERTEX
  5
1458B
  8
0
 10
703.68365404953727
 20
255.2906300216107
 30
0.0
  0
VERTEX
  5
1458C
  8
0
 10
703.34101857721726
 20
255.23837543765671
 30
0.0
  0
VERTEX
  5
1458D
  8
0
 10
702.99871098994788
 20
255.1831524231327
 30
0.0
  0
VERTEX
  5
1458E
  8
0
 10
702.31515186364868
 20
255.06381294102329
 30
0.0
  0
VERTEX
  5
1458F
  8
0
 10
701.6331212681024
 20
254.93263681989609
 30
0.0
  0
VERTEX
  5
14590
  8
0
 10
700.95276347743265
 20
254.78965180824181
 30
0.0
  0
VERTEX
  5
14591
  8
0
 10
700.27422241190379
 20
254.6348881525598
 30
0.0
  0
VERTEX
  5
14592
  8
0
 10
699.59764160747773
 20
254.46837859095669
 30
0.0
  0
VERTEX
  5
14593
  8
0
 10
699.26013104560968
 20
254.38073000569901
 30
0.0
  0
VERTEX
  5
14594
  8
0
 10
698.92316418545079
 20
254.29015834622331
 30
0.0
  0
VERTEX
  5
14595
  8
0
 10
698.2509328221762
 20
254.1002651183837
 30
0.0
  0
VERTEX
  5
14596
  8
0
 10
697.58108971888714
 20
253.89873907671901
 30
0.0
  0
VERTEX
  5
14597
  8
0
 10
697.24710806529993
 20
253.7936269767099
 30
0.0
  0
VERTEX
  5
14598
  8
0
 10
696.91377657161001
 20
253.68562285127129
 30
0.0
  0
VERTEX
  5
14599
  8
0
 10
696.24913454119769
 20
253.46096152382569
 30
0.0
  0
VERTEX
  5
1459A
  8
0
 10
695.58730422346252
 20
253.2248026183741
 30
0.0
  0
VERTEX
  5
1459B
  8
0
 10
695.25748723121649
 20
253.1024270904702
 30
0.0
  0
VERTEX
  5
1459C
  8
0
 10
694.92842561944008
 20
252.97719609105999
 30
0.0
  0
VERTEX
  5
1459D
  8
0
 10
694.2726381057696
 20
252.71819431961441
 30
0.0
  0
VERTEX
  5
1459E
  8
0
 10
693.62008040521505
 20
252.44785209227419
 30
0.0
  0
VERTEX
  5
1459F
  8
0
 10
692.97089055731703
 20
252.16622659619159
 30
0.0
  0
VERTEX
  5
145A0
  8
0
 10
692.32520588919385
 20
251.8733774053392
 30
0.0
  0
VERTEX
  5
145A1
  8
0
 10
691.68316298649177
 20
251.56936646790541
 30
0.0
  0
VERTEX
  5
145A2
  8
0
 10
691.36354967032776
 20
251.4131953490153
 30
0.0
  0
VERTEX
  5
145A3
  8
0
 10
691.04489766449149
 20
251.2542580931925
 30
0.0
  0
VERTEX
  5
145A4
  8
0
 10
690.41054493937963
 20
250.92811893801201
 30
0.0
  0
VERTEX
  5
145A5
  8
0
 10
689.78023899968628
 20
250.59101799258289
 30
0.0
  0
VERTEX
  5
145A6
  8
0
 10
689.15411317790131
 20
250.24302656594071
 30
0.0
  0
VERTEX
  5
145A7
  8
0
 10
688.53229992226716
 20
249.8842182708506
 30
0.0
  0
VERTEX
  5
145A8
  8
0
 10
687.9149307687635
 20
249.51466900823581
 30
0.0
  0
VERTEX
  5
145A9
  8
0
 10
687.60795357900543
 20
249.3258908548726
 30
0.0
  0
VERTEX
  5
145AA
  8
0
 10
687.30213631328149
 20
249.1344569511237
 30
0.0
  0
VERTEX
  5
145AB
  8
0
 10
686.69404618399903
 20
248.7436625281064
 30
0.0
  0
VERTEX
  5
145AC
  8
0
 10
686.09078901395742
 20
248.3423684063311
 30
0.0
  0
VERTEX
  5
145AD
  8
0
 10
685.49249241385348
 20
247.93065947400899
 30
0.0
  0
VERTEX
  5
145AE
  8
0
 10
684.89928294504477
 20
247.50862282246109
 30
0.0
  0
VERTEX
  5
145AF
  8
0
 10
684.31128609277584
 20
247.0763477276939
 30
0.0
  0
VERTEX
  5
145B0
  8
0
 10
684.01928131119575
 20
246.85639925559209
 30
0.0
  0
VERTEX
  5
145B1
  8
0
 10
683.72862623963374
 20
246.63392563151481
 30
0.0
  0
VERTEX
  5
145B2
  8
0
 10
683.15142663923871
 20
246.18145012218861
 30
0.0
  0
VERTEX
  5
145B3
  8
0
 10
682.57980939016943
 20
245.71901691464129
 30
0.0
  0
VERTEX
  5
145B4
  8
0
 10
682.01389541013566
 20
245.24672383021129
 30
0.0
  0
VERTEX
  5
145B5
  8
0
 10
681.4538044103997
 20
244.7646707759566
 30
0.0
  0
VERTEX
  5
145B6
  8
0
 10
680.89965487045265
 20
244.27295972352269
 30
0.0
  0
VERTEX
  5
145B7
  8
0
 10
680.6248448297556
 20
244.02351487336341
 30
0.0
  0
VERTEX
  5
145B8
  8
0
 10
680.35156401295262
 20
243.77169468757049
 30
0.0
  0
VERTEX
  5
145B9
  8
0
 10
679.80964777892723
 20
243.26098170377389
 30
0.0
  0
VERTEX
  5
145BA
  8
0
 10
679.27402080324737
 20
242.74092880638889
 30
0.0
  0
VERTEX
  5
145BB
  8
0
 10
678.74479639037963
 20
242.21164600540101
 30
0.0
  0
VERTEX
  5
145BC
  8
0
 10
678.22208649041647
 20
241.6732452632543
 30
0.0
  0
VERTEX
  5
145BD
  8
0
 10
677.70600167539533
 20
241.1258404711659
 30
0.0
  0
VERTEX
  5
145BE
  8
0
 10
677.45047784592589
 20
240.84879766887821
 30
0.0
  0
VERTEX
  5
145BF
  8
0
 10
677.19665111590928
 20
240.56954742503669
 30
0.0
  0
VERTEX
  5
145C0
  8
0
 10
676.69414255801212
 20
240.00448380095281
 30
0.0
  0
VERTEX
  5
145C1
  8
0
 10
676.19858230042735
 20
239.43076913029589
 30
0.0
  0
VERTEX
  5
145C2
  8
0
 10
675.95344060130844
 20
239.14070550715149
 30
0.0
  0
VERTEX
  5
145C3
  8
0
 10
675.71007517206215
 20
238.84852477445591
 30
0.0
  0
VERTEX
  5
145C4
  8
0
 10
675.22872450983141
 20
238.2578738991599
 30
0.0
  0
VERTEX
  5
145C5
  8
0
 10
674.75463213679905
 20
237.65894144841721
 30
0.0
  0
VERTEX
  5
145C6
  8
0
 10
674.52033920918893
 20
237.35640915700901
 30
0.0
  0
VERTEX
  5
145C7
  8
0
 10
674.28789834063855
 20
237.0518541180906
 30
0.0
  0
VERTEX
  5
145C8
  8
0
 10
673.82862185241845
 20
236.43674032909371
 30
0.0
  0
VERTEX
  5
145C9
  8
0
 10
673.37689982571635
 20
235.8137302002267
 30
0.0
  0
VERTEX
  5
145CA
  8
0
 10
672.93282781606877
 20
235.18295552065109
 30
0.0
  0
VERTEX
  5
145CB
  8
0
 10
672.49649976075796
 20
234.5445497220114
 30
0.0
  0
VERTEX
  5
145CC
  8
0
 10
672.06800795893776
 20
233.8986478502099
 30
0.0
  0
VERTEX
  5
145CD
  8
0
 10
671.85672904383637
 20
233.5729285230934
 30
0.0
  0
VERTEX
  5
145CE
  8
0
 10
671.64744305211377
 20
233.24538653683911
 30
0.0
  0
VERTEX
  5
145CF
  8
0
 10
671.23489400496419
 20
232.5849039702791
 30
0.0
  0
VERTEX
  5
145D0
  8
0
 10
670.83044808652539
 20
231.91733986646679
 30
0.0
  0
VERTEX
  5
145D1
  8
0
 10
669.47991903155753
 20
229.5271503392826
 30
0.0
  0
VERTEX
  5
145D2
  8
0
 10
667.40799813170395
 20
225.24986542046389
 30
0.0
  0
VERTEX
  5
145D3
  8
0
 10
665.65673491338384
 20
220.773626487565
 30
0.0
  0
VERTEX
  5
145D4
  8
0
 10
664.23945754712895
 20
216.13250042169119
 30
0.0
  0
VERTEX
  5
145D5
  8
0
 10
663.65953595893905
 20
213.7611010425596
 30
0.0
  0
VERTEX
  5
145D6
  8
0
 10
663.16695236947305
 20
211.36180899459279
 30
0.0
  0
VERTEX
  5
145D7
  8
0
 10
662.44738179241403
 20
206.49786004865271
 30
0.0
  0
VERTEX
  5
145D8
  8
0
 10
662.0862221825314
 20
201.5776711722817
 30
0.0
  0
VERTEX
  5
145D9
  8
0
 10
662.04101270766978
 20
199.10817957300131
 30
0.0
  0
SEQEND
  5
145DA
  8
0
  0
POLYLINE
  5
E88C
  8
0
 66
     1
 10
0.0
 20
0.0
 30
0.0
  0
VERTEX
  5
145DB
  8
0
 10
662.04101270766978
 20
199.10817957300131
 30
0.0
  0
VERTEX
  5
145DC
  8
0
 10
662.05455761731764
 20
197.75625245954799
 30
0.0
  0
VERTEX
  5
145DD
  8
0
 10
662.16287054995792
 20
195.0554818738633
 30
0.0
  0
VERTEX
  5
145DE
  8
0
 10
662.37924936181389
 20
192.3639551782955
 30
0.0
  0
VERTEX
  5
145DF
  8
0
 10
662.52781884171816
 20
191.02357798512821
 30
0.0
  0
VERTEX
  5
145E0
  8
0
 10
662.70320050954524
 20
189.68781153714161
 30
0.0
  0
VERTEX
  5
145E1
  8
0
 10
663.13398508562932
 20
187.03315502714079
 30
0.0
  0
VERTEX
  5
145E2
  8
0
 10
663.67062050375534
 20
184.40604071454709
 30
0.0
  0
VERTEX
  5
145E3
  8
0
 10
664.31188274002352
 20
181.81246084399211
 30
0.0
  0
VERTEX
  5
145E4
  8
0
 10
665.05630912485321
 20
179.2583311706376
 30
0.0
  0
VERTEX
  5
145E5
  8
0
 10
665.90220167921552
 20
176.7494774667955
 30
0.0
  0
VERTEX
  5
145E6
  8
0
 10
666.36260375134088
 20
175.51382177777759
 30
0.0
  0
VERTEX
  5
145E7
  8
0
 10
666.84763098759413
 20
174.2916222337924
 30
0.0
  0
VERTEX
  5
145E8
  8
0
 10
667.89044059883281
 20
171.89037164938509
 30
0.0
  0
VERTEX
  5
145E9
  8
0
 10
669.02825194483285
 20
169.5512027805037
 30
0.0
  0
VERTEX
  5
145EA
  8
0
 10
670.25846976588446
 20
167.279451090485
 30
0.0
  0
VERTEX
  5
145EB
  8
0
 10
671.57828803025257
 20
165.08029826929331
 30
0.0
  0
VERTEX
  5
145EC
  8
0
 10
672.98469633451714
 20
162.95876041448599
 30
0.0
  0
VERTEX
  5
145ED
  8
0
 10
673.71937679815164
 20
161.92861652698039
 30
0.0
  0
VERTEX
  5
145EE
  8
0
 10
674.47448677007367
 20
160.91967658988301
 30
0.0
  0
VERTEX
  5
145EF
  8
0
 10
676.04426124012105
 20
158.9676977880363
 30
0.0
  0
VERTEX
  5
145F0
  8
0
 10
677.69043921046159
 20
157.10727632167499
 30
0.0
  0
VERTEX
  5
145F1
  8
0
 10
678.54101270766978
 20
156.21273410166981
 30
0.0
  0
SEQEND
  5
145F2
  8
0
  0
LINE
  5
E88E
  8
0
 10
737.54101270766978
 20
143.52272068512929
 30
0.0
 11
737.54101270766978
 21
241.0959660550154
 31
0.0
  0
LINE
  5
E893
  8
0
 10
681.54101270766967
 20
241.0959660550154
 30
0.0
 11
681.54101270766967
 21
143.52272068512929
 31
0.0
  0
LINE
  5
E895
  8
0
 10
728.02088292234055
 20
248.0227206851294
 30
0.0
 11
691.0611424929989
 21
248.0227206851294
 31
0.0
  0
LINE
  5
E8AE
  8
0
 10
678.54101270766978
 20
146.20772068512929
 30
0.0
 11
677.94101270766976
 21
146.20772068512929
 31
0.0
  0
LINE
  5
E8B0
  8
0
 10
754.46751270766981
 20
148.52272068512929
 30
0.0
 11
752.54101270766967
 21
148.52272068512929
 31
0.0
  0
LINE
  5
E8B1
  8
0
 10
752.54101270766967
 20
160.52272068512929
 30
0.0
 11
754.46751270766981
 21
160.52272068512929
 31
0.0
  0
LINE
  5
E8B2
  8
0
 10
755.54101270766967
 20
149.59622068512931
 30
0.0
 11
754.46751270766981
 21
148.52272068512929
 31
0.0
  0
LINE
  5
E8B3
  8
0
 10
754.46751270766981
 20
160.52272068512929
 30
0.0
 11
755.54101270766967
 21
159.4492206851294
 31
0.0
  0
LINE
  5
E8B4
  8
0
 10
671.04101270766978
 20
163.1852206851292
 30
0.0
 11
671.40008965565585
 21
164.52531409883949
 31
0.0
  0
LINE
  5
E8B5
  8
0
 10
671.40008965565585
 20
144.52012727141911
 30
0.0
 11
671.04101270766978
 21
145.86022068512921
 31
0.0
  0
LINE
  5
E8B7
  8
0
 10
677.94101270766976
 20
145.86022068512921
 30
0.0
 11
677.58193575968369
 21
144.52012727141911
 31
0.0
  0
LINE
  5
E8BA
  8
0
 10
752.54101270766967
 20
146.20772068512929
 30
0.0
 11
748.79101270766967
 21
146.20772068512929
 31
0.0
  0
LINE
  5
E8BB
  8
0
 10
748.79101270766967
 20
162.8377206851294
 30
0.0
 11
752.54101270766967
 21
162.8377206851294
 31
0.0
  0
LINE
  5
E8BD
  8
0
 10
740.90008965565585
 20
144.52012727141911
 30
0.0
 11
740.54101270766978
 21
145.86022068512921
 31
0.0
  0
LINE
  5
E8BE
  8
0
 10
748.43193575968371
 20
164.52531409883949
 30
0.0
 11
748.79101270766967
 21
163.1852206851292
 31
0.0
  0
LINE
  5
E8BF
  8
0
 10
748.79101270766967
 20
145.86022068512921
 30
0.0
 11
748.43193575968371
 21
144.52012727141911
 31
0.0
  0
LINE
  5
E8C2
  8
0
 10
737.54101270766978
 20
144.52272068512929
 30
0.0
 11
732.04101270766978
 21
144.52272068512929
 31
0.0
  0
LINE
  5
E8C4
  8
0
 10
687.04101270766978
 20
144.52272068512929
 30
0.0
 11
681.54101270766967
 21
144.52272068512929
 31
0.0
  0
LINE
  5
E8C5
  8
0
 10
681.54101270766967
 20
164.52272068512929
 30
0.0
 11
687.04101270766978
 21
164.52272068512929
 31
0.0
  0
LINE
  5
E8C7
  8
0
 10
732.04101270766978
 20
164.52272068512929
 30
0.0
 11
737.54101270766978
 21
164.52272068512929
 31
0.0
  0
LINE
  5
E8C8
  8
0
 10
754.46751270766981
 20
160.52272068512929
 30
0.0
 11
754.46751270766981
 21
148.52272068512929
 31
0.0
  0
LINE
  5
E8C9
  8
0
 10
755.54101270766967
 20
159.4492206851294
 30
0.0
 11
755.54101270766967
 21
149.59622068512931
 31
0.0
  0
LINE
  5
E8CA
  8
0
 10
671.04101270766978
 20
163.1852206851292
 30
0.0
 11
671.04101270766978
 21
145.86022068512921
 31
0.0
  0
LINE
  5
E8CC
  8
0
 10
677.94101270766976
 20
156.84078896362101
 30
0.0
 11
677.94101270766976
 21
145.86022068512921
 31
0.0
  0
POLYLINE
  5
E8CD
  8
0
 66
     1
 10
0.0
 20
0.0
 30
0.0
  0
VERTEX
  5
145F3
  8
0
 10
671.40008965565585
 20
149.52142397827421
 30
0.0
  0
VERTEX
  5
145F4
  8
0
 10
671.28818816822331
 20
149.0721635727466
 30
0.0
  0
VERTEX
  5
145F5
  8
0
 10
671.12954975659341
 20
148.22843757856089
 30
0.0
  0
VERTEX
  5
145F6
  8
0
 10
671.05096496319311
 20
147.42229470991529
 30
0.0
  0
VERTEX
  5
145F7
  8
0
 10
671.04101270766978
 20
147.02077562484669
 30
0.0
  0
SEQEND
  5
145F8
  8
0
  0
POLYLINE
  5
E8CE
  8
0
 66
     1
 10
0.0
 20
0.0
 30
0.0
  0
VERTEX
  5
145F9
  8
0
 10
671.04101270766978
 20
147.02077562484669
 30
0.0
  0
VERTEX
  5
145FA
  8
0
 10
671.05096496319311
 20
146.61925653977801
 30
0.0
  0
VERTEX
  5
145FB
  8
0
 10
671.12954975659341
 20
145.81311367113219
 30
0.0
  0
VERTEX
  5
145FC
  8
0
 10
671.28818816822331
 20
144.96938767694681
 30
0.0
  0
VERTEX
  5
145FD
  8
0
 10
671.40008965565585
 20
144.52012727141911
 30
0.0
  0
SEQEND
  5
145FE
  8
0
  0
POLYLINE
  5
E8CF
  8
0
 66
     1
 10
0.0
 20
0.0
 30
0.0
  0
VERTEX
  5
145FF
  8
0
 10
677.58193575968369
 20
144.52012727141911
 30
0.0
  0
VERTEX
  5
14600
  8
0
 10
677.69383724711633
 20
144.96938767694681
 30
0.0
  0
VERTEX
  5
14601
  8
0
 10
677.85247565874579
 20
145.81311367113219
 30
0.0
  0
VERTEX
  5
14602
  8
0
 10
677.93106045214654
 20
146.61925653977801
 30
0.0
  0
VERTEX
  5
14603
  8
0
 10
677.94101270766976
 20
147.02077562484669
 30
0.0
  0
SEQEND
  5
14604
  8
0
  0
POLYLINE
  5
E8D0
  8
0
 66
     1
 10
0.0
 20
0.0
 30
0.0
  0
VERTEX
  5
14605
  8
0
 10
677.94101270766976
 20
147.02077562484669
 30
0.0
  0
VERTEX
  5
14606
  8
0
 10
677.93106045214654
 20
147.42229470991529
 30
0.0
  0
VERTEX
  5
14607
  8
0
 10
677.85247565874579
 20
148.22843757856089
 30
0.0
  0
VERTEX
  5
14608
  8
0
 10
677.69383724711633
 20
149.0721635727466
 30
0.0
  0
VERTEX
  5
14609
  8
0
 10
677.58193575968369
 20
149.52142397827421
 30
0.0
  0
SEQEND
  5
1460A
  8
0
  0
LINE
  5
E8D1
  8
0
 10
671.40008965565585
 20
144.52012727141911
 30
0.0
 11
677.58193575968369
 21
144.52012727141911
 31
0.0
  0
POLYLINE
  5
E8DB
  8
0
 66
     1
 10
0.0
 20
0.0
 30
0.0
  0
VERTEX
  5
1460B
  8
0
 10
671.40008965565585
 20
164.52531409883949
 30
0.0
  0
VERTEX
  5
1460C
  8
0
 10
671.28818816822331
 20
164.07605369331191
 30
0.0
  0
VERTEX
  5
1460D
  8
0
 10
671.12954975659341
 20
163.2323276991265
 30
0.0
  0
VERTEX
  5
1460E
  8
0
 10
671.05096496319311
 20
162.42618483048071
 30
0.0
  0
VERTEX
  5
1460F
  8
0
 10
671.04101270766978
 20
162.02466574541199
 30
0.0
  0
SEQEND
  5
14610
  8
0
  0
POLYLINE
  5
E8DC
  8
0
 66
     1
 10
0.0
 20
0.0
 30
0.0
  0
VERTEX
  5
14611
  8
0
 10
671.04101270766978
 20
162.02466574541199
 30
0.0
  0
VERTEX
  5
14612
  8
0
 10
671.05096496319311
 20
161.62314666034331
 30
0.0
  0
VERTEX
  5
14613
  8
0
 10
671.12954975659341
 20
160.81700379169769
 30
0.0
  0
VERTEX
  5
14614
  8
0
 10
671.28818816822331
 20
159.97327779751211
 30
0.0
  0
VERTEX
  5
14615
  8
0
 10
671.40008965565585
 20
159.52401739198439
 30
0.0
  0
SEQEND
  5
14616
  8
0
  0
LINE
  5
E8E1
  8
0
 10
671.40008965565585
 20
164.52531409883949
 30
0.0
 11
671.93314315926864
 21
164.52531409883949
 31
0.0
  0
POLYLINE
  5
E8E4
  8
0
 66
     1
 10
0.0
 20
0.0
 30
0.0
  0
VERTEX
  5
14617
  8
0
 10
677.94101270766976
 20
154.52272068512929
 30
0.0
  0
VERTEX
  5
14618
  8
0
 10
677.9385202692024
 20
154.92427026385121
 30
0.0
  0
VERTEX
  5
14619
  8
0
 10
677.91880429822766
 20
155.7238934597062
 30
0.0
  0
VERTEX
  5
1461A
  8
0
 10
677.87967927183081
 20
156.5272352888303
 30
0.0
  0
VERTEX
  5
1461B
  8
0
 10
677.85281097069947
 20
156.93338109864379
 30
0.0
  0
SEQEND
  5
1461C
  8
0
  0
LINE
  5
E8E6
  8
0
 10
671.40008965565585
 20
159.52401739198439
 30
0.0
 11
675.58123734368417
 21
159.52401739198439
 31
0.0
  0
POLYLINE
  5
E8E8
  8
0
 66
     1
 10
0.0
 20
0.0
 30
0.0
  0
VERTEX
  5
1461D
  8
0
 10
671.40008965565585
 20
159.52401739198439
 30
0.0
  0
VERTEX
  5
1461E
  8
0
 10
671.28818816822331
 20
158.62549658092911
 30
0.0
  0
VERTEX
  5
1461F
  8
0
 10
671.12954975659341
 20
156.93804459255799
 30
0.0
  0
VERTEX
  5
14620
  8
0
 10
671.05096496319311
 20
155.32575885526671
 30
0.0
  0
VERTEX
  5
14621
  8
0
 10
671.04101270766978
 20
154.52272068512929
 30
0.0
  0
SEQEND
  5
14622
  8
0
  0
POLYLINE
  5
E8E9
  8
0
 66
     1
 10
0.0
 20
0.0
 30
0.0
  0
VERTEX
  5
14623
  8
0
 10
671.04101270766978
 20
154.52272068512929
 30
0.0
  0
VERTEX
  5
14624
  8
0
 10
671.05096496319311
 20
153.71968251499189
 30
0.0
  0
VERTEX
  5
14625
  8
0
 10
671.12954975659341
 20
152.10739677770059
 30
0.0
  0
VERTEX
  5
14626
  8
0
 10
671.28818816822331
 20
150.41994478932949
 30
0.0
  0
VERTEX
  5
14627
  8
0
 10
671.40008965565585
 20
149.52142397827421
 30
0.0
  0
SEQEND
  5
14628
  8
0
  0
LINE
  5
E8EA
  8
0
 10
671.40008965565585
 20
149.52142397827421
 30
0.0
 11
677.58193575968369
 21
149.52142397827421
 31
0.0
  0
POLYLINE
  5
E8EB
  8
0
 66
     1
 10
0.0
 20
0.0
 30
0.0
  0
VERTEX
  5
14629
  8
0
 10
677.58193575968369
 20
149.52142397827421
 30
0.0
  0
VERTEX
  5
1462A
  8
0
 10
677.69383724711633
 20
150.41994478932949
 30
0.0
  0
VERTEX
  5
1462B
  8
0
 10
677.85247565874579
 20
152.10739677770059
 30
0.0
  0
VERTEX
  5
1462C
  8
0
 10
677.93106045214654
 20
153.71968251499189
 30
0.0
  0
VERTEX
  5
1462D
  8
0
 10
677.94101270766976
 20
154.52272068512929
 30
0.0
  0
SEQEND
  5
1462E
  8
0
  0
LINE
  5
E8EC
  8
0
 10
752.54101270766967
 20
162.8377206851294
 30
0.0
 11
752.54101270766967
 21
146.20772068512929
 31
0.0
  0
LINE
  5
E8ED
  8
0
 10
748.79101270766967
 20
163.1852206851292
 30
0.0
 11
748.79101270766967
 21
145.86022068512921
 31
0.0
  0
POLYLINE
  5
E8EE
  8
0
 66
     1
 10
0.0
 20
0.0
 30
0.0
  0
VERTEX
  5
1462F
  8
0
 10
740.90008965565585
 20
149.52142397827421
 30
0.0
  0
VERTEX
  5
14630
  8
0
 10
740.78818816822331
 20
149.0721635727466
 30
0.0
  0
VERTEX
  5
14631
  8
0
 10
740.62954975659341
 20
148.22843757856089
 30
0.0
  0
VERTEX
  5
14632
  8
0
 10
740.550964963193
 20
147.42229470991529
 30
0.0
  0
VERTEX
  5
14633
  8
0
 10
740.54101270766978
 20
147.02077562484669
 30
0.0
  0
SEQEND
  5
14634
  8
0
  0
POLYLINE
  5
E8EF
  8
0
 66
     1
 10
0.0
 20
0.0
 30
0.0
  0
VERTEX
  5
14635
  8
0
 10
740.54101270766978
 20
147.02077562484669
 30
0.0
  0
VERTEX
  5
14636
  8
0
 10
740.550964963193
 20
146.61925653977801
 30
0.0
  0
VERTEX
  5
14637
  8
0
 10
740.62954975659341
 20
145.81311367113219
 30
0.0
  0
VERTEX
  5
14638
  8
0
 10
740.78818816822331
 20
144.9693876769465
 30
0.0
  0
VERTEX
  5
14639
  8
0
 10
740.90008965565585
 20
144.52012727141911
 30
0.0
  0
SEQEND
  5
1463A
  8
0
  0
POLYLINE
  5
E8F0
  8
0
 66
     1
 10
0.0
 20
0.0
 30
0.0
  0
VERTEX
  5
1463B
  8
0
 10
748.43193575968371
 20
144.52012727141911
 30
0.0
  0
VERTEX
  5
1463C
  8
0
 10
748.54383724711624
 20
144.9693876769465
 30
0.0
  0
VERTEX
  5
1463D
  8
0
 10
748.70247565874615
 20
145.81311367113219
 30
0.0
  0
VERTEX
  5
1463E
  8
0
 10
748.78106045214645
 20
146.61925653977801
 30
0.0
  0
VERTEX
  5
1463F
  8
0
 10
748.79101270766967
 20
147.02077562484669
 30
0.0
  0
SEQEND
  5
14640
  8
0
  0
POLYLINE
  5
E8F1
  8
0
 66
     1
 10
0.0
 20
0.0
 30
0.0
  0
VERTEX
  5
14641
  8
0
 10
748.79101270766967
 20
147.02077562484669
 30
0.0
  0
VERTEX
  5
14642
  8
0
 10
748.78106045214645
 20
147.42229470991529
 30
0.0
  0
VERTEX
  5
14643
  8
0
 10
748.70247565874615
 20
148.22843757856089
 30
0.0
  0
VERTEX
  5
14644
  8
0
 10
748.54383724711624
 20
149.0721635727466
 30
0.0
  0
VERTEX
  5
14645
  8
0
 10
748.43193575968371
 20
149.52142397827421
 30
0.0
  0
SEQEND
  5
14646
  8
0
  0
LINE
  5
E8F2
  8
0
 10
740.90008965565585
 20
144.52012727141911
 30
0.0
 11
748.43193575968371
 21
144.52012727141911
 31
0.0
  0
POLYLINE
  5
E8FB
  8
0
 66
     1
 10
0.0
 20
0.0
 30
0.0
  0
VERTEX
  5
14647
  8
0
 10
748.79101270766967
 20
162.02466574541199
 30
0.0
  0
VERTEX
  5
14648
  8
0
 10
748.78106045214645
 20
162.42618483048071
 30
0.0
  0
VERTEX
  5
14649
  8
0
 10
748.70247565874615
 20
163.2323276991265
 30
0.0
  0
VERTEX
  5
1464A
  8
0
 10
748.54383724711624
 20
164.07605369331191
 30
0.0
  0
VERTEX
  5
1464B
  8
0
 10
748.43193575968371
 20
164.52531409883949
 30
0.0
  0
SEQEND
  5
1464C
  8
0
  0
POLYLINE
  5
E8FE
  8
0
 66
     1
 10
0.0
 20
0.0
 30
0.0
  0
VERTEX
  5
1464D
  8
0
 10
748.43193575968371
 20
159.52401739198439
 30
0.0
  0
VERTEX
  5
1464E
  8
0
 10
748.54383724711624
 20
159.97327779751211
 30
0.0
  0
VERTEX
  5
1464F
  8
0
 10
748.70247565874615
 20
160.81700379169749
 30
0.0
  0
VERTEX
  5
14650
  8
0
 10
748.78106045214645
 20
161.62314666034331
 30
0.0
  0
VERTEX
  5
14651
  8
0
 10
748.79101270766967
 20
162.02466574541199
 30
0.0
  0
SEQEND
  5
14652
  8
0
  0
LINE
  5
E903
  8
0
 10
747.14888225607092
 20
164.52531409883949
 30
0.0
 11
748.43193575968371
 21
164.52531409883949
 31
0.0
  0
POLYLINE
  5
E905
  8
0
 66
     1
 10
0.0
 20
0.0
 30
0.0
  0
VERTEX
  5
14653
  8
0
 10
748.79101270766967
 20
154.52272068512929
 30
0.0
  0
VERTEX
  5
14654
  8
0
 10
748.78106045214645
 20
155.32575885526671
 30
0.0
  0
VERTEX
  5
14655
  8
0
 10
748.70247565874615
 20
156.93804459255799
 30
0.0
  0
VERTEX
  5
14656
  8
0
 10
748.54383724711624
 20
158.62549658092911
 30
0.0
  0
VERTEX
  5
14657
  8
0
 10
748.43193575968371
 20
159.52401739198439
 30
0.0
  0
SEQEND
  5
14658
  8
0
  0
LINE
  5
E907
  8
0
 10
743.50078807165517
 20
159.52401739198439
 30
0.0
 11
748.43193575968371
 21
159.52401739198439
 31
0.0
  0
POLYLINE
  5
E909
  8
0
 66
     1
 10
0.0
 20
0.0
 30
0.0
  0
VERTEX
  5
14659
  8
0
 10
740.58707342113655
 20
156.2570025008647
 30
0.0
  0
VERTEX
  5
1465A
  8
0
 10
740.57306700867775
 20
155.9673212789655
 30
0.0
  0
VERTEX
  5
1465B
  8
0
 10
740.55262016409449
 20
155.39012425666459
 30
0.0
  0
VERTEX
  5
1465C
  8
0
 10
740.54231289736288
 20
154.8127050381147
 30
0.0
  0
VERTEX
  5
1465D
  8
0
 10
740.54101270766978
 20
154.52272068512929
 30
0.0
  0
SEQEND
  5
1465E
  8
0
  0
POLYLINE
  5
E90A
  8
0
 66
     1
 10
0.0
 20
0.0
 30
0.0
  0
VERTEX
  5
1465F
  8
0
 10
740.54101270766978
 20
154.52272068512929
 30
0.0
  0
VERTEX
  5
14660
  8
0
 10
740.550964963193
 20
153.71968251499189
 30
0.0
  0
VERTEX
  5
14661
  8
0
 10
740.62954975659341
 20
152.10739677770059
 30
0.0
  0
VERTEX
  5
14662
  8
0
 10
740.78818816822331
 20
150.41994478932949
 30
0.0
  0
VERTEX
  5
14663
  8
0
 10
740.90008965565585
 20
149.52142397827421
 30
0.0
  0
SEQEND
  5
14664
  8
0
  0
LINE
  5
E90B
  8
0
 10
740.90008965565585
 20
149.52142397827421
 30
0.0
 11
748.43193575968371
 21
149.52142397827421
 31
0.0
  0
POLYLINE
  5
E90C
  8
0
 66
     1
 10
0.0
 20
0.0
 30
0.0
  0
VERTEX
  5
14665
  8
0
 10
748.43193575968371
 20
149.52142397827421
 30
0.0
  0
VERTEX
  5
14666
  8
0
 10
748.54383724711624
 20
150.41994478932949
 30
0.0
  0
VERTEX
  5
14667
  8
0
 10
748.70247565874615
 20
152.10739677770059
 30
0.0
  0
VERTEX
  5
14668
  8
0
 10
748.78106045214645
 20
153.71968251499189
 30
0.0
  0
VERTEX
  5
14669
  8
0
 10
748.79101270766967
 20
154.52272068512929
 30
0.0
  0
SEQEND
  5
1466A
  8
0
  0
ARC
  5
E932
  8
0
 10
689.04101270766967
 20
224.58519280822819
 30
0.0
 40
1.999999999999996
 50
106.30926544638641
 51
180.0
  0
ARC
  5
E933
  8
0
 10
689.04101270766967
 20
84.460248562030515
 30
0.0
 40
2.0000000000000009
 50
180.0
 51
253.69073455361359
  0
ARC
  5
E934
  8
0
 10
709.54101270766967
 20
154.52272068512909
 30
0.0
 40
75.000000000000043
 50
253.69073455361359
 51
286.30926544644012
  0
ARC
  5
E935
  8
0
 10
709.54101270766967
 20
154.52272068512929
 30
0.0
 40
75.000000000000199
 50
73.690734553613609
 51
106.30926544638641
  0
ARC
  5
E936
  8
0
 10
730.04101270766967
 20
224.58519280822819
 30
0.0
 40
1.9999999999999989
 50
0.0
 51
73.690734553613609
  0
ARC
  5
E937
  8
0
 10
730.04101270766967
 20
84.460248562030515
 30
0.0
 40
1.9999999999999889
 50
286.30926544644012
 51
0.0
  0
LINE
  5
E942
  8
0
 10
687.04101270766978
 20
224.58519280822819
 30
0.0
 11
687.04101270766978
 21
84.460248562030515
 31
0.0
  0
LINE
  5
E944
  8
0
 10
732.04101270766978
 20
224.58519280822819
 30
0.0
 11
732.04101270766978
 21
84.460248562030515
 31
0.0
  0
LINE
  5
E94A
  8
0
 10
392.53428809197112
 20
436.30690611222337
 30
0.0
 11
392.53428809197112
 21
436.4069061122234
 31
0.0
  0
LINE
  5
E94D
  8
0
 10
392.53428809197112
 20
498.20690611222358
 30
0.0
 11
392.53428809197112
 21
498.30690611222337
 31
0.0
  0
CIRCLE
  5
E952
  8
0
 10
463.23428809197088
 20
467.30690611222349
 30
0.0
 40
12.75
  0
CIRCLE
  5
E953
  8
0
 10
463.23428809197088
 20
467.30690611222349
 30
0.0
 40
40.349999999999987
  0
CIRCLE
  5
E954
  8
0
 10
463.23428809197088
 20
467.30690611222349
 30
0.0
 40
43.349999999999987
  0
CIRCLE
  5
E955
  8
0
 10
463.23428809197088
 20
467.30690611222349
 30
0.0
 40
47.0
  0
CIRCLE
  5
E956
  8
0
 10
463.23428809197088
 20
467.30690611222349
 30
0.0
 40
51.0
  0
LINE
  5
E95A
  8
0
 10
409.23428809197088
 20
436.30690611222337
 30
0.0
 11
409.23428809197088
 21
498.30690611222337
 31
0.0
  0
LINE
  5
E95C
  8
0
 10
392.53428809197112
 20
436.30690611222337
 30
0.0
 11
422.73737462933792
 21
436.30690611222337
 31
0.0
  0
LINE
  5
E95D
  8
0
 10
422.73737462933792
 20
498.30690611222337
 30
0.0
 11
392.53428809197112
 21
498.30690611222337
 31
0.0
  0
LINE
  5
E95E
  8
0
 10
392.68335702626018
 20
498.30690611222337
 30
0.0
 11
392.68335702626018
 21
498.20690611222358
 31
0.0
  0
LINE
  5
E967
  8
0
 10
392.68335702626018
 20
436.4069061122234
 30
0.0
 11
392.68335702626018
 21
436.30690611222337
 31
0.0
  0
LINE
  5
E968
  8
0
 10
409.23428809197088
 20
436.4069061122234
 30
0.0
 11
347.25094859036648
 21
436.4069061122234
 31
0.0
  0
LINE
  5
E969
  8
0
 10
395.76760908876167
 20
498.20690611222358
 30
0.0
 11
395.76760908876167
 21
436.4069061122234
 31
0.0
  0
LINE
  5
E96A
  8
0
 10
409.23428809197088
 20
498.20690611222358
 30
0.0
 11
347.25094859036648
 21
498.20690611222358
 31
0.0
  0
LINE
  5
E971
  8
0
 10
347.25094859036608
 20
498.20690611222358
 30
0.0
 11
347.25094859036608
 21
436.4069061122234
 31
0.0
  0
CIRCLE
  5
E983
  8
0
 10
463.23428809197088
 20
467.30690611222349
 30
0.0
 40
10.0
  0
LINE
  5
E984
  8
1
 10
315.90154731362639
 20
467.30690611222349
 30
0.0
 11
525.58368936871011
 21
467.30690611222349
 31
0.0
  0
LINE
  5
E985
  8
1
 10
463.23428809197088
 20
529.65630738896255
 30
0.0
 11
463.23428809197088
 21
404.95750483548431
 31
0.0
  0
LINE
  5
E986
  8
0
 10
415.54928809197099
 20
436.30690611222337
 30
0.0
 11
415.54928809197099
 21
435.70690611222358
 31
0.0
  0
LINE
  5
E987
  8
0
 10
398.91928809197088
 20
435.70690611222358
 30
0.0
 11
398.91928809197088
 21
436.30690611222337
 31
0.0
  0
LINE
  5
E988
  8
0
 10
413.23428809197088
 20
512.23340611222352
 30
0.0
 11
413.23428809197088
 21
510.30690611222337
 31
0.0
  0
LINE
  5
E989
  8
0
 10
401.23428809197088
 20
510.30690611222337
 30
0.0
 11
401.23428809197088
 21
512.23340611222352
 31
0.0
  0
LINE
  5
E98A
  8
0
 10
412.16078809197091
 20
513.30690611222349
 30
0.0
 11
413.23428809197088
 21
512.23340611222352
 31
0.0
  0
LINE
  5
E98B
  8
0
 10
401.23428809197088
 20
512.23340611222352
 30
0.0
 11
402.30778809197091
 21
513.30690611222349
 31
0.0
  0
LINE
  5
E98E
  8
0
 10
415.54928809197099
 20
510.30690611222337
 30
0.0
 11
415.54928809197099
 21
506.55690611222349
 31
0.0
  0
LINE
  5
E98F
  8
0
 10
398.91928809197088
 20
506.55690611222349
 30
0.0
 11
398.91928809197088
 21
510.30690611222337
 31
0.0
  0
LINE
  5
E994
  8
0
 10
401.23428809197088
 20
512.23340611222352
 30
0.0
 11
413.23428809197088
 21
512.23340611222352
 31
0.0
  0
LINE
  5
E995
  8
0
 10
402.30778809197091
 20
513.30690611222349
 30
0.0
 11
412.16078809197091
 21
513.30690611222349
 31
0.0
  0
LINE
  5
E996
  8
0
 10
398.57178809197097
 20
428.80690611222349
 30
0.0
 11
415.89678809197079
 21
428.80690611222349
 31
0.0
  0
LINE
  5
E997
  8
0
 10
398.57178809197097
 20
435.70690611222358
 30
0.0
 11
415.89678809197079
 21
435.70690611222358
 31
0.0
  0
POLYLINE
  5
E9A2
  8
0
 66
     1
 10
0.0
 20
0.0
 30
0.0
  0
VERTEX
  5
1466B
  8
0
 10
411.56553809197112
 20
435.70690611222358
 30
0.0
  0
VERTEX
  5
1466C
  8
0
 10
410.87008663642331
 20
435.69695385670019
 30
0.0
  0
VERTEX
  5
1466D
  8
0
 10
409.47380622976971
 20
435.61836906329989
 30
0.0
  0
VERTEX
  5
1466E
  8
0
 10
408.0124299401736
 20
435.45973065166999
 30
0.0
  0
VERTEX
  5
1466F
  8
0
 10
407.23428809197088
 20
435.34782916423751
 30
0.0
  0
SEQEND
  5
14670
  8
0
  0
POLYLINE
  5
E9A3
  8
0
 66
     1
 10
0.0
 20
0.0
 30
0.0
  0
VERTEX
  5
14671
  8
0
 10
407.23428809197088
 20
429.1659830602095
 30
0.0
  0
VERTEX
  5
14672
  8
0
 10
408.0124299401736
 20
429.05408157277702
 30
0.0
  0
VERTEX
  5
14673
  8
0
 10
409.47380622976971
 20
428.89544316114751
 30
0.0
  0
VERTEX
  5
14674
  8
0
 10
410.87008663642331
 20
428.8168583677467
 30
0.0
  0
VERTEX
  5
14675
  8
0
 10
411.56553809197112
 20
428.80690611222349
 30
0.0
  0
SEQEND
  5
14676
  8
0
  0
POLYLINE
  5
E9A4
  8
0
 66
     1
 10
0.0
 20
0.0
 30
0.0
  0
VERTEX
  5
14677
  8
0
 10
411.56553809197112
 20
428.80690611222349
 30
0.0
  0
VERTEX
  5
14678
  8
0
 10
412.26098954751842
 20
428.8168583677467
 30
0.0
  0
VERTEX
  5
14679
  8
0
 10
413.65726995417202
 20
428.89544316114751
 30
0.0
  0
VERTEX
  5
1467A
  8
0
 10
415.11864624376813
 20
429.05408157277702
 30
0.0
  0
VERTEX
  5
1467B
  8
0
 10
415.89678809197079
 20
429.1659830602095
 30
0.0
  0
SEQEND
  5
1467C
  8
0
  0
POLYLINE
  5
E9A5
  8
0
 66
     1
 10
0.0
 20
0.0
 30
0.0
  0
VERTEX
  5
1467D
  8
0
 10
415.89678809197079
 20
435.34782916423751
 30
0.0
  0
VERTEX
  5
1467E
  8
0
 10
415.11864624376813
 20
435.45973065166999
 30
0.0
  0
VERTEX
  5
1467F
  8
0
 10
413.65726995417202
 20
435.61836906329989
 30
0.0
  0
VERTEX
  5
14680
  8
0
 10
412.26098954751842
 20
435.69695385670019
 30
0.0
  0
VERTEX
  5
14681
  8
0
 10
411.56553809197112
 20
435.70690611222358
 30
0.0
  0
SEQEND
  5
14682
  8
0
  0
POLYLINE
  5
E9A6
  8
0
 66
     1
 10
0.0
 20
0.0
 30
0.0
  0
VERTEX
  5
14683
  8
0
 10
402.9030380919707
 20
435.70690611222358
 30
0.0
  0
VERTEX
  5
14684
  8
0
 10
402.2075866364234
 20
435.69695385670019
 30
0.0
  0
VERTEX
  5
14685
  8
0
 10
400.8113062297698
 20
435.61836906329989
 30
0.0
  0
VERTEX
  5
14686
  8
0
 10
399.34992994017369
 20
435.45973065166999
 30
0.0
  0
VERTEX
  5
14687
  8
0
 10
398.57178809197097
 20
435.34782916423751
 30
0.0
  0
SEQEND
  5
14688
  8
0
  0
POLYLINE
  5
E9A8
  8
0
 66
     1
 10
0.0
 20
0.0
 30
0.0
  0
VERTEX
  5
14689
  8
0
 10
398.57178809197097
 20
429.1659830602095
 30
0.0
  0
VERTEX
  5
1468A
  8
0
 10
399.34992994017369
 20
429.05408157277702
 30
0.0
  0
VERTEX
  5
1468B
  8
0
 10
400.8113062297698
 20
428.89544316114751
 30
0.0
  0
VERTEX
  5
1468C
  8
0
 10
402.2075866364234
 20
428.8168583677467
 30
0.0
  0
VERTEX
  5
1468D
  8
0
 10
402.9030380919707
 20
428.80690611222349
 30
0.0
  0
SEQEND
  5
1468E
  8
0
  0
POLYLINE
  5
E9A9
  8
0
 66
     1
 10
0.0
 20
0.0
 30
0.0
  0
VERTEX
  5
1468F
  8
0
 10
402.9030380919707
 20
428.80690611222349
 30
0.0
  0
VERTEX
  5
14690
  8
0
 10
403.59848954751851
 20
428.8168583677467
 30
0.0
  0
VERTEX
  5
14691
  8
0
 10
404.99476995417211
 20
428.89544316114751
 30
0.0
  0
VERTEX
  5
14692
  8
0
 10
406.45614624376822
 20
429.05408157277702
 30
0.0
  0
VERTEX
  5
14693
  8
0
 10
407.23428809197088
 20
429.1659830602095
 30
0.0
  0
SEQEND
  5
14694
  8
0
  0
LINE
  5
E9AA
  8
0
 10
407.23428809197088
 20
429.1659830602095
 30
0.0
 11
407.23428809197088
 21
435.34782916423751
 31
0.0
  0
POLYLINE
  5
E9AB
  8
0
 66
     1
 10
0.0
 20
0.0
 30
0.0
  0
VERTEX
  5
14695
  8
0
 10
407.23428809197088
 20
435.34782916423751
 30
0.0
  0
VERTEX
  5
14696
  8
0
 10
406.45614624376822
 20
435.45973065166999
 30
0.0
  0
VERTEX
  5
14697
  8
0
 10
404.99476995417211
 20
435.61836906329989
 30
0.0
  0
VERTEX
  5
14698
  8
0
 10
403.59848954751851
 20
435.69695385670019
 30
0.0
  0
VERTEX
  5
14699
  8
0
 10
402.9030380919707
 20
435.70690611222358
 30
0.0
  0
SEQEND
  5
1469A
  8
0
  0
LINE
  5
E9AF
  8
0
 10
398.91928809197088
 20
510.30690611222337
 30
0.0
 11
415.54928809197099
 21
510.30690611222337
 31
0.0
  0
LINE
  5
E9B0
  8
0
 10
398.57178809197097
 20
506.55690611222349
 30
0.0
 11
415.89678809197079
 21
506.55690611222349
 31
0.0
  0
POLYLINE
  5
E9BB
  8
0
 66
     1
 10
0.0
 20
0.0
 30
0.0
  0
VERTEX
  5
1469B
  8
0
 10
411.56553809197112
 20
506.55690611222349
 30
0.0
  0
VERTEX
  5
1469C
  8
0
 10
410.87008663642331
 20
506.54695385670061
 30
0.0
  0
VERTEX
  5
1469D
  8
0
 10
409.47380622976971
 20
506.4683690632998
 30
0.0
  0
VERTEX
  5
1469E
  8
0
 10
408.0124299401736
 20
506.30973065167041
 30
0.0
  0
VERTEX
  5
1469F
  8
0
 10
407.23428809197088
 20
506.19782916423742
 30
0.0
  0
SEQEND
  5
146A0
  8
0
  0
POLYLINE
  5
E9BC
  8
0
 66
     1
 10
0.0
 20
0.0
 30
0.0
  0
VERTEX
  5
146A1
  8
0
 10
407.23428809197088
 20
498.6659830602095
 30
0.0
  0
VERTEX
  5
146A2
  8
0
 10
408.0124299401736
 20
498.55408157277702
 30
0.0
  0
VERTEX
  5
146A3
  8
0
 10
409.47380622976971
 20
498.39544316114763
 30
0.0
  0
VERTEX
  5
146A4
  8
0
 10
410.87008663642331
 20
498.31685836774682
 30
0.0
  0
VERTEX
  5
146A5
  8
0
 10
411.56553809197112
 20
498.30690611222337
 30
0.0
  0
SEQEND
  5
146A6
  8
0
  0
POLYLINE
  5
E9BD
  8
0
 66
     1
 10
0.0
 20
0.0
 30
0.0
  0
VERTEX
  5
146A7
  8
0
 10
411.56553809197112
 20
498.30690611222337
 30
0.0
  0
VERTEX
  5
146A8
  8
0
 10
412.26098954751842
 20
498.31685836774682
 30
0.0
  0
VERTEX
  5
146A9
  8
0
 10
413.65726995417202
 20
498.39544316114763
 30
0.0
  0
VERTEX
  5
146AA
  8
0
 10
415.11864624376813
 20
498.55408157277702
 30
0.0
  0
VERTEX
  5
146AB
  8
0
 10
415.89678809197079
 20
498.6659830602095
 30
0.0
  0
SEQEND
  5
146AC
  8
0
  0
POLYLINE
  5
E9BE
  8
0
 66
     1
 10
0.0
 20
0.0
 30
0.0
  0
VERTEX
  5
146AD
  8
0
 10
415.89678809197079
 20
506.19782916423742
 30
0.0
  0
VERTEX
  5
146AE
  8
0
 10
415.11864624376813
 20
506.30973065167041
 30
0.0
  0
VERTEX
  5
146AF
  8
0
 10
413.65726995417202
 20
506.4683690632998
 30
0.0
  0
VERTEX
  5
146B0
  8
0
 10
412.26098954751842
 20
506.54695385670061
 30
0.0
  0
VERTEX
  5
146B1
  8
0
 10
411.56553809197112
 20
506.55690611222349
 30
0.0
  0
SEQEND
  5
146B2
  8
0
  0
POLYLINE
  5
E9BF
  8
0
 66
     1
 10
0.0
 20
0.0
 30
0.0
  0
VERTEX
  5
146B3
  8
0
 10
402.9030380919707
 20
506.55690611222349
 30
0.0
  0
VERTEX
  5
146B4
  8
0
 10
402.2075866364234
 20
506.54695385670061
 30
0.0
  0
VERTEX
  5
146B5
  8
0
 10
400.8113062297698
 20
506.4683690632998
 30
0.0
  0
VERTEX
  5
146B6
  8
0
 10
399.34992994017369
 20
506.30973065167041
 30
0.0
  0
VERTEX
  5
146B7
  8
0
 10
398.57178809197097
 20
506.19782916423742
 30
0.0
  0
SEQEND
  5
146B8
  8
0
  0
POLYLINE
  5
E9C1
  8
0
 66
     1
 10
0.0
 20
0.0
 30
0.0
  0
VERTEX
  5
146B9
  8
0
 10
398.57178809197097
 20
498.6659830602095
 30
0.0
  0
VERTEX
  5
146BA
  8
0
 10
399.34992994017369
 20
498.55408157277702
 30
0.0
  0
VERTEX
  5
146BB
  8
0
 10
400.8113062297698
 20
498.39544316114763
 30
0.0
  0
VERTEX
  5
146BC
  8
0
 10
402.2075866364234
 20
498.31685836774682
 30
0.0
  0
VERTEX
  5
146BD
  8
0
 10
402.9030380919707
 20
498.30690611222337
 30
0.0
  0
SEQEND
  5
146BE
  8
0
  0
POLYLINE
  5
E9C2
  8
0
 66
     1
 10
0.0
 20
0.0
 30
0.0
  0
VERTEX
  5
146BF
  8
0
 10
402.9030380919707
 20
498.30690611222337
 30
0.0
  0
VERTEX
  5
146C0
  8
0
 10
403.59848954751851
 20
498.31685836774682
 30
0.0
  0
VERTEX
  5
146C1
  8
0
 10
404.99476995417211
 20
498.39544316114763
 30
0.0
  0
VERTEX
  5
146C2
  8
0
 10
406.45614624376822
 20
498.55408157277702
 30
0.0
  0
VERTEX
  5
146C3
  8
0
 10
407.23428809197088
 20
498.6659830602095
 30
0.0
  0
SEQEND
  5
146C4
  8
0
  0
LINE
  5
E9C3
  8
0
 10
407.23428809197088
 20
498.6659830602095
 30
0.0
 11
407.23428809197088
 21
506.19782916423742
 31
0.0
  0
POLYLINE
  5
E9C4
  8
0
 66
     1
 10
0.0
 20
0.0
 30
0.0
  0
VERTEX
  5
146C5
  8
0
 10
407.23428809197088
 20
506.19782916423742
 30
0.0
  0
VERTEX
  5
146C6
  8
0
 10
406.45614624376822
 20
506.30973065167041
 30
0.0
  0
VERTEX
  5
146C7
  8
0
 10
404.99476995417211
 20
506.4683690632998
 30
0.0
  0
VERTEX
  5
146C8
  8
0
 10
403.59848954751851
 20
506.54695385670061
 30
0.0
  0
VERTEX
  5
146C9
  8
0
 10
402.9030380919707
 20
506.55690611222349
 30
0.0
  0
SEQEND
  5
146CA
  8
0
  0
LINE
  5
E9CD
  8
1
 10
407.23428809197088
 20
417.45750483548431
 30
0.0
 11
407.23428809197088
 21
524.65630738896255
 31
0.0
  0
LINE
  5
1193D
  8
0
 10
117.6775634763375
 20
264.22272068512922
 30
0.0
 11
117.6775634763375
 21
267.52272068512929
 31
0.0
  0
LINE
  5
1193E
  8
0
 10
92.177563476337568
 20
267.52272068512929
 30
0.0
 11
92.177563476337568
 21
264.22272068512922
 31
0.0
  0
LINE
  5
1193F
  8
2
 10
114.9396204168883
 20
264.22272068512922
 30
0.0
 11
94.91550653578679
 21
264.22272068512922
 31
0.0
  0
ARC
  5
11940
  8
0
 10
64.577563476337673
 20
261.2227206851291
 30
0.0
 40
2.9999999999999849
 50
90.0
 51
180.0
  0
ARC
  5
11941
  8
0
 10
145.27756347633749
 20
261.2227206851291
 30
0.0
 40
2.9999999999999849
 50
0.0
 51
90.0
  0
LINE
  5
11942
  8
0
 10
148.27756347633749
 20
260.72272068512922
 30
0.0
 11
148.27756347633749
 21
261.2227206851291
 31
0.0
  0
LINE
  5
11943
  8
0
 10
61.57756347633768
 20
261.2227206851291
 30
0.0
 11
61.57756347633768
 21
260.72272068512922
 31
0.0
  0
ARC
  5
11944
  8
0
 10
57.927563476337582
 20
256.72272068512922
 30
0.0
 40
4.0000000000000142
 50
90.0
 51
180.0
  0
ARC
  5
11945
  8
0
 10
151.92756347633761
 20
256.72272068512922
 30
0.0
 40
4.0000000000000142
 50
0.0
 51
90.0
  0
LINE
  5
11946
  8
0
 10
155.92756347633761
 20
255.72272068512919
 30
0.0
 11
155.92756347633761
 21
256.72272068512922
 31
0.0
  0
LINE
  5
11947
  8
0
 10
53.927563476337582
 20
256.72272068512922
 30
0.0
 11
53.927563476337582
 21
255.72272068512919
 31
0.0
  0
LINE
  5
11948
  8
0
 10
152.42756347633761
 20
199.10817957300131
 30
0.0
 11
152.42756347633761
 21
255.72272068512919
 31
0.0
  0
LINE
  5
11949
  8
0
 10
57.427563476337582
 20
255.72272068512919
 30
0.0
 11
57.427563476337582
 21
199.10817957300131
 31
0.0
  0
LINE
  5
11952
  8
0
 10
92.177563476337568
 20
267.52272068512929
 30
0.0
 11
117.6775634763375
 21
267.52272068512929
 31
0.0
  0
LINE
  5
11953
  8
0
 10
64.577563476337673
 20
264.22272068512922
 30
0.0
 11
145.27756347633749
 21
264.22272068512922
 31
0.0
  0
LINE
  5
11955
  8
0
 10
57.927563476337582
 20
260.72272068512922
 30
0.0
 11
151.92756347633761
 21
260.72272068512922
 31
0.0
  0
LINE
  5
11957
  8
0
 10
53.927563476337582
 20
255.72272068512919
 30
0.0
 11
155.92756347633761
 21
255.72272068512919
 31
0.0
  0
LINE
  5
11958
  8
0
 10
135.92756347633761
 20
253.72272068512919
 30
0.0
 11
73.927563476337582
 21
253.72272068512919
 31
0.0
  0
LINE
  5
11959
  8
0
 10
135.92756347633761
 20
156.21273410166981
 30
0.0
 11
135.92756347633761
 21
253.72272068512919
 31
0.0
  0
LINE
  5
1195A
  8
0
 10
73.927563476337582
 20
253.72272068512919
 30
0.0
 11
73.927563476337582
 21
143.52272068512929
 31
0.0
  0
LINE
  5
1195E
  8
0
 10
135.92756347633761
 20
156.21273410166981
 30
0.0
 11
135.92756347633761
 21
143.52272068512929
 31
0.0
  0
LINE
  5
1195F
  8
0
 10
132.92756347633761
 20
143.52272068512929
 30
0.0
 11
135.92756347633761
 21
143.52272068512929
 31
0.0
  0
LINE
  5
11960
  8
0
 10
73.927563476337582
 20
143.52272068512929
 30
0.0
 11
76.927563476337582
 21
143.52272068512929
 31
0.0
  0
POLYLINE
  5
11966
  8
0
 66
     1
 10
0.0
 20
0.0
 30
0.0
  0
VERTEX
  5
146CB
  8
0
 10
67.332748494377483
 20
164.52531409883861
 30
0.0
  0
VERTEX
  5
146CC
  8
0
 10
66.964838798920482
 20
165.08029826929331
 30
0.0
  0
VERTEX
  5
146CD
  8
0
 10
65.645020534552259
 20
167.279451090485
 30
0.0
  0
VERTEX
  5
146CE
  8
0
 10
64.414802713500649
 20
169.5512027805037
 30
0.0
  0
VERTEX
  5
146CF
  8
0
 10
63.276991367500607
 20
171.89037164938509
 30
0.0
  0
VERTEX
  5
146D0
  8
0
 10
62.234181756261933
 20
174.2916222337924
 30
0.0
  0
VERTEX
  5
146D1
  8
0
 10
61.749154520008688
 20
175.51382177777759
 30
0.0
  0
VERTEX
  5
146D2
  8
0
 10
61.288752447883319
 20
176.7494774667955
 30
0.0
  0
VERTEX
  5
146D3
  8
0
 10
60.44285989352101
 20
179.2583311706376
 30
0.0
  0
VERTEX
  5
146D4
  8
0
 10
59.698433508691323
 20
181.81246084399211
 30
0.0
  0
VERTEX
  5
146D5
  8
0
 10
59.057171272423147
 20
184.40604071454709
 30
0.0
  0
VERTEX
  5
146D6
  8
0
 10
58.520535854297123
 20
187.03315502714079
 30
0.0
  0
VERTEX
  5
146D7
  8
0
 10
58.089751278213043
 20
189.68781153714161
 30
0.0
  0
VERTEX
  5
146D8
  8
0
 10
57.914369610386068
 20
191.02357798512821
 30
0.0
  0
VERTEX
  5
146D9
  8
0
 10
57.765800130481693
 20
192.3639551782955
 30
0.0
  0
VERTEX
  5
146DA
  8
0
 10
57.549421318625718
 20
195.0554818738633
 30
0.0
  0
VERTEX
  5
146DB
  8
0
 10
57.44110838598499
 20
197.75625245954799
 30
0.0
  0
VERTEX
  5
146DC
  8
0
 10
57.427563476337582
 20
199.10817957300131
 30
0.0
  0
SEQEND
  5
146DD
  8
0
  0
POLYLINE
  5
11969
  8
0
 66
     1
 10
0.0
 20
0.0
 30
0.0
  0
VERTEX
  5
146DE
  8
0
 10
152.42756347633761
 20
199.10817957300131
 30
0.0
  0
VERTEX
  5
146DF
  8
0
 10
152.41401856668969
 20
197.75625245954799
 30
0.0
  0
VERTEX
  5
146E0
  8
0
 10
152.30570563404939
 20
195.0554818738633
 30
0.0
  0
VERTEX
  5
146E1
  8
0
 10
152.08932682219341
 20
192.3639551782955
 30
0.0
  0
VERTEX
  5
146E2
  8
0
 10
151.94075734228909
 20
191.02357798512821
 30
0.0
  0
VERTEX
  5
146E3
  8
0
 10
151.76537567446209
 20
189.68781153714161
 30
0.0
  0
VERTEX
  5
146E4
  8
0
 10
151.33459109837801
 20
187.03315502714079
 30
0.0
  0
VERTEX
  5
146E5
  8
0
 10
150.79795568025199
 20
184.40604071454709
 30
0.0
  0
VERTEX
  5
146E6
  8
0
 10
150.15669344398381
 20
181.81246084399211
 30
0.0
  0
VERTEX
  5
146E7
  8
0
 10
149.41226705915409
 20
179.2583311706376
 30
0.0
  0
VERTEX
  5
146E8
  8
0
 10
148.56637450479181
 20
176.7494774667955
 30
0.0
  0
VERTEX
  5
146E9
  8
0
 10
148.10597243266639
 20
175.51382177777759
 30
0.0
  0
VERTEX
  5
146EA
  8
0
 10
147.6209451964132
 20
174.2916222337924
 30
0.0
  0
VERTEX
  5
146EB
  8
0
 10
146.57813558517449
 20
171.89037164938509
 30
0.0
  0
VERTEX
  5
146EC
  8
0
 10
145.44032423917449
 20
169.5512027805037
 30
0.0
  0
VERTEX
  5
146ED
  8
0
 10
144.2101064181229
 20
167.279451090485
 30
0.0
  0
VERTEX
  5
146EE
  8
0
 10
142.89028815375471
 20
165.08029826929331
 30
0.0
  0
VERTEX
  5
146EF
  8
0
 10
141.48387984949019
 20
162.95876041448599
 30
0.0
  0
VERTEX
  5
146F0
  8
0
 10
140.74919938585569
 20
161.92861652698039
 30
0.0
  0
VERTEX
  5
146F1
  8
0
 10
139.99408941393361
 20
160.91967658988301
 30
0.0
  0
VERTEX
  5
146F2
  8
0
 10
138.4243149438862
 20
158.9676977880363
 30
0.0
  0
VERTEX
  5
146F3
  8
0
 10
136.77813697354571
 20
157.10727632167499
 30
0.0
  0
VERTEX
  5
146F4
  8
0
 10
135.92756347633761
 20
156.21273410166981
 30
0.0
  0
SEQEND
  5
146F5
  8
0
  0
LINE
  5
1196B
  8
0
 10
76.927563476337582
 20
143.52272068512929
 30
0.0
 11
76.927563476337582
 21
240.52272068512889
 31
0.0
  0
LINE
  5
11970
  8
0
 10
132.92756347633761
 20
240.52272068512889
 30
0.0
 11
132.92756347633761
 21
143.52272068512929
 31
0.0
  0
LINE
  5
11976
  8
0
 10
74.027563476337491
 20
227.52272068512929
 30
0.0
 11
76.927563476337582
 21
227.52272068512929
 31
0.0
  0
LINE
  5
11977
  8
0
 10
132.92756347633761
 20
227.52272068512929
 30
0.0
 11
135.82756347633759
 21
227.52272068512929
 31
0.0
  0
LINE
  5
1198B
  8
0
 10
135.92756347633761
 20
146.20772068512929
 30
0.0
 11
136.52756347633749
 21
146.20772068512929
 31
0.0
  0
LINE
  5
1198D
  8
0
 10
60.001063476337549
 20
148.52272068512929
 30
0.0
 11
61.927563476337582
 21
148.52272068512929
 31
0.0
  0
LINE
  5
1198E
  8
0
 10
61.927563476337582
 20
160.52272068512929
 30
0.0
 11
60.001063476337549
 21
160.52272068512929
 31
0.0
  0
LINE
  5
1198F
  8
0
 10
58.927563476337582
 20
149.59622068512931
 30
0.0
 11
60.001063476337549
 21
148.52272068512929
 31
0.0
  0
LINE
  5
11990
  8
0
 10
60.001063476337549
 20
160.52272068512929
 30
0.0
 11
58.927563476337582
 21
159.4492206851294
 31
0.0
  0
LINE
  5
11991
  8
0
 10
143.42756347633761
 20
163.1852206851292
 30
0.0
 11
143.06848652835151
 21
164.52531409883949
 31
0.0
  0
LINE
  5
11992
  8
0
 10
143.06848652835151
 20
144.52012727141911
 30
0.0
 11
143.42756347633761
 21
145.86022068512921
 31
0.0
  0
LINE
  5
11994
  8
0
 10
136.52756347633749
 20
145.86022068512921
 30
0.0
 11
136.8866404243235
 21
144.52012727141911
 31
0.0
  0
LINE
  5
11997
  8
0
 10
61.927563476337582
 20
146.20772068512929
 30
0.0
 11
65.677563476337582
 21
146.20772068512929
 31
0.0
  0
LINE
  5
11998
  8
0
 10
65.677563476337582
 20
162.8377206851294
 30
0.0
 11
61.927563476337582
 21
162.8377206851294
 31
0.0
  0
LINE
  5
1199A
  8
0
 10
73.568486528351514
 20
144.52012727141911
 30
0.0
 11
73.927563476337582
 21
145.86022068512921
 31
0.0
  0
LINE
  5
1199B
  8
0
 10
66.03664042432365
 20
164.52531409883949
 30
0.0
 11
65.677563476337582
 21
163.1852206851292
 31
0.0
  0
LINE
  5
1199C
  8
0
 10
65.677563476337582
 20
145.86022068512921
 30
0.0
 11
66.03664042432365
 21
144.52012727141911
 31
0.0
  0
LINE
  5
1199F
  8
0
 10
76.927563476337582
 20
144.52272068512929
 30
0.0
 11
82.427563476337582
 21
144.52272068512929
 31
0.0
  0
LINE
  5
119A1
  8
0
 10
127.4275634763376
 20
144.52272068512929
 30
0.0
 11
132.92756347633761
 21
144.52272068512929
 31
0.0
  0
LINE
  5
119A2
  8
0
 10
132.92756347633761
 20
164.52272068512929
 30
0.0
 11
127.4275634763376
 21
164.52272068512929
 31
0.0
  0
LINE
  5
119A4
  8
0
 10
82.427563476337582
 20
164.52272068512929
 30
0.0
 11
76.927563476337582
 21
164.52272068512929
 31
0.0
  0
LINE
  5
119A5
  8
0
 10
60.001063476337549
 20
160.52272068512929
 30
0.0
 11
60.001063476337549
 21
148.52272068512929
 31
0.0
  0
LINE
  5
119A6
  8
0
 10
58.927563476337582
 20
159.4492206851294
 30
0.0
 11
58.927563476337582
 21
149.59622068512931
 31
0.0
  0
LINE
  5
119A7
  8
0
 10
143.42756347633761
 20
163.1852206851292
 30
0.0
 11
143.42756347633761
 21
145.86022068512921
 31
0.0
  0
LINE
  5
119A9
  8
0
 10
136.52756347633749
 20
156.84078896362101
 30
0.0
 11
136.52756347633749
 21
145.86022068512921
 31
0.0
  0
POLYLINE
  5
119AA
  8
0
 66
     1
 10
0.0
 20
0.0
 30
0.0
  0
VERTEX
  5
146F6
  8
0
 10
143.06848652835151
 20
149.52142397827421
 30
0.0
  0
VERTEX
  5
146F7
  8
0
 10
143.18038801578399
 20
149.0721635727466
 30
0.0
  0
VERTEX
  5
146F8
  8
0
 10
143.3390264274139
 20
148.22843757856089
 30
0.0
  0
VERTEX
  5
146F9
  8
0
 10
143.41761122081419
 20
147.42229470991529
 30
0.0
  0
VERTEX
  5
146FA
  8
0
 10
143.42756347633761
 20
147.02077562484669
 30
0.0
  0
SEQEND
  5
146FB
  8
0
  0
POLYLINE
  5
119AB
  8
0
 66
     1
 10
0.0
 20
0.0
 30
0.0
  0
VERTEX
  5
146FC
  8
0
 10
143.42756347633761
 20
147.02077562484669
 30
0.0
  0
VERTEX
  5
146FD
  8
0
 10
143.41761122081419
 20
146.61925653977801
 30
0.0
  0
VERTEX
  5
146FE
  8
0
 10
143.3390264274139
 20
145.81311367113219
 30
0.0
  0
VERTEX
  5
146FF
  8
0
 10
143.18038801578399
 20
144.96938767694681
 30
0.0
  0
VERTEX
  5
14700
  8
0
 10
143.06848652835151
 20
144.52012727141911
 30
0.0
  0
SEQEND
  5
14701
  8
0
  0
POLYLINE
  5
119AC
  8
0
 66
     1
 10
0.0
 20
0.0
 30
0.0
  0
VERTEX
  5
14702
  8
0
 10
136.8866404243235
 20
144.52012727141911
 30
0.0
  0
VERTEX
  5
14703
  8
0
 10
136.774738936891
 20
144.96938767694681
 30
0.0
  0
VERTEX
  5
14704
  8
0
 10
136.6161005252616
 20
145.81311367113219
 30
0.0
  0
VERTEX
  5
14705
  8
0
 10
136.53751573186079
 20
146.61925653977801
 30
0.0
  0
VERTEX
  5
14706
  8
0
 10
136.52756347633749
 20
147.02077562484669
 30
0.0
  0
SEQEND
  5
14707
  8
0
  0
POLYLINE
  5
119AD
  8
0
 66
     1
 10
0.0
 20
0.0
 30
0.0
  0
VERTEX
  5
14708
  8
0
 10
136.52756347633749
 20
147.02077562484669
 30
0.0
  0
VERTEX
  5
14709
  8
0
 10
136.53751573186079
 20
147.42229470991529
 30
0.0
  0
VERTEX
  5
1470A
  8
0
 10
136.6161005252616
 20
148.22843757856089
 30
0.0
  0
VERTEX
  5
1470B
  8
0
 10
136.774738936891
 20
149.0721635727466
 30
0.0
  0
VERTEX
  5
1470C
  8
0
 10
136.8866404243235
 20
149.52142397827421
 30
0.0
  0
SEQEND
  5
1470D
  8
0
  0
LINE
  5
119AE
  8
0
 10
143.06848652835151
 20
144.52012727141911
 30
0.0
 11
136.8866404243235
 21
144.52012727141911
 31
0.0
  0
POLYLINE
  5
119B8
  8
0
 66
     1
 10
0.0
 20
0.0
 30
0.0
  0
VERTEX
  5
1470E
  8
0
 10
143.06848652835151
 20
164.52531409883949
 30
0.0
  0
VERTEX
  5
1470F
  8
0
 10
143.18038801578399
 20
164.07605369331191
 30
0.0
  0
VERTEX
  5
14710
  8
0
 10
143.3390264274139
 20
163.2323276991265
 30
0.0
  0
VERTEX
  5
14711
  8
0
 10
143.41761122081419
 20
162.42618483048071
 30
0.0
  0
VERTEX
  5
14712
  8
0
 10
143.42756347633761
 20
162.02466574541199
 30
0.0
  0
SEQEND
  5
14713
  8
0
  0
POLYLINE
  5
119B9
  8
0
 66
     1
 10
0.0
 20
0.0
 30
0.0
  0
VERTEX
  5
14714
  8
0
 10
143.42756347633761
 20
162.02466574541199
 30
0.0
  0
VERTEX
  5
14715
  8
0
 10
143.41761122081419
 20
161.62314666034331
 30
0.0
  0
VERTEX
  5
14716
  8
0
 10
143.3390264274139
 20
160.81700379169769
 30
0.0
  0
VERTEX
  5
14717
  8
0
 10
143.18038801578399
 20
159.97327779751211
 30
0.0
  0
VERTEX
  5
14718
  8
0
 10
143.06848652835151
 20
159.52401739198439
 30
0.0
  0
SEQEND
  5
14719
  8
0
  0
LINE
  5
119BE
  8
0
 10
143.06848652835151
 20
164.52531409883949
 30
0.0
 11
142.53543302473869
 21
164.52531409883949
 31
0.0
  0
POLYLINE
  5
119C1
  8
0
 66
     1
 10
0.0
 20
0.0
 30
0.0
  0
VERTEX
  5
1471A
  8
0
 10
136.52756347633749
 20
154.52272068512929
 30
0.0
  0
VERTEX
  5
1471B
  8
0
 10
136.5300559148049
 20
154.92427026385121
 30
0.0
  0
VERTEX
  5
1471C
  8
0
 10
136.54977188577959
 20
155.7238934597062
 30
0.0
  0
VERTEX
  5
1471D
  8
0
 10
136.58889691217649
 20
156.5272352888303
 30
0.0
  0
VERTEX
  5
1471E
  8
0
 10
136.6157652133079
 20
156.93338109864379
 30
0.0
  0
SEQEND
  5
1471F
  8
0
  0
LINE
  5
119C3
  8
0
 10
143.06848652835151
 20
159.52401739198439
 30
0.0
 11
138.88733884032311
 21
159.52401739198439
 31
0.0
  0
POLYLINE
  5
119C5
  8
0
 66
     1
 10
0.0
 20
0.0
 30
0.0
  0
VERTEX
  5
14720
  8
0
 10
143.06848652835151
 20
159.52401739198439
 30
0.0
  0
VERTEX
  5
14721
  8
0
 10
143.18038801578399
 20
158.62549658092911
 30
0.0
  0
VERTEX
  5
14722
  8
0
 10
143.3390264274139
 20
156.93804459255799
 30
0.0
  0
VERTEX
  5
14723
  8
0
 10
143.41761122081419
 20
155.32575885526671
 30
0.0
  0
VERTEX
  5
14724
  8
0
 10
143.42756347633761
 20
154.52272068512929
 30
0.0
  0
SEQEND
  5
14725
  8
0
  0
POLYLINE
  5
119C6
  8
0
 66
     1
 10
0.0
 20
0.0
 30
0.0
  0
VERTEX
  5
14726
  8
0
 10
143.42756347633761
 20
154.52272068512929
 30
0.0
  0
VERTEX
  5
14727
  8
0
 10
143.41761122081419
 20
153.71968251499189
 30
0.0
  0
VERTEX
  5
14728
  8
0
 10
143.3390264274139
 20
152.10739677770059
 30
0.0
  0
VERTEX
  5
14729
  8
0
 10
143.18038801578399
 20
150.41994478932949
 30
0.0
  0
VERTEX
  5
1472A
  8
0
 10
143.06848652835151
 20
149.52142397827421
 30
0.0
  0
SEQEND
  5
1472B
  8
0
  0
LINE
  5
119C7
  8
0
 10
143.06848652835151
 20
149.52142397827421
 30
0.0
 11
136.8866404243235
 21
149.52142397827421
 31
0.0
  0
POLYLINE
  5
119C8
  8
0
 66
     1
 10
0.0
 20
0.0
 30
0.0
  0
VERTEX
  5
1472C
  8
0
 10
136.8866404243235
 20
149.52142397827421
 30
0.0
  0
VERTEX
  5
1472D
  8
0
 10
136.774738936891
 20
150.41994478932949
 30
0.0
  0
VERTEX
  5
1472E
  8
0
 10
136.6161005252616
 20
152.10739677770059
 30
0.0
  0
VERTEX
  5
1472F
  8
0
 10
136.53751573186079
 20
153.71968251499189
 30
0.0
  0
VERTEX
  5
14730
  8
0
 10
136.52756347633749
 20
154.52272068512929
 30
0.0
  0
SEQEND
  5
14731
  8
0
  0
LINE
  5
119C9
  8
0
 10
61.927563476337582
 20
162.8377206851294
 30
0.0
 11
61.927563476337582
 21
146.20772068512929
 31
0.0
  0
LINE
  5
119CA
  8
0
 10
65.677563476337582
 20
163.1852206851292
 30
0.0
 11
65.677563476337582
 21
145.86022068512921
 31
0.0
  0
POLYLINE
  5
119CB
  8
0
 66
     1
 10
0.0
 20
0.0
 30
0.0
  0
VERTEX
  5
14732
  8
0
 10
73.568486528351514
 20
149.52142397827421
 30
0.0
  0
VERTEX
  5
14733
  8
0
 10
73.680388015784047
 20
149.0721635727466
 30
0.0
  0
VERTEX
  5
14734
  8
0
 10
73.839026427413955
 20
148.22843757856089
 30
0.0
  0
VERTEX
  5
14735
  8
0
 10
73.917611220814251
 20
147.42229470991529
 30
0.0
  0
VERTEX
  5
14736
  8
0
 10
73.927563476337582
 20
147.02077562484669
 30
0.0
  0
SEQEND
  5
14737
  8
0
  0
POLYLINE
  5
119CC
  8
0
 66
     1
 10
0.0
 20
0.0
 30
0.0
  0
VERTEX
  5
14738
  8
0
 10
73.927563476337582
 20
147.02077562484669
 30
0.0
  0
VERTEX
  5
14739
  8
0
 10
73.917611220814251
 20
146.61925653977801
 30
0.0
  0
VERTEX
  5
1473A
  8
0
 10
73.839026427413955
 20
145.81311367113219
 30
0.0
  0
VERTEX
  5
1473B
  8
0
 10
73.680388015784047
 20
144.9693876769465
 30
0.0
  0
VERTEX
  5
1473C
  8
0
 10
73.568486528351514
 20
144.52012727141911
 30
0.0
  0
SEQEND
  5
1473D
  8
0
  0
POLYLINE
  5
119CD
  8
0
 66
     1
 10
0.0
 20
0.0
 30
0.0
  0
VERTEX
  5
1473E
  8
0
 10
66.03664042432365
 20
144.52012727141911
 30
0.0
  0
VERTEX
  5
1473F
  8
0
 10
65.924738936891117
 20
144.9693876769465
 30
0.0
  0
VERTEX
  5
14740
  8
0
 10
65.766100525261194
 20
145.81311367113219
 30
0.0
  0
VERTEX
  5
14741
  8
0
 10
65.687515731860913
 20
146.61925653977801
 30
0.0
  0
VERTEX
  5
14742
  8
0
 10
65.677563476337582
 20
147.02077562484669
 30
0.0
  0
SEQEND
  5
14743
  8
0
  0
POLYLINE
  5
119CE
  8
0
 66
     1
 10
0.0
 20
0.0
 30
0.0
  0
VERTEX
  5
14744
  8
0
 10
65.677563476337582
 20
147.02077562484669
 30
0.0
  0
VERTEX
  5
14745
  8
0
 10
65.687515731860913
 20
147.42229470991529
 30
0.0
  0
VERTEX
  5
14746
  8
0
 10
65.766100525261194
 20
148.22843757856089
 30
0.0
  0
VERTEX
  5
14747
  8
0
 10
65.924738936891117
 20
149.0721635727466
 30
0.0
  0
VERTEX
  5
14748
  8
0
 10
66.03664042432365
 20
149.52142397827421
 30
0.0
  0
SEQEND
  5
14749
  8
0
  0
LINE
  5
119CF
  8
0
 10
73.568486528351514
 20
144.52012727141911
 30
0.0
 11
66.03664042432365
 21
144.52012727141911
 31
0.0
  0
POLYLINE
  5
119D8
  8
0
 66
     1
 10
0.0
 20
0.0
 30
0.0
  0
VERTEX
  5
1474A
  8
0
 10
65.677563476337582
 20
162.02466574541199
 30
0.0
  0
VERTEX
  5
1474B
  8
0
 10
65.687515731860913
 20
162.42618483048071
 30
0.0
  0
VERTEX
  5
1474C
  8
0
 10
65.766100525261194
 20
163.2323276991265
 30
0.0
  0
VERTEX
  5
1474D
  8
0
 10
65.924738936891117
 20
164.07605369331191
 30
0.0
  0
VERTEX
  5
1474E
  8
0
 10
66.03664042432365
 20
164.52531409883949
 30
0.0
  0
SEQEND
  5
1474F
  8
0
  0
POLYLINE
  5
119DB
  8
0
 66
     1
 10
0.0
 20
0.0
 30
0.0
  0
VERTEX
  5
14750
  8
0
 10
66.03664042432365
 20
159.52401739198439
 30
0.0
  0
VERTEX
  5
14751
  8
0
 10
65.924738936891117
 20
159.97327779751211
 30
0.0
  0
VERTEX
  5
14752
  8
0
 10
65.766100525261194
 20
160.81700379169749
 30
0.0
  0
VERTEX
  5
14753
  8
0
 10
65.687515731860913
 20
161.62314666034331
 30
0.0
  0
VERTEX
  5
14754
  8
0
 10
65.677563476337582
 20
162.02466574541199
 30
0.0
  0
SEQEND
  5
14755
  8
0
  0
POLYLINE
  5
119E2
  8
0
 66
     1
 10
0.0
 20
0.0
 30
0.0
  0
VERTEX
  5
14756
  8
0
 10
65.677563476337582
 20
154.52272068512929
 30
0.0
  0
VERTEX
  5
14757
  8
0
 10
65.687515731860913
 20
155.32575885526671
 30
0.0
  0
VERTEX
  5
14758
  8
0
 10
65.766100525261194
 20
156.93804459255799
 30
0.0
  0
VERTEX
  5
14759
  8
0
 10
65.924738936891117
 20
158.62549658092911
 30
0.0
  0
VERTEX
  5
1475A
  8
0
 10
66.03664042432365
 20
159.52401739198439
 30
0.0
  0
SEQEND
  5
1475B
  8
0
  0
POLYLINE
  5
119E7
  8
0
 66
     1
 10
0.0
 20
0.0
 30
0.0
  0
VERTEX
  5
1475C
  8
0
 10
73.927563476337582
 20
154.52272068512929
 30
0.0
  0
VERTEX
  5
1475D
  8
0
 10
73.917611220814251
 20
153.71968251499189
 30
0.0
  0
VERTEX
  5
1475E
  8
0
 10
73.839026427413955
 20
152.10739677770059
 30
0.0
  0
VERTEX
  5
1475F
  8
0
 10
73.680388015784047
 20
150.41994478932949
 30
0.0
  0
VERTEX
  5
14760
  8
0
 10
73.568486528351514
 20
149.52142397827421
 30
0.0
  0
SEQEND
  5
14761
  8
0
  0
LINE
  5
119E8
  8
0
 10
73.568486528351514
 20
149.52142397827421
 30
0.0
 11
66.03664042432365
 21
149.52142397827421
 31
0.0
  0
POLYLINE
  5
119E9
  8
0
 66
     1
 10
0.0
 20
0.0
 30
0.0
  0
VERTEX
  5
14762
  8
0
 10
66.03664042432365
 20
149.52142397827421
 30
0.0
  0
VERTEX
  5
14763
  8
0
 10
65.924738936891117
 20
150.41994478932949
 30
0.0
  0
VERTEX
  5
14764
  8
0
 10
65.766100525261194
 20
152.10739677770059
 30
0.0
  0
VERTEX
  5
14765
  8
0
 10
65.687515731860913
 20
153.71968251499189
 30
0.0
  0
VERTEX
  5
14766
  8
0
 10
65.677563476337582
 20
154.52272068512929
 30
0.0
  0
SEQEND
  5
14767
  8
0
  0
ARC
  5
11A10
  8
0
 10
125.4275634763376
 20
84.460248562030515
 30
0.0
 40
2.0000000000000009
 50
286.30926544638641
 51
0.0
  0
ARC
  5
11A11
  8
0
 10
104.9275634763376
 20
154.52272068512909
 30
0.0
 40
75.000000000000043
 50
253.69073455355991
 51
286.30926544638641
  0
ARC
  5
11A14
  8
0
 10
84.427563476337596
 20
84.460248562030515
 30
0.0
 40
1.9999999999999889
 50
180.0
 51
253.69073455355991
  0
LINE
  5
11A1F
  8
0
 10
127.4275634763376
 20
224.58519280822819
 30
0.0
 11
127.4275634763376
 21
84.460248562030515
 31
0.0
  0
LINE
  5
11A21
  8
0
 10
82.427563476337582
 20
224.58519280822819
 30
0.0
 11
82.427563476337582
 21
84.460248562030515
 31
0.0
  0
LINE
  5
12E35
  8
0
 10
347.25094859036608
 20
447.9069061122234
 30
0.0
 11
347.25094859036608
 21
486.70690611222358
 31
0.0
  0
LINE
  5
12E36
  8
0
 10
327.25094859036562
 20
451.28538542890811
 30
0.0
 11
327.25094859036562
 21
483.32842679554159
 31
0.0
  0
LINE
  5
12E37
  8
0
 10
331.79510885439367
 20
448.30690611222337
 30
0.0
 11
331.79510885439367
 21
486.30690611222337
 31
0.0
  0
LINE
  5
12E38
  8
0
 10
344.25094859036608
 20
451.30690611222349
 30
0.0
 11
344.25094859036659
 21
483.30690611222371
 31
0.0
  0
LINE
  5
12E39
  8
0
 10
347.25094859036608
 20
448.30690611222337
 30
0.0
 11
328.84505828898182
 21
448.30690611222337
 31
0.0
  0
LINE
  5
12E3A
  8
0
 10
344.25094859036608
 20
451.30690611222349
 30
0.0
 11
347.25094859036608
 21
451.30690611222349
 31
0.0
  0
LINE
  5
12E3B
  8
0
 10
347.25094859036608
 20
486.30690611222337
 30
0.0
 11
328.84505828898182
 21
486.30690611222337
 31
0.0
  0
LINE
  5
12E3C
  8
0
 10
344.25094859036739
 20
483.30690611222371
 30
0.0
 11
347.25094859036699
 21
483.30690611222349
 31
0.0
  0
ARC
  5
12E3D
  8
0
 10
331.58738798400731
 20
451.69045713866848
 30
0.0
 40
4.3553174057440378
 50
185.3365778530424
 51
230.9756258438635
  0
ARC
  5
12E3E
  8
0
 10
331.58738798400731
 20
482.92335508577838
 30
0.0
 40
4.3553174057440378
 50
129.0243741561365
 51
174.6634221469576
  0
ARC
  5
12E3F
  8
0
 10
407.73428809198589
 20
467.30690611221979
 30
0.0
 40
75.000000000015589
 50
163.69073455358861
 51
165.32515025712209
  0
ARC
  5
12E40
  8
0
 10
337.67181596887173
 20
487.80690611222349
 30
0.0
 40
1.9999999999999989
 50
90.0
 51
163.69073455358861
  0
LINE
  5
12E41
  8
0
 10
337.67181596887173
 20
489.80690611222337
 30
0.0
 11
347.25106001366657
 21
489.80690611222337
 31
0.0
  0
ARC
  5
12E42
  8
0
 10
407.73428809198589
 20
467.30690611222758
 30
0.0
 40
75.000000000015589
 50
194.6748497428527
 51
196.30926544641139
  0
ARC
  5
12E43
  8
0
 10
337.67181596887173
 20
446.80690611222388
 30
0.0
 40
1.9999999999999989
 50
196.30926544641139
 51
270.0
  0
LINE
  5
12E44
  8
0
 10
337.67181596887173
 20
444.80690611222388
 30
0.0
 11
347.25106001366657
 21
444.80690611222388
 31
0.0
  0
LINE
  5
12E46
  8
1
 10
463.23428809197088
 20
283.24626953769513
 30
0.0
 11
463.23428809197088
 21
225.72982135463241
 31
0.0
  0
CIRCLE
  5
12E47
  8
0
 10
407.23428809197088
 20
154.5227206851286
 30
0.0
 40
8.6625000000000121
  0
LINE
  5
12E48
  8
1
 10
316.51073923940572
 20
154.5227206851286
 30
0.0
 11
497.95783694453712
 21
154.5227206851286
 31
0.0
  0
LINE
  5
12E49
  8
1
 10
407.23428809197128
 20
63.799171832563161
 30
0.0
 11
407.23428809197128
 21
245.24626953769439
 31
0.0
  0
LINE
  5
12E4A
  8
0
 10
407.23428809197128
 20
164.52531409883909
 30
0.0
 11
415.89678809197079
 21
159.5240173919837
 31
0.0
  0
LINE
  5
12E4B
  8
0
 10
415.89678809197079
 20
159.5240173919837
 30
0.0
 11
415.89678809197079
 21
149.5214239782735
 31
0.0
  0
LINE
  5
12E4C
  8
0
 10
415.89678809197079
 20
149.5214239782735
 30
0.0
 11
407.23428809197128
 21
144.5201272714182
 31
0.0
  0
LINE
  5
12E4D
  8
0
 10
407.23428809197048
 20
164.52531409883909
 30
0.0
 11
398.57178809197097
 21
159.52401739198399
 31
0.0
  0
LINE
  5
12E4E
  8
0
 10
398.57178809197097
 20
159.52401739198399
 30
0.0
 11
398.57178809197057
 21
149.5214239782735
 31
0.0
  0
LINE
  5
12E4F
  8
0
 10
398.57178809197057
 20
149.5214239782735
 30
0.0
 11
407.23428809196997
 21
144.5201272714182
 31
0.0
  0
LINE
  5
12E50
  8
0
 10
327.25094859036648
 20
241.64507352113759
 30
0.0
 11
330.46488663879973
 21
237.81485130554279
 31
0.0
  0
LINE
  5
12E51
  8
0
 10
329.16605969816419
 20
243.25204254535419
 30
0.0
 11
327.25094859036648
 21
241.64507352113759
 31
0.0
  0
LINE
  5
12E52
  8
0
 10
331.79510885439407
 20
240.11886376831009
 30
0.0
 11
329.16605969816419
 21
243.25204254535419
 31
0.0
  0
LINE
  5
12E53
  8
0
 10
347.960515289998
 20
237.87458171074579
 30
0.0
 11
331.79510885439407
 21
240.11886376831009
 31
0.0
  0
LINE
  5
12E54
  8
0
 10
347.27708290342252
 20
240.42518610098361
 30
0.0
 11
346.97154126079658
 21
240.60455485311809
 31
0.0
  0
LINE
  5
12E55
  8
0
 10
330.46488663879973
 20
237.81485130554279
 30
0.0
 11
348.67445333843079
 21
235.2101286405389
 31
0.0
  0
LINE
  5
12E56
  8
0
 10
344.70532887081748
 20
244.38118162637059
 30
0.0
 11
347.24936256433381
 21
244.03085828092941
 31
0.0
  0
LINE
  5
12E57
  8
0
 10
344.25441057871831
 20
241.2707409322586
 30
0.0
 11
344.70532887081748
 21
244.38118162637059
 31
0.0
  0
LINE
  5
12E58
  8
0
 10
346.90579017849723
 20
240.98361012288481
 30
0.0
 11
347.24936256433381
 21
244.03085828092961
 31
0.0
  0
LINE
  5
12E59
  8
0
 10
344.25441057871831
 20
241.2707409322586
 30
0.0
 11
344.99235757127099
 21
238.28665814932469
 31
0.0
  0
LINE
  5
12E5A
  8
0
 10
346.90579017849723
 20
240.98361012288481
 30
0.0
 11
346.97154126079658
 21
240.60455485311809
 31
0.0
  0
LINE
  5
12E5B
  8
3
 10
412.16078809197091
 20
513.30690611222349
 30
0.0
 11
412.16078809197091
 21
510.30690611222337
 31
0.0
  0
LINE
  5
12E5C
  8
3
 10
402.30778809197091
 20
513.30690611222349
 30
0.0
 11
402.30778809197091
 21
510.30690611222337
 31
0.0
  0
LINE
  5
12E9C
  8
3
 10
755.54101270766967
 20
159.4492206851294
 30
0.0
 11
752.54101270766967
 21
159.4492206851294
 31
0.0
  0
LINE
  5
12E9D
  8
3
 10
755.54101270766967
 20
149.59622068512931
 30
0.0
 11
752.54101270766967
 21
149.59622068512931
 31
0.0
  0
LINE
  5
12EDD
  8
1
 10
649.71345170777749
 20
154.52272068512889
 30
0.0
 11
769.36857370762846
 21
154.5227206851286
 31
0.0
  0
LINE
  5
12EDE
  8
1
 10
709.54101270770298
 20
63.799171832563161
 30
0.0
 11
709.54101270770298
 21
283.24626953769513
 31
0.0
  0
LINE
  5
12EE2
  8
0
 10
681.54101270766967
 20
235.2101286405389
 30
0.0
 11
737.54101270766978
 21
235.2101286405389
 31
0.0
  0
LINE
  5
12EE4
  8
3
 10
58.927563476337582
 20
159.4492206851294
 30
0.0
 11
61.927563476337127
 21
159.4492206851294
 31
0.0
  0
LINE
  5
12EE5
  8
3
 10
58.927563476337582
 20
149.59622068512931
 30
0.0
 11
61.927563476337127
 21
149.59622068512911
 31
0.0
  0
LINE
  5
12F9E
  8
1
 10
52.449195218759087
 20
154.52272068512889
 30
0.0
 11
157.40593173385059
 21
154.52272068512889
 31
0.0
  0
LINE
  5
12F9F
  8
1
 10
104.9275634763048
 20
63.799171832563381
 30
0.0
 11
104.9275634763048
 21
283.24626953769513
 31
0.0
  0
LINE
  5
12FA0
  8
0
 10
85.92756347630484
 20
235.2101286405389
 30
0.0
 11
123.9275634763048
 21
235.2101286405389
 31
0.0
  0
LINE
  5
12FA1
  8
0
 10
85.92756347630484
 20
235.2101286405389
 30
0.0
 11
85.92756347630484
 21
243.25204254535419
 31
0.0
  0
LINE
  5
12FA2
  8
0
 10
88.927563476304385
 20
243.25204254535419
 30
0.0
 11
88.927563476304385
 21
244.38118162637059
 31
0.0
  0
LINE
  5
12FA3
  8
0
 10
85.92756347630484
 20
243.25204254535419
 30
0.0
 11
123.9275634763048
 21
243.25204254535419
 31
0.0
  0
LINE
  5
12FA4
  8
0
 10
123.9275634763048
 20
235.2101286405389
 30
0.0
 11
123.9275634763048
 21
243.25204254535419
 31
0.0
  0
LINE
  5
12FA5
  8
0
 10
88.927563476304385
 20
244.38118162637059
 30
0.0
 11
120.92756347630529
 21
244.38118162637059
 31
0.0
  0
LINE
  5
12FA6
  8
0
 10
120.92756347630529
 20
243.25204254535419
 30
0.0
 11
120.92756347630529
 21
244.38118162637059
 31
0.0
  0
LINE
  5
12FA7
  8
0
 10
123.9275634763048
 20
237.81485130554259
 30
0.0
 11
85.92756347630484
 21
237.81485130554259
 31
0.0
  0
LINE
  5
12FAA
  8
0
 10
73.568486528351514
 20
164.52531409883861
 30
0.0
 11
66.03664042432365
 21
164.52531409883861
 31
0.0
  0
POLYLINE
  5
12FAB
  8
0
 66
     1
 10
0.0
 20
0.0
 30
0.0
  0
VERTEX
  5
14768
  8
0
 10
73.568486528351514
 20
159.52401739198439
 30
0.0
  0
VERTEX
  5
14769
  8
0
 10
73.680388015784047
 20
159.97327779751211
 30
0.0
  0
VERTEX
  5
1476A
  8
0
 10
73.839026427413955
 20
160.81700379169749
 30
0.0
  0
VERTEX
  5
1476B
  8
0
 10
73.917611220814251
 20
161.62314666034331
 30
0.0
  0
VERTEX
  5
1476C
  8
0
 10
73.927563476337582
 20
162.02466574541199
 30
0.0
  0
SEQEND
  5
1476D
  8
0
  0
POLYLINE
  5
12FAC
  8
0
 66
     1
 10
0.0
 20
0.0
 30
0.0
  0
VERTEX
  5
1476E
  8
0
 10
73.927563476337582
 20
162.02466574541199
 30
0.0
  0
VERTEX
  5
1476F
  8
0
 10
73.917611220814251
 20
162.42618483048071
 30
0.0
  0
VERTEX
  5
14770
  8
0
 10
73.839026427413955
 20
163.2323276991265
 30
0.0
  0
VERTEX
  5
14771
  8
0
 10
73.680388015784047
 20
164.07605369331191
 30
0.0
  0
VERTEX
  5
14772
  8
0
 10
73.568486528351514
 20
164.52531409883949
 30
0.0
  0
SEQEND
  5
14773
  8
0
  0
POLYLINE
  5
12FAD
  8
0
 66
     1
 10
0.0
 20
0.0
 30
0.0
  0
VERTEX
  5
14774
  8
0
 10
73.927563476337582
 20
154.52272068512929
 30
0.0
  0
VERTEX
  5
14775
  8
0
 10
73.917611220814251
 20
155.32575885526671
 30
0.0
  0
VERTEX
  5
14776
  8
0
 10
73.839026427413955
 20
156.93804459255799
 30
0.0
  0
VERTEX
  5
14777
  8
0
 10
73.680388015784047
 20
158.62549658092911
 30
0.0
  0
VERTEX
  5
14778
  8
0
 10
73.568486528351514
 20
159.52401739198439
 30
0.0
  0
SEQEND
  5
14779
  8
0
  0
LINE
  5
12FAE
  8
0
 10
73.568486528351514
 20
159.52401739198439
 30
0.0
 11
66.03664042432365
 21
159.52401739198439
 31
0.0
  0
LINE
  5
12FAF
  8
0
 10
73.927563476337582
 20
240.52272068512889
 30
0.0
 11
85.92756347630484
 21
240.52272068512869
 31
0.0
  0
ARC
  5
12FB0
  8
0
 10
104.9275634763048
 20
154.52272068512929
 30
0.0
 40
75.000000000000199
 50
73.690734553613609
 51
106.30926544638641
  0
ARC
  5
12FB1
  8
0
 10
84.427563476304826
 20
224.58519280822819
 30
0.0
 40
1.999999999999996
 50
106.30926544638641
 51
180.0
  0
ARC
  5
12FB2
  8
0
 10
125.4275634763048
 20
224.58519280822819
 30
0.0
 40
1.9999999999999989
 50
0.0
 51
73.690734553613609
  0
LINE
  5
12FB6
  8
0
 10
123.9275634763048
 20
240.52272068512869
 30
0.0
 11
135.92756347633761
 21
240.52272068512889
 31
0.0
  0
LINE
  5
1430B
  8
0
 10
415.89678809197079
 20
506.55690611222349
 30
0.0
 11
415.89678809197079
 21
498.30690611222337
 31
0.0
  0
LINE
  5
1430C
  8
0
 10
398.57178809197097
 20
506.55690611222349
 30
0.0
 11
398.57178809197097
 21
498.30690611222337
 31
0.0
  0
LINE
  5
1430D
  8
0
 10
415.89678809197079
 20
435.70690611222358
 30
0.0
 11
415.89678809197079
 21
428.80690611222349
 31
0.0
  0
LINE
  5
1430E
  8
0
 10
398.57178809197097
 20
435.70690611222358
 30
0.0
 11
398.57178809197097
 21
428.80690611222349
 31
0.0
  0
TEXT
  5
1436A
  8
0
 62
     3
 10
0.0
 20
0.0
 30
0.0
 40
10.0
  1
CAG1-150FBF
  7
STANDARD1
  0
ENDSEC
  0
EOF
