  0
SECTION
  2
HEADER
  9
$ACADVER
  1
AC1009
  9
$INSBASE
 10
0.0
 20
0.0
 30
0.0
  9
$EXTMIN
 10
0.0
 20
-2.960436562073669
 30
0.0
  9
$EXTMAX
 10
733.9872985033312
 20
538.03045496478921
 30
0.0
  9
$LIMMIN
 10
0.0
 20
0.0
  9
$LIMMAX
 10
375.0
 20
270.0
  9
$ORTHOMODE
 70
     1
  9
$REGENMODE
 70
     1
  9
$FILLMODE
 70
     1
  9
$QTEXTMODE
 70
     0
  9
$MIRRTEXT
 70
     1
  9
$DRAGMODE
 70
     2
  9
$LTSCALE
 40
10.0
  9
$OSMODE
 70
  3071
  9
$ATTMODE
 70
     1
  9
$TEXTSIZE
 40
5.0
  9
$TRACEWID
 40
0.05
  9
$TEXTSTYLE
  7
STANDARD
  9
$CLAYER
  8
0
  9
$CELTYPE
  6
BYLAYER
  9
$CECOLOR
 62
     6
  9
$DIMSCALE
 40
1.0
  9
$DIMASZ
 40
3.0
  9
$DIMEXO
 40
2.0
  9
$DIMDLI
 40
0.38
  9
$DIMRND
 40
0.0
  9
$DIMDLE
 40
0.0
  9
$DIMEXE
 40
2.0
  9
$DIMTP
 40
0.0
  9
$DIMTM
 40
0.0
  9
$DIMTXT
 40
3.2000000000000002
  9
$DIMCEN
 40
0.0
  9
$DIMTSZ
 40
0.0
  9
$DIMTOL
 70
     0
  9
$DIMLIM
 70
     0
  9
$DIMTIH
 70
     0
  9
$DIMTOH
 70
     0
  9
$DIMSE1
 70
     0
  9
$DIMSE2
 70
     0
  9
$DIMTAD
 70
     1
  9
$DIMZIN
 70
     8
  9
$DIMBLK
  1

  9
$DIMASO
 70
     0
  9
$DIMSHO
 70
     0
  9
$DIMPOST
  1

  9
$DIMAPOST
  1

  9
$DIMALT
 70
     0
  9
$DIMALTD
 70
     2
  9
$DIMALTF
 40
25.399999999999999
  9
$DIMLFAC
 40
1.0
  9
$DIMTOFL
 70
     0
  9
$DIMTVP
 40
1.6000000000000001
  9
$DIMTIX
 70
     1
  9
$DIMSOXD
 70
     0
  9
$DIMSAH
 70
     0
  9
$DIMBLK1
  1

  9
$DIMBLK2
  1

  9
$DIMSTYLE
  2
STANDARD
  9
$DIMCLRD
 70
     0
  9
$DIMCLRE
 70
     0
  9
$DIMCLRT
 70
     0
  9
$DIMTFAC
 40
1.0
  9
$DIMGAP
 40
1.1999999999999991
  9
$LUNITS
 70
     2
  9
$LUPREC
 70
     4
  9
$SKETCHINC
 40
0.1
  9
$FILLETRAD
 40
0.0
  9
$AUNITS
 70
     0
  9
$AUPREC
 70
     4
  9
$MENU
  1
ACAD
  9
$ELEVATION
 40
0.0
  9
$PELEVATION
 40
0.0
  9
$THICKNESS
 40
0.0
  9
$LIMCHECK
 70
     0
  9
$BLIPMODE
 70
     0
  9
$CHAMFERA
 40
0.0
  9
$CHAMFERB
 40
0.0
  9
$SKPOLY
 70
     0
  9
$TDCREATE
 40
2448055.7149187499
  9
$TDUPDATE
 40
2456598.5779979168
  9
$TDINDWG
 40
2.0634260068999999
  9
$TDUSRTIMER
 40
2.0634260068999999
  9
$USRTIMER
 70
     1
  9
$ANGBASE
 50
0.0
  9
$ANGDIR
 70
     0
  9
$PDMODE
 70
     0
  9
$PDSIZE
 40
0.0
  9
$PLINEWID
 40
0.0
  9
$COORDS
 70
     1
  9
$SPLFRAME
 70
     0
  9
$SPLINETYPE
 70
     6
  9
$SPLINESEGS
 70
     8
  9
$ATTDIA
 70
     0
  9
$ATTREQ
 70
     1
  9
$HANDLING
 70
     1
  9
$HANDSEED
  5
14385
  9
$SURFTAB1
 70
     6
  9
$SURFTAB2
 70
     6
  9
$SURFTYPE
 70
     6
  9
$SURFU
 70
     6
  9
$SURFV
 70
     6
  9
$UCSNAME
  2

  9
$UCSORG
 10
0.0
 20
0.0
 30
0.0
  9
$UCSXDIR
 10
1.0
 20
0.0
 30
0.0
  9
$UCSYDIR
 10
0.0
 20
1.0
 30
0.0
  9
$PUCSNAME
  2

  9
$PUCSORG
 10
0.0
 20
0.0
 30
0.0
  9
$PUCSXDIR
 10
1.0
 20
0.0
 30
0.0
  9
$PUCSYDIR
 10
0.0
 20
1.0
 30
0.0
  9
$USERI1
 70
     0
  9
$USERI2
 70
     0
  9
$USERI3
 70
     0
  9
$USERI4
 70
     0
  9
$USERI5
 70
     0
  9
$USERR1
 40
0.0
  9
$USERR2
 40
0.0
  9
$USERR3
 40
0.0
  9
$USERR4
 40
0.0
  9
$USERR5
 40
0.0
  9
$WORLDVIEW
 70
     1
  9
$SHADEDGE
 70
     3
  9
$SHADEDIF
 70
    70
  9
$TILEMODE
 70
     1
  9
$MAXACTVP
 70
    16
  9
$PLIMCHECK
 70
     0
  9
$PEXTMIN
 10
1.0000000000000000E+020
 20
1.0000000000000000E+020
 30
1.0000000000000000E+020
  9
$PEXTMAX
 10
-1.0000000000000000E+020
 20
-1.0000000000000000E+020
 30
-1.0000000000000000E+020
  9
$PLIMMIN
 10
0.0
 20
0.0
  9
$PLIMMAX
 10
12.0
 20
9.0
  9
$UNITMODE
 70
     0
  9
$VISRETAIN
 70
     0
  9
$PLINEGEN
 70
     1
  9
$PSLTSCALE
 70
     0
  0
ENDSEC
  0
SECTION
  2
TABLES
  0
TABLE
  2
VPORT
 70
     1
  0
VPORT
  2
*ACTIVE
 70
     0
 10
0.0
 20
0.0
 11
1.0
 21
1.0
 12
381.98469721847692
 22
267.5374839535022
 13
0.0
 23
0.0
 14
5.0
 24
5.0
 15
10.0
 25
10.0
 16
0.0
 26
0.0
 36
1.0
 17
0.0
 27
0.0
 37
0.0
 40
545.87096969821459
 41
1.831871345029239
 42
50.0
 43
0.0
 44
0.0
 50
0.0
 51
0.0
 71
     0
 72
   500
 73
     1
 74
     1
 75
     0
 76
     0
 77
     0
 78
     2
  0
ENDTAB
  0
TABLE
  2
LTYPE
 70
     3
  0
LTYPE
  2
CONTINUOUS
 70
     0
  3
実線
 72
    65
 73
     0
 40
0.0
  0
LTYPE
  2
CENTER
 70
     0
  3
____ _ ____ _ ____ _ ____ _ ____ _ ____ _ ____
 72
    65
 73
     4
 40
2.0
 49
1.25
 49
-0.25
 49
0.25
 49
-0.25
  0
LTYPE
  2
PHANTOM2
 70
     0
  3
___ _ _ ___ _ _ ___ _ _ ___ _ _
 72
    65
 73
     6
 40
1.25
 49
0.625
 49
-0.125
 49
0.125
 49
-0.125
 49
0.125
 49
-0.125
  0
ENDTAB
  0
TABLE
  2
LAYER
 70
     4
  0
LAYER
  2
0
 70
     0
 62
     7
  6
CONTINUOUS
  0
LAYER
  2
1
 70
     0
 62
     1
  6
CENTER
  0
LAYER
  2
DEFPOINTS
 70
     0
 62
     7
  6
CONTINUOUS
  0
LAYER
  2
3
 70
     0
 62
     3
  6
CONTINUOUS
  0
ENDTAB
  0
TABLE
  2
STYLE
 70
     3
  0
STYLE
  2
STANDARD
 70
     0
 40
0.0
 41
1.0
 50
0.0
 71
     0
 42
5.0
  3
simplex.shx
  4
bigfont.shx
  0
STYLE
  2
07500
 70
     0
 40
0.0
 41
0.75
 50
0.0
 71
     0
 42
0.2
  3
simplex.shx
  4
bigfont.shx
  0
STYLE
  2
STANDARD1
 70
     0
 40
0.0
 41
1.0
 50
0.0
 71
     0
 42
3.0
  3
txt
  4

  0
ENDTAB
  0
TABLE
  2
VIEW
 70
     2
  0
VIEW
  2
ALL
 70
     0
 40
270.0
 10
220.99159663865549
 20
135.0
 41
0.0
 11
0.0
 21
0.0
 31
1.0
 12
0.0
 22
0.0
 32
0.0
 42
0.0
 43
0.0
 44
0.0
 50
0.0
 71
     0
  0
VIEW
  2
OLE1
 70
     0
 40
168.2487151179721
 10
2892.3009567448912
 20
702.51600084347126
 41
162.5749581879237
 11
0.0
 21
0.0
 31
1.0
 12
0.0
 22
0.0
 32
0.0
 42
50.0
 43
0.0
 44
0.0
 50
0.0
 71
     0
  0
ENDTAB
  0
TABLE
  2
UCS
 70
     0
  0
ENDTAB
  0
TABLE
  2
APPID
 70
    48
  0
APPID
  2
ACAD
 70
     0
  0
APPID
  2
DCO15
 70
     0
  0
APPID
  2
GENIUS_GENOREF_13
 70
     0
  0
APPID
  2
GENIUS_GENOENT_13
 70
     0
  0
APPID
  2
GENIUS_GENBH_13
 70
     0
  0
APPID
  2
GENIUS_GENOBJ_13
 70
     0
  0
APPID
  2
GENIUS_GENODEF_13
 70
     0
  0
APPID
  2
GENIUS_GENOLIS_13
 70
     0
  0
APPID
  2
GENIUS_GENOBJ-NBEHI-BHF_13
 70
     0
  0
APPID
  2
GENIUS_GENOBJ-NBEHI-BHB_13
 70
     0
  0
APPID
  2
GENIUS_GENOBJ-F-PART_13
 70
     0
  0
APPID
  2
GENIUS_GEFSTDP_13
 70
     0
  0
APPID
  2
GENIUS_GENOBJ-N-RSSYM_13
 70
     0
  0
APPID
  2
GENIUS_GENSYMENT_13
 70
     0
  0
APPID
  2
GENIUS_GENOBJ-N-TIT_13
 70
     0
  0
APPID
  2
GENIUS_GENTITLE_13
 70
     0
  0
APPID
  2
GENIUS_GENZVEED_13
 70
     0
  0
APPID
  2
GENIUS_GENOBJ-N-LEADER_13
 70
     0
  0
APPID
  2
GENIUS_GENOBJ-N-FIL_13
 70
     0
  0
APPID
  2
GENIUS_GENOBJ-N-SEC_13
 70
     0
  0
APPID
  2
GENIUS_GENOBJ-N-CRS_13
 70
     0
  0
APPID
  2
GENIUS_GENOBJ-N-ZOO_13
 70
     0
  0
APPID
  2
GENIUS_GENZOO_13
 70
     0
  0
APPID
  2
GENIUS_GENOBJ-F-TOL_13
 70
     0
  0
APPID
  2
GENIUS_GENFIL_13
 70
     0
  0
APPID
  2
GENIUS_GENOBJ-N-CHA_13
 70
     0
  0
APPID
  2
_CALL_MAC$
 70
     0
  0
APPID
  2
ASM_BASE
 70
     0
  0
APPID
  2
ASM_EXPLO_VER_2_00
 70
     0
  0
APPID
  2
ASM_CADM_VER_12_00
 70
     0
  0
APPID
  2
ASM_BASEFORO
 70
     0
  0
APPID
  2
ASM_BASETRAVI
 70
     0
  0
APPID
  2
ASM_BASETRAVI1
 70
     0
  0
APPID
  2
ASM_GRUPPI
 70
     0
  0
APPID
  2
ASM_CADM_ALBERO
 70
     0
  0
APPID
  2
ASM_GOLE
 70
     0
  0
APPID
  2
ACAD_MLEADERVER
 70
     0
  0
APPID
  2
ACAD_DSTYLE_DIMJAG
 70
     0
  0
APPID
  2
ACAD_DSTYLE_DIMTALN
 70
     0
  0
APPID
  2
ACAD_EXEMPT_FROM_CAD_STANDARDS
 70
     0
  0
APPID
  2
ACAD_DSTYLE_DIMRADIAL_EXTENSION
 70
     0
  0
APPID
  2
ACAD_PSEXT
 70
     0
  0
APPID
  2
ACAD_DSTYLE_DIMBREAK
 70
     0
  0
APPID
  2
ACAECLAYERSTANDARD
 70
     0
  0
APPID
  2
ACCMTRANSPARENCY
 70
     0
  0
APPID
  2
GRADIENTCOLOR1ACI
 70
     0
  0
APPID
  2
GRADIENTCOLOR2ACI
 70
     0
  0
APPID
  2
ACAD_NAV_VCDISPLAY
 70
     0
  0
ENDTAB
  0
TABLE
  2
DIMSTYLE
 70
     1
  0
DIMSTYLE
  2
STANDARD
 70
     0
  3

  4

  5

  6

  7

 40
1.0
 41
0.18
 42
0.0625
 43
0.38
 44
0.18
 45
0.0
 46
0.0
 47
0.0
 48
0.0
140
0.18
141
0.09
142
0.0
143
25.399999999999999
144
1.0
145
0.0
146
1.0
147
0.09
 71
     0
 72
     0
 73
     1
 74
     1
 75
     0
 76
     0
 77
     0
 78
     0
170
     0
171
     2
172
     0
173
     0
174
     0
175
     0
176
     0
177
     0
178
     0
  0
ENDTAB
  0
ENDSEC
  0
SECTION
  2
BLOCKS
  0
BLOCK
  8
0
  2
$MODEL_SPACE
 70
     0
 10
0.0
 20
0.0
 30
0.0
  3
$MODEL_SPACE
  1

  0
ENDBLK
  5
36
  8
0
  0
BLOCK
 67
     1
  8
0
  2
$PAPER_SPACE
 70
     0
 10
0.0
 20
0.0
 30
0.0
  3
$PAPER_SPACE
  1

  0
ENDBLK
  5
34
 67
     1
  8
0
  0
ENDSEC
  0
SECTION
  2
ENTITIES
  0
CIRCLE
  5
CEE9
  8
0
 10
463.23428809197088
 20
467.30690611222349
 30
0.0
 40
8.9249999999999972
  0
LINE
  5
CEEA
  8
0
 10
392.53428809197089
 20
436.30690611222337
 30
0.0
 11
392.53428809197089
 21
439.30690611222337
 31
0.0
  0
LINE
  5
CEEB
  8
0
 10
392.53428809197089
 20
495.30690611222337
 30
0.0
 11
392.53428809197089
 21
498.30690611222337
 31
0.0
  0
LINE
  5
CEF0
  8
0
 10
393.23428809197088
 20
423.30690611222337
 30
0.0
 11
393.23428809197088
 21
511.30690611222337
 31
0.0
  0
ARC
  5
CEF1
  8
0
 10
404.23428809197088
 20
423.30690611222337
 30
0.0
 40
11.000000000000011
 50
180.0
 51
270.0
  0
LINE
  5
CEF2
  8
0
 10
522.23428809197094
 20
412.30690611222349
 30
0.0
 11
404.23428809197088
 21
412.30690611222349
 31
0.0
  0
ARC
  5
CEF3
  8
0
 10
522.23428809197094
 20
423.30690611222337
 30
0.0
 40
11.0
 50
270.0
 51
0.0
  0
LINE
  5
CEF4
  8
0
 10
533.23428809197094
 20
511.30690611222337
 30
0.0
 11
533.23428809197094
 21
423.30690611222337
 31
0.0
  0
ARC
  5
CEF5
  8
0
 10
522.23428809197094
 20
511.30690611222337
 30
0.0
 40
11.00000000000003
 50
0.0
 51
90.0
  0
LINE
  5
CEF6
  8
0
 10
404.23428809197088
 20
522.30690611222349
 30
0.0
 11
522.23428809197094
 21
522.30690611222349
 31
0.0
  0
ARC
  5
CEF7
  8
0
 10
404.23428809197088
 20
511.30690611222337
 30
0.0
 40
11.000000000000011
 50
90.0
 51
180.0000008537736
  0
ARC
  5
CEF8
  8
0
 10
515.73428809197094
 20
503.80690611222349
 30
0.0
 40
5.5
 50
180.0
 51
0.0
  0
LINE
  5
CEF9
  8
0
 10
510.23428809197088
 20
503.80690611222349
 30
0.0
 11
510.23428809197088
 21
510.80690611222337
 31
0.0
  0
ARC
  5
CEFA
  8
0
 10
515.73428809197094
 20
510.80690611222337
 30
0.0
 40
5.5
 50
0.0
 51
180.0
  0
LINE
  5
CEFB
  8
0
 10
521.23428809197094
 20
510.80690611222337
 30
0.0
 11
521.23428809197094
 21
503.80690611222349
 31
0.0
  0
LINE
  5
CEFC
  8
0
 10
510.23428809197088
 20
423.80690611222337
 30
0.0
 11
510.23428809197088
 21
430.80690611222337
 31
0.0
  0
ARC
  5
CEFD
  8
0
 10
515.73428809197094
 20
430.80690611222337
 30
0.0
 40
5.5
 50
0.0
 51
180.0
  0
LINE
  5
CEFE
  8
0
 10
521.23428809197094
 20
430.80690611222337
 30
0.0
 11
521.23428809197094
 21
423.80690611222337
 31
0.0
  0
ARC
  5
CEFF
  8
0
 10
515.73428809197094
 20
423.80690611222337
 30
0.0
 40
5.5
 50
180.0
 51
0.0
  0
CIRCLE
  5
CF0C
  8
0
 10
463.23428809197088
 20
467.30690611222349
 30
0.0
 40
13.57900689360916
  0
CIRCLE
  5
CF0E
  8
0
 10
463.23428809197088
 20
467.30690611222349
 30
0.0
 40
16.449140521614989
  0
CIRCLE
  5
CF10
  8
0
 10
463.23428809197088
 20
467.30690611222349
 30
0.0
 40
20.175000000000001
  0
CIRCLE
  5
CF13
  8
0
 10
463.23428809197088
 20
467.30690611222349
 30
0.0
 40
25.66854682270689
  0
CIRCLE
  5
CF14
  8
0
 10
463.23428809197088
 20
467.30690611222349
 30
0.0
 40
27.189555828815401
  0
CIRCLE
  5
CF16
  8
0
 10
463.23428809197088
 20
467.30690611222349
 30
0.0
 40
31.175000000000001
  0
LINE
  5
CF1F
  8
0
 10
392.53428809197089
 20
436.30690611222337
 30
0.0
 11
393.23428809197088
 21
436.30690611222337
 31
0.0
  0
LINE
  5
CF23
  8
0
 10
393.23428809197088
 20
498.30690611222337
 30
0.0
 11
392.53428809197089
 21
498.30690611222337
 31
0.0
  0
LINE
  5
CF2D
  8
0
 10
393.23428809197088
 20
495.30690611222337
 30
0.0
 11
392.53428809197089
 21
495.30690611222337
 31
0.0
  0
LINE
  5
CF2E
  8
0
 10
392.53428809197089
 20
439.30690611222337
 30
0.0
 11
393.23428809197088
 21
439.30690611222337
 31
0.0
  0
LINE
  5
CF30
  8
1
 10
316.51073923940498
 20
467.3069061122232
 30
0.0
 11
548.95783694453655
 21
467.30690611222349
 31
0.0
  0
LINE
  5
CF31
  8
1
 10
463.23428809197088
 20
538.03045496478921
 30
0.0
 11
463.23428809197088
 21
396.58335725965782
 31
0.0
  0
LINE
  5
CF8D
  8
1
 10
407.23428809197088
 20
402.06128496827267
 30
0.0
 11
407.23428809197088
 21
532.55252725617379
 31
0.0
  0
ARC
  5
CFAE
  8
0
 10
337.17181596887212
 20
446.80690611222349
 30
0.0
 40
1.9999999999999569
 50
196.30926544641139
 51
270.0
  0
ARC
  5
CFB0
  8
0
 10
407.2342880919706
 20
467.3069061122232
 30
0.0
 40
75.000000000000057
 50
163.69073455358861
 51
196.30926544641139
  0
ARC
  5
CFB2
  8
0
 10
337.17181596887212
 20
487.80690611222349
 30
0.0
 40
1.9999999999999989
 50
90.0
 51
163.69073455358861
  0
LINE
  5
CFBE
  8
0
 10
337.17181596887212
 20
444.80690611222337
 30
0.0
 11
393.23064251814031
 21
444.80690611222337
 31
0.0
  0
LINE
  5
CFC2
  8
0
 10
337.17181596887212
 20
489.80690611222337
 30
0.0
 11
393.23064251814031
 21
489.80690611222337
 31
0.0
  0
LINE
  5
CFEA
  8
0
 10
643.27416296126398
 20
270.22272068512939
 30
0.0
 11
643.27416296126398
 21
271.0227206851294
 31
0.0
  0
LINE
  5
CFEB
  8
0
 10
712.87416296126389
 20
271.0227206851294
 30
0.0
 11
712.87416296126389
 21
270.22272068512939
 31
0.0
  0
LINE
  5
CFEC
  8
0
 10
643.57294229728575
 20
261.72272068512939
 30
0.0
 11
642.07416296126394
 21
270.22272068512939
 31
0.0
  0
LINE
  5
CFED
  8
0
 10
714.07416296126394
 20
270.22272068512939
 30
0.0
 11
712.57538362524201
 21
261.72272068512939
 31
0.0
  0
LINE
  5
CFEE
  8
0
 10
645.07416296126394
 20
209.52603890236259
 30
0.0
 11
645.07416296126394
 21
261.72272068512939
 31
0.0
  0
LINE
  5
CFEF
  8
0
 10
711.07416296126394
 20
261.72272068512939
 30
0.0
 11
711.07416296126394
 21
209.52603890236259
 31
0.0
  0
LINE
  5
CFF6
  8
0
 10
623.07416296126394
 20
273.52272068512929
 30
0.0
 11
623.07416296126394
 21
271.0227206851294
 31
0.0
  0
LINE
  5
CFF8
  8
0
 10
733.07416296126394
 20
273.52272068512929
 30
0.0
 11
623.07416296126394
 21
273.52272068512929
 31
0.0
  0
LINE
  5
CFFA
  8
0
 10
733.07416296126394
 20
271.0227206851294
 30
0.0
 11
623.07416296126394
 21
271.0227206851294
 31
0.0
  0
LINE
  5
CFFB
  8
0
 10
733.07416296126394
 20
273.52272068512929
 30
0.0
 11
733.07416296126394
 21
271.0227206851294
 31
0.0
  0
LINE
  5
D00A
  8
0
 10
714.07416296126394
 20
270.22272068512939
 30
0.0
 11
642.07416296126394
 21
270.22272068512939
 31
0.0
  0
LINE
  5
D00B
  8
0
 10
712.57538362524201
 20
261.72272068512939
 30
0.0
 11
643.57294229728575
 21
261.72272068512939
 31
0.0
  0
LINE
  5
D013
  8
0
 10
647.07416296126394
 20
193.5851327247783
 30
0.0
 11
647.07416296126394
 21
144.52272068512929
 31
0.0
  0
LINE
  5
D016
  8
0
 10
709.07416296126371
 20
143.52272068512929
 30
0.0
 11
709.07416296126394
 21
193.5851327247783
 31
0.0
  0
POLYLINE
  5
D017
  8
0
 66
     1
 10
0.0
 20
0.0
 30
0.0
  0
VERTEX
  5
14005
  8
0
 10
706.07416296126394
 20
192.4865737672132
 30
0.0
  0
VERTEX
  5
14006
  8
0
 10
706.20932406643192
 20
192.9344544461683
 30
0.0
  0
VERTEX
  5
14007
  8
0
 10
706.46880371889415
 20
193.83654210110811
 30
0.0
  0
VERTEX
  5
14008
  8
0
 10
706.71371647007459
 20
194.7466787168716
 30
0.0
  0
VERTEX
  5
14009
  8
0
 10
706.83067070018933
 20
195.2046196290359
 30
0.0
  0
VERTEX
  5
1400A
  8
0
 10
706.94393667584563
 20
195.66439737893299
 30
0.0
  0
VERTEX
  5
1400B
  8
0
 10
707.15934622958844
 20
196.58922728305581
 30
0.0
  0
VERTEX
  5
1400C
  8
0
 10
707.35983462278375
 20
197.52069397682359
 30
0.0
  0
VERTEX
  5
1400D
  8
0
 10
707.54529900170473
 20
198.4583196030421
 30
0.0
  0
VERTEX
  5
1400E
  8
0
 10
707.7156442201815
 20
199.40162314488629
 30
0.0
  0
VERTEX
  5
1400F
  8
0
 10
707.8707828884144
 20
200.35012067267101
 30
0.0
  0
VERTEX
  5
14010
  8
0
 10
707.94262458887374
 20
200.82616521784621
 30
0.0
  0
VERTEX
  5
14011
  8
0
 10
708.01063541780445
 20
201.3033255921132
 30
0.0
  0
VERTEX
  5
14012
  8
0
 10
708.13513006178505
 20
202.26074889396341
 30
0.0
  0
VERTEX
  5
14013
  8
0
 10
708.24420295262826
 20
203.2218994048753
 30
0.0
  0
VERTEX
  5
14014
  8
0
 10
708.3377981342104
 20
204.1862840393853
 30
0.0
  0
VERTEX
  5
14015
  8
0
 10
708.41586759071834
 20
205.15340805287221
 30
0.0
  0
VERTEX
  5
14016
  8
0
 10
708.47837127128139
 20
206.12277529537121
 30
0.0
  0
VERTEX
  5
14017
  8
0
 10
708.50377561274172
 20
206.60814475898789
 30
0.0
  0
VERTEX
  5
14018
  8
0
 10
708.52527711052005
 20
207.09388846610429
 30
0.0
  0
VERTEX
  5
14019
  8
0
 10
708.55656104499485
 20
208.06624936860501
 30
0.0
  0
VERTEX
  5
1401A
  8
0
 10
708.57220702555014
 20
209.03935916630081
 30
0.0
  0
VERTEX
  5
1401B
  8
0
 10
708.57416296126394
 20
209.52603890236259
 30
0.0
  0
SEQEND
  5
1401C
  8
0
  0
POLYLINE
  5
D018
  8
0
 66
     1
 10
0.0
 20
0.0
 30
0.0
  0
VERTEX
  5
1401D
  8
0
 10
708.57416296126394
 20
209.52603890236259
 30
0.0
  0
VERTEX
  5
1401E
  8
0
 10
708.57093703504074
 20
210.1510513544865
 30
0.0
  0
VERTEX
  5
1401F
  8
0
 10
708.54513371951055
 20
211.40054743580211
 30
0.0
  0
VERTEX
  5
14020
  8
0
 10
708.49354892063138
 20
212.64845749575511
 30
0.0
  0
VERTEX
  5
14021
  8
0
 10
708.45810125306207
 20
213.27148773570781
 30
0.0
  0
VERTEX
  5
14022
  8
0
 10
708.41622628429275
 20
213.8937256778502
 30
0.0
  0
VERTEX
  5
14023
  8
0
 10
708.3132312331652
 20
215.13529836088199
 30
0.0
  0
VERTEX
  5
14024
  8
0
 10
708.18465091134385
 20
216.37212505040861
 30
0.0
  0
VERTEX
  5
14025
  8
0
 10
708.03059411061804
 20
217.60315926757059
 30
0.0
  0
VERTEX
  5
14026
  8
0
 10
707.85119117842191
 20
218.82735943451939
 30
0.0
  0
VERTEX
  5
14027
  8
0
 10
707.6465939075465
 20
220.04368975569511
 30
0.0
  0
VERTEX
  5
14028
  8
0
 10
707.53490066308041
 20
220.64858183488579
 30
0.0
  0
VERTEX
  5
14029
  8
0
 10
707.41697540770895
 20
221.2511210942132
 30
0.0
  0
VERTEX
  5
1402A
  8
0
 10
707.16252995908485
 20
222.44863184261609
 30
0.0
  0
VERTEX
  5
1402B
  8
0
 10
706.88347284792587
 20
223.63520878725689
 30
0.0
  0
VERTEX
  5
1402C
  8
0
 10
706.58004018440795
 20
224.8098479655778
 30
0.0
  0
VERTEX
  5
1402D
  8
0
 10
706.25248870285805
 20
225.97155551556261
 30
0.0
  0
VERTEX
  5
1402E
  8
0
 10
705.90109554453079
 20
227.11934851664481
 30
0.0
  0
VERTEX
  5
1402F
  8
0
 10
705.71655046588171
 20
227.68772309533759
 30
0.0
  0
VERTEX
  5
14030
  8
0
 10
705.52615802311971
 20
228.25225582135471
 30
0.0
  0
VERTEX
  5
14031
  8
0
 10
705.12799337319962
 20
229.3693188770082
 30
0.0
  0
VERTEX
  5
14032
  8
0
 10
704.706938481816
 20
230.46959253673731
 30
0.0
  0
VERTEX
  5
14033
  8
0
 10
704.48793777668925
 20
231.0131418474291
 30
0.0
  0
VERTEX
  5
14034
  8
0
 10
704.26334960344275
 20
231.55214585917949
 30
0.0
  0
VERTEX
  5
14035
  8
0
 10
703.797602058557
 20
232.61606289614679
 30
0.0
  0
VERTEX
  5
14036
  8
0
 10
703.31008991607996
 20
233.6604434676087
 30
0.0
  0
VERTEX
  5
14037
  8
0
 10
703.05830031207825
 20
234.17503077184119
 30
0.0
  0
VERTEX
  5
14038
  8
0
 10
702.80122565995543
 20
234.68440392333579
 30
0.0
  0
VERTEX
  5
14039
  8
0
 10
702.27143984014674
 20
235.68707789055469
 30
0.0
  0
VERTEX
  5
1403A
  8
0
 10
701.72118070834847
 20
236.6676170069868
 30
0.0
  0
VERTEX
  5
1403B
  8
0
 10
701.15091383872232
 20
237.62519163864661
 30
0.0
  0
VERTEX
  5
1403C
  8
0
 10
700.56112173397264
 20
238.55899158179571
 30
0.0
  0
VERTEX
  5
1403D
  8
0
 10
699.95230341710214
 20
239.46822674845569
 30
0.0
  0
VERTEX
  5
1403E
  8
0
 10
699.64091978745364
 20
239.9133913033825
 30
0.0
  0
VERTEX
  5
1403F
  8
0
 10
699.32497400918885
 20
240.35212783490169
 30
0.0
  0
VERTEX
  5
14040
  8
0
 10
698.67966429354146
 20
241.2099469725697
 30
0.0
  0
VERTEX
  5
14041
  8
0
 10
698.01692026660453
 20
242.0409583608284
 30
0.0
  0
VERTEX
  5
14042
  8
0
 10
697.33730267599003
 20
242.84445888107871
 30
0.0
  0
VERTEX
  5
14043
  8
0
 10
696.64138654602993
 20
243.61976869166281
 30
0.0
  0
VERTEX
  5
14044
  8
0
 10
695.92976069124711
 20
244.3662318030772
 30
0.0
  0
VERTEX
  5
14045
  8
0
 10
695.56824426997082
 20
244.7284475089609
 30
0.0
  0
VERTEX
  5
14046
  8
0
 10
695.2030272181604
 20
245.0832166330058
 30
0.0
  0
VERTEX
  5
14047
  8
0
 10
694.46180101584196
 20
245.7701165407025
 30
0.0
  0
VERTEX
  5
14048
  8
0
 10
693.70670923565956
 20
246.42635034026759
 30
0.0
  0
VERTEX
  5
14049
  8
0
 10
692.93839076064478
 20
247.0513627923917
 30
0.0
  0
VERTEX
  5
1404A
  8
0
 10
692.1574956649323
 20
247.64462507414169
 30
0.0
  0
VERTEX
  5
1404B
  8
0
 10
691.36468466373481
 20
248.2056352263987
 30
0.0
  0
VERTEX
  5
1404C
  8
0
 10
690.96401994435507
 20
248.47389634230629
 30
0.0
  0
VERTEX
  5
1404D
  8
0
 10
690.56062855430969
 20
248.7339185785645
 30
0.0
  0
VERTEX
  5
1404E
  8
0
 10
689.7460076483992
 20
249.2290281501823
 30
0.0
  0
VERTEX
  5
1404F
  8
0
 10
688.92151119661764
 20
249.69054502912471
 30
0.0
  0
VERTEX
  5
14050
  8
0
 10
688.08783680527756
 20
250.1180787260364
 30
0.0
  0
VERTEX
  5
14051
  8
0
 10
687.24568984614405
 20
250.5112675047267
 30
0.0
  0
VERTEX
  5
14052
  8
0
 10
686.39578285962136
 20
250.86977868823439
 30
0.0
  0
VERTEX
  5
14053
  8
0
 10
685.9681438368907
 20
251.0359342359059
 30
0.0
  0
VERTEX
  5
14054
  8
0
 10
685.53883495187074
 20
251.1933089403062
 30
0.0
  0
VERTEX
  5
14055
  8
0
 10
684.67557118637615
 20
251.48158452204939
 30
0.0
  0
VERTEX
  5
14056
  8
0
 10
683.80672197046727
 20
251.73436152354091
 30
0.0
  0
VERTEX
  5
14057
  8
0
 10
682.93302243732342
 20
251.95142607020199
 30
0.0
  0
VERTEX
  5
14058
  8
0
 10
682.05521182397547
 20
252.132594503755
 30
0.0
  0
VERTEX
  5
14059
  8
0
 10
681.17403284583952
 20
252.27771353761841
 30
0.0
  0
VERTEX
  5
1405A
  8
0
 10
680.73241311506763
 20
252.33671496481611
 30
0.0
  0
VERTEX
  5
1405B
  8
0
 10
680.29023106830346
 20
252.38666038660111
 30
0.0
  0
VERTEX
  5
1405C
  8
0
 10
679.40455427590666
 20
252.4593428707924
 30
0.0
  0
VERTEX
  5
1405D
  8
0
 10
678.51775183963719
 20
252.49569949355441
 30
0.0
  0
VERTEX
  5
1405E
  8
0
 10
678.07416296126394
 20
252.50024479249549
 30
0.0
  0
VERTEX
  5
1405F
  8
0
 10
677.63057408289069
 20
252.49569949355441
 30
0.0
  0
VERTEX
  5
14060
  8
0
 10
676.74377164662098
 20
252.4593428707924
 30
0.0
  0
VERTEX
  5
14061
  8
0
 10
675.85809485422442
 20
252.38666038660111
 30
0.0
  0
VERTEX
  5
14062
  8
0
 10
675.41591280746024
 20
252.33671496481611
 30
0.0
  0
VERTEX
  5
14063
  8
0
 10
674.97429307668835
 20
252.27771353761841
 30
0.0
  0
VERTEX
  5
14064
  8
0
 10
674.09311409855241
 20
252.132594503755
 30
0.0
  0
VERTEX
  5
14065
  8
0
 10
673.21530348520446
 20
251.95142607020199
 30
0.0
  0
VERTEX
  5
14066
  8
0
 10
672.34160395206038
 20
251.73436152354091
 30
0.0
  0
VERTEX
  5
14067
  8
0
 10
671.47275473615173
 20
251.48158452204939
 30
0.0
  0
VERTEX
  5
14068
  8
0
 10
670.60949097065713
 20
251.1933089403062
 30
0.0
  0
VERTEX
  5
14069
  8
0
 10
670.18018208563706
 20
251.0359342359059
 30
0.0
  0
VERTEX
  5
1406A
  8
0
 10
669.75254306290628
 20
250.86977868823439
 30
0.0
  0
VERTEX
  5
1406B
  8
0
 10
668.90263607638371
 20
250.5112675047267
 30
0.0
  0
VERTEX
  5
1406C
  8
0
 10
668.06048911725009
 20
250.1180787260364
 30
0.0
  0
VERTEX
  5
1406D
  8
0
 10
667.22681472591012
 20
249.69054502912471
 30
0.0
  0
VERTEX
  5
1406E
  8
0
 10
666.40231827412867
 20
249.2290281501823
 30
0.0
  0
VERTEX
  5
1406F
  8
0
 10
665.58769736821819
 20
248.7339185785645
 30
0.0
  0
VERTEX
  5
14070
  8
0
 10
665.18430597817257
 20
248.47389634230629
 30
0.0
  0
VERTEX
  5
14071
  8
0
 10
664.78364125879295
 20
248.2056352263987
 30
0.0
  0
VERTEX
  5
14072
  8
0
 10
663.99083025759535
 20
247.64462507414191
 30
0.0
  0
VERTEX
  5
14073
  8
0
 10
663.2099351618831
 20
247.0513627923917
 30
0.0
  0
VERTEX
  5
14074
  8
0
 10
662.44161668686786
 20
246.42635034026759
 30
0.0
  0
VERTEX
  5
14075
  8
0
 10
661.68652490668592
 20
245.7701165407025
 30
0.0
  0
VERTEX
  5
14076
  8
0
 10
660.94529870436725
 20
245.0832166330058
 30
0.0
  0
VERTEX
  5
14077
  8
0
 10
660.58008165255706
 20
244.7284475089609
 30
0.0
  0
VERTEX
  5
14078
  8
0
 10
660.21856523128065
 20
244.3662318030772
 30
0.0
  0
VERTEX
  5
14079
  8
0
 10
659.50693937649794
 20
243.61976869166281
 30
0.0
  0
VERTEX
  5
1407A
  8
0
 10
658.81102324653784
 20
242.84445888107871
 30
0.0
  0
VERTEX
  5
1407B
  8
0
 10
658.13140565592334
 20
242.0409583608284
 30
0.0
  0
VERTEX
  5
1407C
  8
0
 10
657.46866162898641
 20
241.2099469725697
 30
0.0
  0
VERTEX
  5
1407D
  8
0
 10
656.8233519133388
 20
240.35212783490169
 30
0.0
  0
VERTEX
  5
1407E
  8
0
 10
656.50740613507423
 20
239.9133913033825
 30
0.0
  0
VERTEX
  5
1407F
  8
0
 10
656.19602250542562
 20
239.46822674845569
 30
0.0
  0
VERTEX
  5
14080
  8
0
 10
655.58720418855523
 20
238.55899158179571
 30
0.0
  0
VERTEX
  5
14081
  8
0
 10
654.99741208380544
 20
237.62519163864661
 30
0.0
  0
VERTEX
  5
14082
  8
0
 10
654.42714521417918
 20
236.6676170069868
 30
0.0
  0
VERTEX
  5
14083
  8
0
 10
653.87688608238113
 20
235.68707789055469
 30
0.0
  0
VERTEX
  5
14084
  8
0
 10
653.34710026257244
 20
234.68440392333579
 30
0.0
  0
VERTEX
  5
14085
  8
0
 10
653.09002561044963
 20
234.17503077184119
 30
0.0
  0
VERTEX
  5
14086
  8
0
 10
652.83823600644791
 20
233.6604434676087
 30
0.0
  0
VERTEX
  5
14087
  8
0
 10
652.35072386397087
 20
232.61606289614679
 30
0.0
  0
VERTEX
  5
14088
  8
0
 10
651.88497631908513
 20
231.55214585917949
 30
0.0
  0
VERTEX
  5
14089
  8
0
 10
651.66038814583862
 20
231.0131418474291
 30
0.0
  0
VERTEX
  5
1408A
  8
0
 10
651.44138744071176
 20
230.46959253673731
 30
0.0
  0
VERTEX
  5
1408B
  8
0
 10
651.02033254932803
 20
229.3693188770082
 30
0.0
  0
VERTEX
  5
1408C
  8
0
 10
650.6221678994084
 20
228.25225582135471
 30
0.0
  0
VERTEX
  5
1408D
  8
0
 10
650.43177545664616
 20
227.68772309533759
 30
0.0
  0
VERTEX
  5
1408E
  8
0
 10
650.24723037799674
 20
227.119348516645
 30
0.0
  0
VERTEX
  5
1408F
  8
0
 10
649.89583721966983
 20
225.97155551556261
 30
0.0
  0
VERTEX
  5
14090
  8
0
 10
649.56828573811981
 20
224.8098479655778
 30
0.0
  0
VERTEX
  5
14091
  8
0
 10
649.26485307460177
 20
223.63520878725689
 30
0.0
  0
VERTEX
  5
14092
  8
0
 10
648.98579596344302
 20
222.44863184261609
 30
0.0
  0
VERTEX
  5
14093
  8
0
 10
648.73135051481847
 20
221.2511210942132
 30
0.0
  0
VERTEX
  5
14094
  8
0
 10
648.61342525944735
 20
220.64858183488579
 30
0.0
  0
VERTEX
  5
14095
  8
0
 10
648.50173201498137
 20
220.04368975569511
 30
0.0
  0
VERTEX
  5
14096
  8
0
 10
648.29713474410585
 20
218.82735943451939
 30
0.0
  0
VERTEX
  5
14097
  8
0
 10
648.11773181190983
 20
217.60315926757059
 30
0.0
  0
VERTEX
  5
14098
  8
0
 10
647.96367501118402
 20
216.37212505040861
 30
0.0
  0
VERTEX
  5
14099
  8
0
 10
647.83509468936268
 20
215.13529836088219
 30
0.0
  0
VERTEX
  5
1409A
  8
0
 10
647.73209963823501
 20
213.8937256778502
 30
0.0
  0
VERTEX
  5
1409B
  8
0
 10
647.69022466946581
 20
213.27148773570781
 30
0.0
  0
VERTEX
  5
1409C
  8
0
 10
647.65477700189649
 20
212.64845749575539
 30
0.0
  0
VERTEX
  5
1409D
  8
0
 10
647.60319220301722
 20
211.40054743580211
 30
0.0
  0
VERTEX
  5
1409E
  8
0
 10
647.57738888748713
 20
210.15105135448681
 30
0.0
  0
VERTEX
  5
1409F
  8
0
 10
647.57416296126394
 20
209.52603890236259
 30
0.0
  0
SEQEND
  5
140A0
  8
0
  0
POLYLINE
  5
D019
  8
0
 66
     1
 10
0.0
 20
0.0
 30
0.0
  0
VERTEX
  5
140A1
  8
0
 10
647.57416296126394
 20
209.52603890236259
 30
0.0
  0
VERTEX
  5
140A2
  8
0
 10
647.57611889697773
 20
209.03935916630081
 30
0.0
  0
VERTEX
  5
140A3
  8
0
 10
647.59176487753302
 20
208.06624936860501
 30
0.0
  0
VERTEX
  5
140A4
  8
0
 10
647.6230488120076
 20
207.09388846610429
 30
0.0
  0
VERTEX
  5
140A5
  8
0
 10
647.64455030978615
 20
206.60814475898789
 30
0.0
  0
VERTEX
  5
140A6
  8
0
 10
647.66995465124626
 20
206.12277529537121
 30
0.0
  0
VERTEX
  5
140A7
  8
0
 10
647.73245833180954
 20
205.15340805287221
 30
0.0
  0
VERTEX
  5
140A8
  8
0
 10
647.81052778831724
 20
204.1862840393853
 30
0.0
  0
VERTEX
  5
140A9
  8
0
 10
647.90412296989962
 20
203.2218994048753
 30
0.0
  0
VERTEX
  5
140AA
  8
0
 10
648.01319586074283
 20
202.26074889396341
 30
0.0
  0
VERTEX
  5
140AB
  8
0
 10
648.13769050472342
 20
201.3033255921132
 30
0.0
  0
VERTEX
  5
140AC
  8
0
 10
648.20570133365413
 20
200.82616521784641
 30
0.0
  0
VERTEX
  5
140AD
  8
0
 10
648.27754303411348
 20
200.35012067267101
 30
0.0
  0
VERTEX
  5
140AE
  8
0
 10
648.43268170234637
 20
199.40162314488629
 30
0.0
  0
VERTEX
  5
140AF
  8
0
 10
648.60302692082314
 20
198.4583196030421
 30
0.0
  0
VERTEX
  5
140B0
  8
0
 10
648.78849129974401
 20
197.52069397682359
 30
0.0
  0
VERTEX
  5
140B1
  8
0
 10
648.98897969293944
 20
196.58922728305581
 30
0.0
  0
VERTEX
  5
140B2
  8
0
 10
649.20438924668224
 20
195.66439737893299
 30
0.0
  0
VERTEX
  5
140B3
  8
0
 10
649.31765522233854
 20
195.2046196290359
 30
0.0
  0
VERTEX
  5
140B4
  8
0
 10
649.43460945245329
 20
194.74667871687191
 30
0.0
  0
VERTEX
  5
140B5
  8
0
 10
649.67952220363372
 20
193.83654210110811
 30
0.0
  0
VERTEX
  5
140B6
  8
0
 10
649.93900185609573
 20
192.9344544461683
 30
0.0
  0
VERTEX
  5
140B7
  8
0
 10
650.07416296126394
 20
192.4865737672132
 30
0.0
  0
SEQEND
  5
140B8
  8
0
  0
POLYLINE
  5
D01B
  8
0
 66
     1
 10
0.0
 20
0.0
 30
0.0
  0
VERTEX
  5
140B9
  8
0
 10
709.07416296126394
 20
193.5851327247783
 30
0.0
  0
VERTEX
  5
140BA
  8
0
 10
709.18267160645451
 20
194.010458070672
 30
0.0
  0
VERTEX
  5
140BB
  8
0
 10
709.39086083317989
 20
194.86546651790849
 30
0.0
  0
VERTEX
  5
140BC
  8
0
 10
709.58721420285951
 20
195.72601579322529
 30
0.0
  0
VERTEX
  5
140BD
  8
0
 10
709.68092907518439
 20
196.15826668340279
 30
0.0
  0
VERTEX
  5
140BE
  8
0
 10
709.77165750554866
 20
196.59178065996301
 30
0.0
  0
VERTEX
  5
140BF
  8
0
 10
709.94412103260265
 20
197.46243391027741
 30
0.0
  0
VERTEX
  5
140C0
  8
0
 10
710.10453960302243
 20
198.33764648880469
 30
0.0
  0
VERTEX
  5
140C1
  8
0
 10
710.57031657980758
 20
201.4320055279006
 30
0.0
  0
VERTEX
  5
140C2
  8
0
 10
711.01805289645586
 20
206.8157493747533
 30
0.0
  0
VERTEX
  5
140C3
  8
0
 10
711.07416296126394
 20
209.52603890236259
 30
0.0
  0
SEQEND
  5
140C4
  8
0
  0
POLYLINE
  5
D01C
  8
0
 66
     1
 10
0.0
 20
0.0
 30
0.0
  0
VERTEX
  5
140C5
  8
0
 10
711.07416296126394
 20
209.52603890236259
 30
0.0
  0
VERTEX
  5
140C6
  8
0
 10
711.07067261485849
 20
210.20228188334929
 30
0.0
  0
VERTEX
  5
140C7
  8
0
 10
711.04275427346511
 20
211.5541956762479
 30
0.0
  0
VERTEX
  5
140C8
  8
0
 10
710.98694121238282
 20
212.90439344603351
 30
0.0
  0
VERTEX
  5
140C9
  8
0
 10
710.94858799829149
 20
213.57849173844099
 30
0.0
  0
VERTEX
  5
140CA
  8
0
 10
710.90328065503309
 20
214.2517327905951
 30
0.0
  0
VERTEX
  5
140CB
  8
0
 10
710.79184338659968
 20
215.5950737263345
 30
0.0
  0
VERTEX
  5
140CC
  8
0
 10
710.65272369413742
 20
216.9332796527074
 30
0.0
  0
VERTEX
  5
140CD
  8
0
 10
710.48603928679472
 20
218.2652183138992
 30
0.0
  0
VERTEX
  5
140CE
  8
0
 10
710.29193119622175
 20
219.5897627568275
 30
0.0
  0
VERTEX
  5
140CF
  8
0
 10
710.07056365724179
 20
220.9057922846568
 30
0.0
  0
VERTEX
  5
140D0
  8
0
 10
709.94971522880314
 20
221.56026568181409
 30
0.0
  0
VERTEX
  5
140D1
  8
0
 10
709.82212396889315
 20
222.2121934050206
 30
0.0
  0
VERTEX
  5
140D2
  8
0
 10
709.54682233595531
 20
223.50786077214519
 30
0.0
  0
VERTEX
  5
140D3
  8
0
 10
709.24489169109484
 20
224.7916981220844
 30
0.0
  0
VERTEX
  5
140D4
  8
0
 10
708.91658749778048
 20
226.06261920026739
 30
0.0
  0
VERTEX
  5
140D5
  8
0
 10
708.56218753413646
 20
227.31954868057909
 30
0.0
  0
VERTEX
  5
140D6
  8
0
 10
708.18199165791327
 20
228.56142307519261
 30
0.0
  0
VERTEX
  5
140D7
  8
0
 10
707.98231993347315
 20
229.17638573410591
 30
0.0
  0
VERTEX
  5
140D8
  8
0
 10
707.77632155277979
 20
229.787191634387
 30
0.0
  0
VERTEX
  5
140D9
  8
0
 10
707.34552045614532
 20
230.99581723558569
 30
0.0
  0
VERTEX
  5
140DA
  8
0
 10
706.88995286874626
 20
232.18627726086649
 30
0.0
  0
VERTEX
  5
140DB
  8
0
 10
706.65300128615036
 20
232.77437979374599
 30
0.0
  0
VERTEX
  5
140DC
  8
0
 10
706.41000424624417
 20
233.35756446219739
 30
0.0
  0
VERTEX
  5
140DD
  8
0
 10
705.90608067308904
 20
234.50868781367009
 30
0.0
  0
VERTEX
  5
140DE
  8
0
 10
705.37860851893367
 20
235.638673350006
 30
0.0
  0
VERTEX
  5
140DF
  8
0
 10
705.10618042280055
 20
236.1954399414706
 30
0.0
  0
VERTEX
  5
140E0
  8
0
 10
704.82803407788094
 20
236.74656499062871
 30
0.0
  0
VERTEX
  5
140E1
  8
0
 10
704.25482319087473
 20
237.83142534860349
 30
0.0
  0
VERTEX
  5
140E2
  8
0
 10
703.65946085155224
 20
238.89233652375921
 30
0.0
  0
VERTEX
  5
140E3
  8
0
 10
703.04245079589123
 20
239.92840087932541
 30
0.0
  0
VERTEX
  5
140E4
  8
0
 10
702.40431507599806
 20
240.9387418014212
 30
0.0
  0
VERTEX
  5
140E5
  8
0
 10
701.74559361840045
 20
241.9225044407583
 30
0.0
  0
VERTEX
  5
140E6
  8
0
 10
701.40868674041985
 20
242.4041578936299
 30
0.0
  0
VERTEX
  5
140E7
  8
0
 10
701.06684376721569
 20
242.87885643592949
 30
0.0
  0
VERTEX
  5
140E8
  8
0
 10
700.36863981258057
 20
243.80698861766859
 30
0.0
  0
VERTEX
  5
140E9
  8
0
 10
699.65157250474726
 20
244.70611569348949
 30
0.0
  0
VERTEX
  5
140EA
  8
0
 10
698.91624855424629
 20
245.5754769121211
 30
0.0
  0
VERTEX
  5
140EB
  8
0
 10
698.16329011855157
 20
246.41433670717919
 30
0.0
  0
VERTEX
  5
140EC
  8
0
 10
697.39333427567203
 20
247.22198531952901
 30
0.0
  0
VERTEX
  5
140ED
  8
0
 10
697.00218536084844
 20
247.61389083737069
 30
0.0
  0
VERTEX
  5
140EE
  8
0
 10
696.60703248511913
 20
247.99773939781269
 30
0.0
  0
VERTEX
  5
140EF
  8
0
 10
695.80505003670908
 20
248.7409425766318
 30
0.0
  0
VERTEX
  5
140F0
  8
0
 10
694.98806548765947
 20
249.4509660318993
 30
0.0
  0
VERTEX
  5
140F1
  8
0
 10
694.15677008846285
 20
250.127209012886
 30
0.0
  0
VERTEX
  5
140F2
  8
0
 10
693.31186719801997
 20
250.76909935051711
 30
0.0
  0
VERTEX
  5
140F3
  8
0
 10
692.45407168852751
 20
251.3760939414835
 30
0.0
  0
VERTEX
  5
140F4
  8
0
 10
692.02056559870698
 20
251.66634367344929
 30
0.0
  0
VERTEX
  5
140F5
  8
0
 10
691.58410934062499
 20
251.9476792077615
 30
0.0
  0
VERTEX
  5
140F6
  8
0
 10
690.70271622931182
 20
252.48337153115131
 30
0.0
  0
VERTEX
  5
140F7
  8
0
 10
689.81063810115484
 20
252.982717662466
 30
0.0
  0
VERTEX
  5
140F8
  8
0
 10
688.90862974331139
 20
253.44529510502619
 30
0.0
  0
VERTEX
  5
140F9
  8
0
 10
687.99745434490501
 20
253.87071247213339
 30
0.0
  0
VERTEX
  5
140FA
  8
0
 10
687.07788285129027
 20
254.2586098182239
 30
0.0
  0
VERTEX
  5
140FB
  8
0
 10
686.61519144964723
 20
254.4383846730814
 30
0.0
  0
VERTEX
  5
140FC
  8
0
 10
686.15069331175664
 20
254.6086589434164
 30
0.0
  0
VERTEX
  5
140FD
  8
0
 10
685.21667022122119
 20
254.92056367120381
 30
0.0
  0
VERTEX
  5
140FE
  8
0
 10
684.27660385646755
 20
255.19406009904739
 30
0.0
  0
VERTEX
  5
140FF
  8
0
 10
683.33128960749218
 20
255.42891682166419
 30
0.0
  0
VERTEX
  5
14100
  8
0
 10
682.38152730452555
 20
255.62493512681999
 30
0.0
  0
VERTEX
  5
14101
  8
0
 10
681.42812054129615
 20
255.7819491634589
 30
0.0
  0
VERTEX
  5
14102
  8
0
 10
680.95030247193654
 20
255.8457867732138
 30
0.0
  0
VERTEX
  5
14103
  8
0
 10
680.47187599511005
 20
255.89982608203059
 30
0.0
  0
VERTEX
  5
14104
  8
0
 10
679.51360274431988
 20
255.9784661468932
 30
0.0
  0
VERTEX
  5
14105
  8
0
 10
678.55411158376614
 20
256.01780282070132
 30
0.0
  0
VERTEX
  5
14106
  8
0
 10
678.07416296126394
 20
256.0227206851294
 30
0.0
  0
VERTEX
  5
14107
  8
0
 10
677.59421433876173
 20
256.01780282070132
 30
0.0
  0
VERTEX
  5
14108
  8
0
 10
676.63472317820776
 20
255.9784661468932
 30
0.0
  0
VERTEX
  5
14109
  8
0
 10
675.67644992741771
 20
255.89982608203059
 30
0.0
  0
VERTEX
  5
1410A
  8
0
 10
675.19802345059134
 20
255.8457867732138
 30
0.0
  0
VERTEX
  5
1410B
  8
0
 10
674.72020538123161
 20
255.7819491634589
 30
0.0
  0
VERTEX
  5
1410C
  8
0
 10
673.76679861800221
 20
255.62493512681999
 30
0.0
  0
VERTEX
  5
1410D
  8
0
 10
672.81703631503569
 20
255.42891682166419
 30
0.0
  0
VERTEX
  5
1410E
  8
0
 10
671.87172206605999
 20
255.19406009904739
 30
0.0
  0
VERTEX
  5
1410F
  8
0
 10
670.93165570130668
 20
254.92056367120381
 30
0.0
  0
VERTEX
  5
14110
  8
0
 10
669.99763261077123
 20
254.6086589434164
 30
0.0
  0
VERTEX
  5
14111
  8
0
 10
669.53313447288065
 20
254.4383846730814
 30
0.0
  0
VERTEX
  5
14112
  8
0
 10
669.07044307123761
 20
254.2586098182239
 30
0.0
  0
VERTEX
  5
14113
  8
0
 10
668.15087157762275
 20
253.87071247213339
 30
0.0
  0
VERTEX
  5
14114
  8
0
 10
667.23969617921648
 20
253.44529510502619
 30
0.0
  0
VERTEX
  5
14115
  8
0
 10
666.33768782137304
 20
252.982717662466
 30
0.0
  0
VERTEX
  5
14116
  8
0
 10
665.44560969321583
 20
252.48337153115131
 30
0.0
  0
VERTEX
  5
14117
  8
0
 10
664.56421658190288
 20
251.9476792077615
 30
0.0
  0
VERTEX
  5
14118
  8
0
 10
664.12776032382089
 20
251.66634367344929
 30
0.0
  0
VERTEX
  5
14119
  8
0
 10
663.69425423400025
 20
251.3760939414835
 30
0.0
  0
VERTEX
  5
1411A
  8
0
 10
662.83645872450768
 20
250.76909935051711
 30
0.0
  0
VERTEX
  5
1411B
  8
0
 10
661.99155583406491
 20
250.127209012886
 30
0.0
  0
VERTEX
  5
1411C
  8
0
 10
661.16026043486841
 20
249.4509660318993
 30
0.0
  0
VERTEX
  5
1411D
  8
0
 10
660.34327588581857
 20
248.7409425766318
 30
0.0
  0
VERTEX
  5
1411E
  8
0
 10
659.54129343740874
 20
247.99773939781269
 30
0.0
  0
VERTEX
  5
1411F
  8
0
 10
659.14614056167943
 20
247.61389083737069
 30
0.0
  0
VERTEX
  5
14120
  8
0
 10
658.75499164685584
 20
247.22198531952901
 30
0.0
  0
VERTEX
  5
14121
  8
0
 10
657.98503580397607
 20
246.41433670717919
 30
0.0
  0
VERTEX
  5
14122
  8
0
 10
657.23207736828147
 20
245.5754769121211
 30
0.0
  0
VERTEX
  5
14123
  8
0
 10
656.49675341778061
 20
244.70611569348949
 30
0.0
  0
VERTEX
  5
14124
  8
0
 10
655.77968610994697
 20
243.80698861766859
 30
0.0
  0
VERTEX
  5
14125
  8
0
 10
655.08148215531219
 20
242.87885643592949
 30
0.0
  0
VERTEX
  5
14126
  8
0
 10
654.73963918210802
 20
242.4041578936299
 30
0.0
  0
VERTEX
  5
14127
  8
0
 10
654.40273230412731
 20
241.9225044407583
 30
0.0
  0
VERTEX
  5
14128
  8
0
 10
653.74401084652982
 20
240.9387418014212
 30
0.0
  0
VERTEX
  5
14129
  8
0
 10
653.10587512663665
 20
239.92840087932541
 30
0.0
  0
VERTEX
  5
1412A
  8
0
 10
652.48886507097563
 20
238.89233652375921
 30
0.0
  0
VERTEX
  5
1412B
  8
0
 10
651.89350273165314
 20
237.83142534860349
 30
0.0
  0
VERTEX
  5
1412C
  8
0
 10
651.3202918446467
 20
236.74656499062871
 30
0.0
  0
VERTEX
  5
1412D
  8
0
 10
651.0421454997271
 20
236.1954399414706
 30
0.0
  0
VERTEX
  5
1412E
  8
0
 10
650.76971740359397
 20
235.638673350006
 30
0.0
  0
VERTEX
  5
1412F
  8
0
 10
650.24224524943884
 20
234.50868781367009
 30
0.0
  0
VERTEX
  5
14130
  8
0
 10
649.7383216762837
 20
233.35756446219739
 30
0.0
  0
VERTEX
  5
14131
  8
0
 10
649.49532463637752
 20
232.77437979374599
 30
0.0
  0
VERTEX
  5
14132
  8
0
 10
649.25837305378138
 20
232.18627726086649
 30
0.0
  0
VERTEX
  5
14133
  8
0
 10
648.80280546638278
 20
230.99581723558569
 30
0.0
  0
VERTEX
  5
14134
  8
0
 10
648.37200436974808
 20
229.787191634387
 30
0.0
  0
VERTEX
  5
14135
  8
0
 10
648.16600598905461
 20
229.17638573410591
 30
0.0
  0
VERTEX
  5
14136
  8
0
 10
647.96633426461437
 20
228.56142307519261
 30
0.0
  0
VERTEX
  5
14137
  8
0
 10
647.58613838839142
 20
227.31954868057909
 30
0.0
  0
VERTEX
  5
14138
  8
0
 10
647.23173842474739
 20
226.06261920026759
 30
0.0
  0
VERTEX
  5
14139
  8
0
 10
646.90343423143304
 20
224.7916981220844
 30
0.0
  0
VERTEX
  5
1413A
  8
0
 10
646.60150358657256
 20
223.50786077214519
 30
0.0
  0
VERTEX
  5
1413B
  8
0
 10
646.32620195363461
 20
222.2121934050206
 30
0.0
  0
VERTEX
  5
1413C
  8
0
 10
646.19861069372473
 20
221.56026568181409
 30
0.0
  0
VERTEX
  5
1413D
  8
0
 10
646.07776226528608
 20
220.9057922846568
 30
0.0
  0
VERTEX
  5
1413E
  8
0
 10
645.85639472630589
 20
219.5897627568275
 30
0.0
  0
VERTEX
  5
1413F
  8
0
 10
645.66228663573315
 20
218.26521831389891
 30
0.0
  0
VERTEX
  5
14140
  8
0
 10
645.49560222839045
 20
216.9332796527074
 30
0.0
  0
VERTEX
  5
14141
  8
0
 10
645.35648253592797
 20
215.5950737263345
 30
0.0
  0
VERTEX
  5
14142
  8
0
 10
645.24504526749467
 20
214.2517327905951
 30
0.0
  0
VERTEX
  5
14143
  8
0
 10
645.19973792423639
 20
213.57849173844099
 30
0.0
  0
VERTEX
  5
14144
  8
0
 10
645.16138471014494
 20
212.90439344603351
 30
0.0
  0
VERTEX
  5
14145
  8
0
 10
645.10557164906265
 20
211.5541956762479
 30
0.0
  0
VERTEX
  5
14146
  8
0
 10
645.07765330766938
 20
210.20228188334929
 30
0.0
  0
VERTEX
  5
14147
  8
0
 10
645.07416296126394
 20
209.52603890236259
 30
0.0
  0
SEQEND
  5
14148
  8
0
  0
POLYLINE
  5
D01D
  8
0
 66
     1
 10
0.0
 20
0.0
 30
0.0
  0
VERTEX
  5
14149
  8
0
 10
645.07416296126394
 20
209.52603890236259
 30
0.0
  0
VERTEX
  5
1414A
  8
0
 10
645.13027302607168
 20
206.8157493747533
 30
0.0
  0
VERTEX
  5
1414B
  8
0
 10
645.57800934272007
 20
201.4320055279006
 30
0.0
  0
VERTEX
  5
1414C
  8
0
 10
646.04378631950544
 20
198.33764648880469
 30
0.0
  0
VERTEX
  5
1414D
  8
0
 10
646.20420488992522
 20
197.46243391027741
 30
0.0
  0
VERTEX
  5
1414E
  8
0
 10
646.37666841697899
 20
196.59178065996301
 30
0.0
  0
VERTEX
  5
1414F
  8
0
 10
646.46739684734348
 20
196.15826668340279
 30
0.0
  0
VERTEX
  5
14150
  8
0
 10
646.56111171966825
 20
195.72601579322529
 30
0.0
  0
VERTEX
  5
14151
  8
0
 10
646.75746508934799
 20
194.86546651790849
 30
0.0
  0
VERTEX
  5
14152
  8
0
 10
646.96565431607326
 20
194.010458070672
 30
0.0
  0
VERTEX
  5
14153
  8
0
 10
647.07416296126394
 20
193.5851327247783
 30
0.0
  0
SEQEND
  5
14154
  8
0
  0
LINE
  5
D01F
  8
0
 10
706.0741629612636
 20
143.52272068512929
 30
0.0
 11
706.07416296126394
 21
226.56598686151571
 31
0.0
  0
LINE
  5
D022
  8
0
 10
650.07416296126394
 20
226.565986861516
 30
0.0
 11
650.07416296126394
 21
144.52272068512929
 31
0.0
  0
ARC
  5
D0B5
  8
0
 10
657.57416296126394
 20
224.58519280822819
 30
0.0
 40
1.999999999999996
 50
106.3092654464114
 51
180.0
  0
ARC
  5
D0B6
  8
0
 10
657.57416296126394
 20
84.460248562030515
 30
0.0
 40
2.0000000000000009
 50
180.0
 51
253.6907345535885
  0
ARC
  5
D0B7
  8
0
 10
678.07416296126371
 20
154.52272068512909
 30
0.0
 40
75.000000000000043
 50
253.6907345535885
 51
286.30926544641142
  0
ARC
  5
D0B8
  8
0
 10
678.07416296126371
 20
154.52272068512929
 30
0.0
 40
75.000000000000199
 50
73.690734553588598
 51
106.3092654464114
  0
ARC
  5
D0B9
  8
0
 10
698.57416296126394
 20
224.58519280822819
 30
0.0
 40
1.9999999999999989
 50
0.0
 51
73.690734553588598
  0
ARC
  5
D0BA
  8
0
 10
698.57416296126394
 20
84.460248562030515
 30
0.0
 40
1.9999999999999889
 50
286.30926544641142
 51
0.0
  0
LINE
  5
D0C5
  8
0
 10
655.57416296126394
 20
224.58519280822819
 30
0.0
 11
655.57416296126394
 21
84.460248562030515
 31
0.0
  0
LINE
  5
D0C7
  8
0
 10
700.57416296126394
 20
224.58519280822819
 30
0.0
 11
700.57416296126394
 21
84.460248562030515
 31
0.0
  0
LINE
  5
D0E8
  8
0
 10
498.03428809197089
 20
270.23446324222868
 30
0.0
 11
498.03428809197089
 21
271.0344632422287
 31
0.0
  0
LINE
  5
D0E9
  8
0
 10
428.43428809197098
 20
271.0344632422287
 30
0.0
 11
428.43428809197098
 21
270.23446324222868
 31
0.0
  0
LINE
  5
D0EA
  8
0
 10
497.73550875594901
 20
261.73446324222868
 30
0.0
 11
499.23428809197088
 21
270.23446324222868
 31
0.0
  0
LINE
  5
D0EB
  8
0
 10
427.23428809197088
 20
270.23446324222868
 30
0.0
 11
428.73306742799281
 21
261.73446324222868
 31
0.0
  0
LINE
  5
D0EC
  8
0
 10
496.23428809197088
 20
256.03446324222858
 30
0.0
 11
496.23428809197088
 21
261.73446324222868
 31
0.0
  0
LINE
  5
D0ED
  8
0
 10
430.23428809197088
 20
261.73446324222868
 30
0.0
 11
430.23428809197088
 21
259.73446324222868
 31
0.0
  0
LINE
  5
D0F0
  8
0
 10
533.23428809197094
 20
273.53446324222858
 30
0.0
 11
533.23428809197094
 21
271.0344632422287
 31
0.0
  0
LINE
  5
D0F2
  8
0
 10
393.23428809197088
 20
273.53446324222858
 30
0.0
 11
393.23428809197088
 21
271.0344632422287
 31
0.0
  0
LINE
  5
D0F3
  8
0
 10
393.23428809197088
 20
273.53446324222858
 30
0.0
 11
533.23428809197094
 21
273.53446324222858
 31
0.0
  0
LINE
  5
D0F5
  8
0
 10
393.23428809197088
 20
271.0344632422287
 30
0.0
 11
533.23428809197094
 21
271.0344632422287
 31
0.0
  0
LINE
  5
D105
  8
0
 10
427.23428809197088
 20
270.23446324222868
 30
0.0
 11
499.23428809197088
 21
270.23446324222868
 31
0.0
  0
LINE
  5
D106
  8
0
 10
428.73306742799281
 20
261.73446324222868
 30
0.0
 11
497.73550875594901
 21
261.73446324222868
 31
0.0
  0
LINE
  5
D107
  8
0
 10
451.92057959298609
 20
259.73446324222868
 30
0.0
 11
418.23428809197088
 21
259.73446324222868
 31
0.0
  0
LINE
  5
D108
  8
0
 10
451.92057959298609
 20
259.73446324222868
 30
0.0
 11
451.92057959298609
 21
193.5968752818776
 31
0.0
  0
LINE
  5
D109
  8
0
 10
418.23428809197088
 20
259.73446324222868
 30
0.0
 11
418.23428809197088
 21
256.03446324222858
 31
0.0
  0
LINE
  5
D10B
  8
0
 10
418.23428809197088
 20
256.03446324222858
 30
0.0
 11
392.84759900579729
 21
157.01802007624769
 31
0.0
  0
ARC
  5
D10C
  8
0
 10
402.53428809197112
 20
154.53446324222861
 30
0.0
 40
9.9999999999999964
 50
165.6197686870164
 51
270.0
  0
LINE
  5
D10D
  8
0
 10
402.53428809197078
 20
144.53446324222861
 30
0.0
 11
411.93428809197098
 21
144.53446324222861
 31
0.0
  0
ARC
  5
D10E
  8
0
 10
411.93428809197098
 20
154.53446324222861
 30
0.0
 40
10.00000000000002
 50
270.0
 51
324.6356083159053
  0
LINE
  5
D10F
  8
0
 10
420.08916460511273
 20
148.7467185125945
 30
0.0
 11
451.92057959298609
 21
193.5968752818776
 31
0.0
  0
POLYLINE
  5
D110
  8
0
 66
     1
 10
0.0
 20
0.0
 30
0.0
  0
VERTEX
  5
14155
  8
0
 10
451.92057959298609
 20
193.5968752818776
 30
0.0
  0
VERTEX
  5
14156
  8
0
 10
453.5898598514288
 20
195.94887506924329
 30
0.0
  0
VERTEX
  5
14157
  8
0
 10
457.00593413063638
 20
200.76209078762551
 30
0.0
  0
VERTEX
  5
14158
  8
0
 10
460.49286019275542
 20
205.6751359849097
 30
0.0
  0
VERTEX
  5
14159
  8
0
 10
462.25051615100301
 20
208.15165628109821
 30
0.0
  0
VERTEX
  5
1415A
  8
0
 10
464.01097187078312
 20
210.63212141428789
 30
0.0
  0
VERTEX
  5
1415B
  8
0
 10
467.52024824002291
 20
215.576657978783
 30
0.0
  0
VERTEX
  5
1415C
  8
0
 10
470.98076888345491
 20
220.4524981957629
 30
0.0
  0
VERTEX
  5
1415D
  8
0
 10
474.35316801375939
 20
225.20417605049801
 30
0.0
  0
VERTEX
  5
1415E
  8
0
 10
476.2643954582918
 20
227.89707708998029
 30
0.0
  0
VERTEX
  5
1415F
  8
0
 10
476.80150958641428
 20
228.653865717142
 30
0.0
  0
VERTEX
  5
14160
  8
0
 10
477.33433263470158
 20
229.4046082541947
 30
0.0
  0
VERTEX
  5
14161
  8
0
 10
477.59908228605423
 20
229.77763795998379
 30
0.0
  0
VERTEX
  5
14162
  8
0
 10
477.86269608034758
 20
230.14906725412951
 30
0.0
  0
VERTEX
  5
14163
  8
0
 10
478.38643281104208
 20
230.88700725731269
 30
0.0
  0
VERTEX
  5
14164
  8
0
 10
478.9053771778253
 20
231.6181948659578
 30
0.0
  0
VERTEX
  5
14165
  8
0
 10
479.41936504748099
 20
232.342398817945
 30
0.0
  0
VERTEX
  5
14166
  8
0
 10
479.92823385444689
 20
233.05939005996521
 30
0.0
  0
VERTEX
  5
14167
  8
0
 10
480.43182265223322
 20
233.76894181996661
 30
0.0
  0
VERTEX
  5
14168
  8
0
 10
480.68158720715923
 20
234.12085766939089
 30
0.0
  0
VERTEX
  5
14169
  8
0
 10
480.9299721643269
 20
234.47082967887741
 30
0.0
  0
VERTEX
  5
1416A
  8
0
 10
481.42252483456741
 20
235.1648316415872
 30
0.0
  0
VERTEX
  5
1416B
  8
0
 10
481.9093248769795
 20
235.85072820715911
 30
0.0
  0
VERTEX
  5
1416C
  8
0
 10
482.15051947580508
 20
236.19056907107779
 30
0.0
  0
VERTEX
  5
1416D
  8
0
 10
482.39021832504562
 20
236.52830243825451
 30
0.0
  0
VERTEX
  5
1416E
  8
0
 10
482.86505308040319
 20
237.19734002974701
 30
0.0
  0
VERTEX
  5
1416F
  8
0
 10
483.33367896094973
 20
237.8576293765029
 30
0.0
  0
VERTEX
  5
14170
  8
0
 10
483.56561717694171
 20
238.1844280862679
 30
0.0
  0
VERTEX
  5
14171
  8
0
 10
483.79594774834408
 20
238.5089616403084
 30
0.0
  0
VERTEX
  5
14172
  8
0
 10
484.25171323488462
 20
239.15113081592199
 30
0.0
  0
VERTEX
  5
14173
  8
0
 10
484.7008312697526
 20
239.7839337962296
 30
0.0
  0
VERTEX
  5
14174
  8
0
 10
485.14315980460401
 20
240.4071704364849
 30
0.0
  0
VERTEX
  5
14175
  8
0
 10
485.57855893849768
 20
241.0206436176104
 30
0.0
  0
VERTEX
  5
14176
  8
0
 10
486.00689096214342
 20
241.62415930854451
 30
0.0
  0
VERTEX
  5
14177
  8
0
 10
486.21836438348259
 20
241.92212331998459
 30
0.0
  0
VERTEX
  5
14178
  8
0
 10
486.42802040145659
 20
242.21752662760829
 30
0.0
  0
VERTEX
  5
14179
  8
0
 10
486.84181406040739
 20
242.80055790287969
 30
0.0
  0
VERTEX
  5
1417A
  8
0
 10
487.2481410631467
 20
243.37306873155009
 30
0.0
  0
VERTEX
  5
1417B
  8
0
 10
487.64687289540183
 20
243.93487803824789
 30
0.0
  0
VERTEX
  5
1417C
  8
0
 10
488.03788344512208
 20
244.48580813230981
 30
0.0
  0
VERTEX
  5
1417D
  8
0
 10
488.42104904236589
 20
245.02568476398099
 30
0.0
  0
VERTEX
  5
1417E
  8
0
 10
488.60965201435869
 20
245.29142453283069
 30
0.0
  0
VERTEX
  5
1417F
  8
0
 10
488.79624849841628
 20
245.55433717952789
 30
0.0
  0
VERTEX
  5
14180
  8
0
 10
489.16336314411041
 20
246.07159817524391
 30
0.0
  0
VERTEX
  5
14181
  8
0
 10
489.522276867372
 20
246.5773041503337
 30
0.0
  0
VERTEX
  5
14182
  8
0
 10
489.87287614993647
 20
247.0712951586568
 30
0.0
  0
VERTEX
  5
14183
  8
0
 10
490.21505010325433
 20
247.55341495931651
 30
0.0
  0
VERTEX
  5
14184
  8
0
 10
490.54869050356342
 20
248.0235110660756
 30
0.0
  0
VERTEX
  5
14185
  8
0
 10
490.71227753850798
 20
248.25400362085151
 30
0.0
  0
VERTEX
  5
14186
  8
0
 10
490.8736918261186
 20
248.4814347955853
 30
0.0
  0
VERTEX
  5
14187
  8
0
 10
491.18995127856641
 20
248.92704131441161
 30
0.0
  0
VERTEX
  5
14188
  8
0
 10
491.49736883345798
 20
249.36018968484291
 30
0.0
  0
VERTEX
  5
14189
  8
0
 10
491.79584725988502
 20
249.78074290946691
 30
0.0
  0
VERTEX
  5
1418A
  8
0
 10
492.08529215423198
 20
250.1885679745003
 30
0.0
  0
VERTEX
  5
1418B
  8
0
 10
492.36561197003527
 20
250.58353589185819
 30
0.0
  0
VERTEX
  5
1418C
  8
0
 10
492.50232215361001
 20
250.776159222226
 30
0.0
  0
VERTEX
  5
1418D
  8
0
 10
492.63671804693757
 20
250.96552173995221
 30
0.0
  0
VERTEX
  5
1418E
  8
0
 10
492.89852463872899
 20
251.3344047031992
 30
0.0
  0
VERTEX
  5
1418F
  8
0
 10
493.15094894046752
 20
251.69006811023471
 30
0.0
  0
VERTEX
  5
14190
  8
0
 10
493.39391111466938
 20
252.03239947081369
 30
0.0
  0
VERTEX
  5
14191
  8
0
 10
493.62733431655897
 20
252.36129051138869
 30
0.0
  0
VERTEX
  5
14192
  8
0
 10
493.85114471837483
 20
252.6766372093557
 30
0.0
  0
VERTEX
  5
14193
  8
0
 10
493.95942287881019
 20
252.82920009328859
 30
0.0
  0
VERTEX
  5
14194
  8
0
 10
494.06527153271918
 20
252.9783398259535
 30
0.0
  0
VERTEX
  5
14195
  8
0
 10
494.26964703494758
 20
253.26630293781139
 30
0.0
  0
VERTEX
  5
14196
  8
0
 10
494.46420658458823
 20
253.54043546712771
 30
0.0
  0
VERTEX
  5
14197
  8
0
 10
494.55778602542063
 20
253.67228799687931
 30
0.0
  0
VERTEX
  5
14198
  8
0
 10
494.64888864578728
 20
253.80065071047781
 30
0.0
  0
VERTEX
  5
14199
  8
0
 10
494.82363480677122
 20
254.0468663662364
 30
0.0
  0
VERTEX
  5
1419A
  8
0
 10
494.98838979832152
 20
254.27900456060729
 30
0.0
  0
VERTEX
  5
1419B
  8
0
 10
495.0670041975431
 20
254.3897714910361
 30
0.0
  0
VERTEX
  5
1419C
  8
0
 10
495.14310151125568
 20
254.49699187225499
 30
0.0
  0
VERTEX
  5
1419D
  8
0
 10
495.28772101290861
 20
254.70075935552541
 30
0.0
  0
VERTEX
  5
1419E
  8
0
 10
495.42220256260759
 20
254.89024256225301
 30
0.0
  0
VERTEX
  5
1419F
  8
0
 10
495.54650362614183
 20
255.06538156214421
 30
0.0
  0
VERTEX
  5
141A0
  8
0
 10
495.66058488921311
 20
255.22612096173231
 30
0.0
  0
VERTEX
  5
141A1
  8
0
 10
495.76441026987192
 20
255.372409921898
 30
0.0
  0
VERTEX
  5
141A2
  8
0
 10
495.8124666153617
 20
255.44012084928821
 30
0.0
  0
VERTEX
  5
141A3
  8
0
 10
495.85794692992789
 20
255.50420217394779
 30
0.0
  0
VERTEX
  5
141A4
  8
0
 10
495.94116528533732
 20
255.62145603424921
 30
0.0
  0
VERTEX
  5
141A5
  8
0
 10
496.01403901555909
 20
255.72413441741449
 30
0.0
  0
VERTEX
  5
141A6
  8
0
 10
496.07654507188062
 20
255.8122048480289
 30
0.0
  0
VERTEX
  5
141A7
  8
0
 10
496.1286636847064
 20
255.88563947092351
 30
0.0
  0
VERTEX
  5
141A8
  8
0
 10
496.17037836981171
 20
255.94441505998429
 30
0.0
  0
VERTEX
  5
141A9
  8
0
 10
496.18732998779711
 20
255.9682997262619
 30
0.0
  0
VERTEX
  5
141AA
  8
0
 10
496.20167593355598
 20
255.98851302549929
 30
0.0
  0
VERTEX
  5
141AB
  8
0
 10
496.22254647705591
 20
256.01791942003712
 30
0.0
  0
VERTEX
  5
141AC
  8
0
 10
496.2329833993158
 20
256.0326249428586
 30
0.0
  0
VERTEX
  5
141AD
  8
0
 10
496.23428809197088
 20
256.03446324222858
 30
0.0
  0
SEQEND
  5
141AE
  8
0
  0
LINE
  5
D116
  8
1
 10
463.23428809197088
 20
289.25801209479442
 30
0.0
 11
463.23428809197088
 21
225.7415639117319
 31
0.0
  0
ARC
  5
D134
  8
0
 10
407.23428809197088
 20
154.53446324222861
 30
0.0
 40
75.000000000000199
 50
86.808217754208087
 51
44.007285083335098
  0
ARC
  5
D136
  8
0
 10
407.23428809197088
 20
154.53446324222861
 30
0.0
 40
61.832662348034837
 50
89.232430556097796
 51
41.704324537008091
  0
ARC
  5
D13E
  8
0
 10
407.23428809197088
 20
154.53446324222861
 30
0.0
 40
24.358818170688291
 50
112.30598623890251
 51
20.033352456707611
  0
ARC
  5
D146
  8
0
 10
407.23428809197088
 20
154.53446324222861
 30
0.0
 40
70.062472123098857
 50
87.608011414482121
 51
43.248597083130477
  0
CIRCLE
  5
11320
  8
0
 10
407.23428809197088
 20
154.53446324222821
 30
0.0
 40
8.6625000000000121
  0
LINE
  5
11321
  8
1
 10
316.51073923940589
 20
154.53446324222821
 30
0.0
 11
497.95783694453689
 21
154.53446324222821
 31
0.0
  0
LINE
  5
11322
  8
1
 10
407.23428809197128
 20
63.810914389662692
 30
0.0
 11
407.23428809197128
 21
245.25801209479391
 31
0.0
  0
LINE
  5
11323
  8
0
 10
407.23428809197128
 20
164.53705665593861
 30
0.0
 11
415.89678809197079
 21
159.53575994908331
 31
0.0
  0
LINE
  5
11324
  8
0
 10
415.89678809197079
 20
159.53575994908331
 30
0.0
 11
415.89678809197079
 21
149.53316653537311
 31
0.0
  0
LINE
  5
11325
  8
0
 10
415.89678809197079
 20
149.53316653537311
 30
0.0
 11
407.23428809197128
 21
144.5318698285177
 31
0.0
  0
LINE
  5
11326
  8
0
 10
407.23428809197048
 20
164.53705665593861
 30
0.0
 11
398.5717880919708
 21
159.53575994908351
 31
0.0
  0
LINE
  5
11327
  8
0
 10
398.5717880919708
 20
159.53575994908351
 30
0.0
 11
398.57178809197057
 21
149.53316653537311
 31
0.0
  0
LINE
  5
11328
  8
0
 10
398.57178809197057
 20
149.53316653537311
 30
0.0
 11
407.23428809196997
 21
144.5318698285177
 31
0.0
  0
LINE
  5
1152F
  8
0
 10
176.52037466535759
 20
270.22272068512939
 30
0.0
 11
176.52037466535759
 21
271.0227206851294
 31
0.0
  0
LINE
  5
11530
  8
0
 10
106.9203746653577
 20
271.0227206851294
 30
0.0
 11
106.9203746653577
 21
270.22272068512939
 31
0.0
  0
LINE
  5
11531
  8
0
 10
176.22159532933571
 20
261.72272068512939
 30
0.0
 11
177.72037466535761
 21
270.22272068512939
 31
0.0
  0
LINE
  5
11532
  8
0
 10
105.7203746653576
 20
270.22272068512939
 30
0.0
 11
107.21915400137959
 21
261.72272068512939
 31
0.0
  0
LINE
  5
11533
  8
0
 10
174.7203746653577
 20
209.52603890236259
 30
0.0
 11
174.7203746653577
 21
261.72272068512939
 31
0.0
  0
LINE
  5
11534
  8
0
 10
108.7203746653576
 20
261.72272068512939
 30
0.0
 11
108.7203746653576
 21
209.52603890236259
 31
0.0
  0
LINE
  5
1153B
  8
0
 10
196.72037466535761
 20
273.52272068512929
 30
0.0
 11
196.72037466535761
 21
271.0227206851294
 31
0.0
  0
LINE
  5
1153D
  8
0
 10
86.720374665357667
 20
273.52272068512929
 30
0.0
 11
196.72037466535761
 21
273.52272068512929
 31
0.0
  0
LINE
  5
1153F
  8
0
 10
86.720374665357667
 20
271.0227206851294
 30
0.0
 11
196.72037466535761
 21
271.0227206851294
 31
0.0
  0
LINE
  5
11540
  8
0
 10
86.720374665357667
 20
273.52272068512929
 30
0.0
 11
86.720374665357667
 21
271.0227206851294
 31
0.0
  0
LINE
  5
1154F
  8
0
 10
105.7203746653576
 20
270.22272068512939
 30
0.0
 11
177.72037466535761
 21
270.22272068512939
 31
0.0
  0
LINE
  5
11550
  8
0
 10
107.21915400137959
 20
261.72272068512939
 30
0.0
 11
176.22159532933571
 21
261.72272068512939
 31
0.0
  0
LINE
  5
11551
  8
0
 10
172.7203746653577
 20
259.72272068512939
 30
0.0
 11
110.7203746653576
 21
259.72272068512939
 31
0.0
  0
LINE
  5
11555
  8
0
 10
113.7203746653576
 20
256.0227206851294
 30
0.0
 11
169.7203746653577
 21
256.0227206851294
 31
0.0
  0
LINE
  5
11558
  8
0
 10
172.7203746653577
 20
259.72272068512939
 30
0.0
 11
172.7203746653577
 21
144.52272068512929
 31
0.0
  0
POLYLINE
  5
1155D
  8
0
 66
     1
 10
0.0
 20
0.0
 30
0.0
  0
VERTEX
  5
141AF
  8
0
 10
113.7203746653576
 20
226.5540399301392
 30
0.0
  0
VERTEX
  5
141B0
  8
0
 10
113.8934420820908
 20
227.11934851664481
 30
0.0
  0
VERTEX
  5
141B1
  8
0
 10
114.07798716073989
 20
227.68772309533759
 30
0.0
  0
VERTEX
  5
141B2
  8
0
 10
114.2683796035019
 20
228.25225582135471
 30
0.0
  0
VERTEX
  5
141B3
  8
0
 10
114.666544253422
 20
229.3693188770082
 30
0.0
  0
VERTEX
  5
141B4
  8
0
 10
115.08759914480559
 20
230.46959253673731
 30
0.0
  0
VERTEX
  5
141B5
  8
0
 10
115.3065998499323
 20
231.0131418474291
 30
0.0
  0
VERTEX
  5
141B6
  8
0
 10
115.5311880231788
 20
231.55214585917949
 30
0.0
  0
VERTEX
  5
141B7
  8
0
 10
115.9969355680646
 20
232.61606289614679
 30
0.0
  0
VERTEX
  5
141B8
  8
0
 10
116.4844477105416
 20
233.6604434676087
 30
0.0
  0
VERTEX
  5
141B9
  8
0
 10
116.7362373145433
 20
234.17503077184119
 30
0.0
  0
VERTEX
  5
141BA
  8
0
 10
116.9933119666662
 20
234.68440392333579
 30
0.0
  0
VERTEX
  5
141BB
  8
0
 10
117.52309778647481
 20
235.68707789055469
 30
0.0
  0
VERTEX
  5
141BC
  8
0
 10
118.07335691827301
 20
236.6676170069868
 30
0.0
  0
VERTEX
  5
141BD
  8
0
 10
118.6436237878993
 20
237.62519163864661
 30
0.0
  0
VERTEX
  5
141BE
  8
0
 10
119.23341589264891
 20
238.55899158179571
 30
0.0
  0
VERTEX
  5
141BF
  8
0
 10
119.8422342095193
 20
239.46822674845569
 30
0.0
  0
VERTEX
  5
141C0
  8
0
 10
120.15361783916789
 20
239.9133913033825
 30
0.0
  0
VERTEX
  5
141C1
  8
0
 10
120.4695636174326
 20
240.35212783490169
 30
0.0
  0
VERTEX
  5
141C2
  8
0
 10
121.1148733330801
 20
241.2099469725697
 30
0.0
  0
VERTEX
  5
141C3
  8
0
 10
121.7776173600171
 20
242.0409583608284
 30
0.0
  0
VERTEX
  5
141C4
  8
0
 10
122.4572349506315
 20
242.84445888107871
 30
0.0
  0
VERTEX
  5
141C5
  8
0
 10
123.1531510805917
 20
243.61976869166281
 30
0.0
  0
VERTEX
  5
141C6
  8
0
 10
123.86477693537449
 20
244.3662318030772
 30
0.0
  0
VERTEX
  5
141C7
  8
0
 10
124.2262933566508
 20
244.7284475089609
 30
0.0
  0
VERTEX
  5
141C8
  8
0
 10
124.5915104084611
 20
245.0832166330058
 30
0.0
  0
VERTEX
  5
141C9
  8
0
 10
125.33273661077961
 20
245.7701165407025
 30
0.0
  0
VERTEX
  5
141CA
  8
0
 10
126.0878283909619
 20
246.42635034026759
 30
0.0
  0
VERTEX
  5
141CB
  8
0
 10
126.8561468659768
 20
247.0513627923917
 30
0.0
  0
VERTEX
  5
141CC
  8
0
 10
127.63704196168921
 20
247.64462507414169
 30
0.0
  0
VERTEX
  5
141CD
  8
0
 10
128.4298529628868
 20
248.2056352263987
 30
0.0
  0
VERTEX
  5
141CE
  8
0
 10
128.83051768226639
 20
248.47389634230629
 30
0.0
  0
VERTEX
  5
141CF
  8
0
 10
129.23390907231189
 20
248.7339185785645
 30
0.0
  0
VERTEX
  5
141D0
  8
0
 10
130.0485299782224
 20
249.2290281501823
 30
0.0
  0
VERTEX
  5
141D1
  8
0
 10
130.87302643000379
 20
249.69054502912471
 30
0.0
  0
VERTEX
  5
141D2
  8
0
 10
131.7067008213439
 20
250.1180787260364
 30
0.0
  0
VERTEX
  5
141D3
  8
0
 10
132.54884778047739
 20
250.5112675047267
 30
0.0
  0
VERTEX
  5
141D4
  8
0
 10
133.3987547670001
 20
250.86977868823439
 30
0.0
  0
VERTEX
  5
141D5
  8
0
 10
133.8263937897309
 20
251.0359342359059
 30
0.0
  0
VERTEX
  5
141D6
  8
0
 10
134.25570267475081
 20
251.1933089403062
 30
0.0
  0
VERTEX
  5
141D7
  8
0
 10
135.1189664402454
 20
251.48158452204939
 30
0.0
  0
VERTEX
  5
141D8
  8
0
 10
135.9878156561542
 20
251.73436152354091
 30
0.0
  0
VERTEX
  5
141D9
  8
0
 10
136.86151518929819
 20
251.95142607020199
 30
0.0
  0
VERTEX
  5
141DA
  8
0
 10
137.73932580264611
 20
252.132594503755
 30
0.0
  0
VERTEX
  5
141DB
  8
0
 10
138.62050478078211
 20
252.27771353761841
 30
0.0
  0
VERTEX
  5
141DC
  8
0
 10
139.06212451155389
 20
252.33671496481611
 30
0.0
  0
VERTEX
  5
141DD
  8
0
 10
139.50430655831809
 20
252.38666038660111
 30
0.0
  0
VERTEX
  5
141DE
  8
0
 10
140.3899833507148
 20
252.4593428707924
 30
0.0
  0
VERTEX
  5
141DF
  8
0
 10
141.27678578698439
 20
252.49569949355441
 30
0.0
  0
VERTEX
  5
141E0
  8
0
 10
141.72037466535761
 20
252.50024479249549
 30
0.0
  0
VERTEX
  5
141E1
  8
0
 10
142.16396354373089
 20
252.49569949355441
 30
0.0
  0
VERTEX
  5
141E2
  8
0
 10
143.05076598000051
 20
252.4593428707924
 30
0.0
  0
VERTEX
  5
141E3
  8
0
 10
143.93644277239721
 20
252.38666038660111
 30
0.0
  0
VERTEX
  5
141E4
  8
0
 10
144.3786248191613
 20
252.33671496481611
 30
0.0
  0
VERTEX
  5
141E5
  8
0
 10
144.82024454993319
 20
252.27771353761841
 30
0.0
  0
VERTEX
  5
141E6
  8
0
 10
145.7014235280692
 20
252.132594503755
 30
0.0
  0
VERTEX
  5
141E7
  8
0
 10
146.57923414141709
 20
251.95142607020199
 30
0.0
  0
VERTEX
  5
141E8
  8
0
 10
147.45293367456111
 20
251.73436152354091
 30
0.0
  0
VERTEX
  5
141E9
  8
0
 10
148.3217828904699
 20
251.48158452204939
 30
0.0
  0
VERTEX
  5
141EA
  8
0
 10
149.1850466559645
 20
251.1933089403062
 30
0.0
  0
VERTEX
  5
141EB
  8
0
 10
149.61435554098441
 20
251.0359342359059
 30
0.0
  0
VERTEX
  5
141EC
  8
0
 10
150.04199456371521
 20
250.86977868823439
 30
0.0
  0
VERTEX
  5
141ED
  8
0
 10
150.89190155023789
 20
250.5112675047267
 30
0.0
  0
VERTEX
  5
141EE
  8
0
 10
151.73404850937141
 20
250.1180787260364
 30
0.0
  0
VERTEX
  5
141EF
  8
0
 10
152.56772290071149
 20
249.69054502912471
 30
0.0
  0
VERTEX
  5
141F0
  8
0
 10
153.3922193524929
 20
249.2290281501823
 30
0.0
  0
VERTEX
  5
141F1
  8
0
 10
154.20684025840339
 20
248.7339185785645
 30
0.0
  0
VERTEX
  5
141F2
  8
0
 10
154.61023164844889
 20
248.47389634230629
 30
0.0
  0
VERTEX
  5
141F3
  8
0
 10
155.01089636782851
 20
248.2056352263987
 30
0.0
  0
VERTEX
  5
141F4
  8
0
 10
155.80370736902611
 20
247.64462507414191
 30
0.0
  0
VERTEX
  5
141F5
  8
0
 10
156.58460246473851
 20
247.0513627923917
 30
0.0
  0
VERTEX
  5
141F6
  8
0
 10
157.3529209397536
 20
246.42635034026759
 30
0.0
  0
VERTEX
  5
141F7
  8
0
 10
158.10801271993569
 20
245.7701165407025
 30
0.0
  0
VERTEX
  5
141F8
  8
0
 10
158.84923892225419
 20
245.0832166330058
 30
0.0
  0
VERTEX
  5
141F9
  8
0
 10
159.21445597406449
 20
244.7284475089609
 30
0.0
  0
VERTEX
  5
141FA
  8
0
 10
159.57597239534081
 20
244.3662318030772
 30
0.0
  0
VERTEX
  5
141FB
  8
0
 10
160.28759825012361
 20
243.61976869166281
 30
0.0
  0
VERTEX
  5
141FC
  8
0
 10
160.9835143800837
 20
242.84445888107871
 30
0.0
  0
VERTEX
  5
141FD
  8
0
 10
161.6631319706982
 20
242.0409583608284
 30
0.0
  0
VERTEX
  5
141FE
  8
0
 10
162.32587599763519
 20
241.2099469725697
 30
0.0
  0
VERTEX
  5
141FF
  8
0
 10
162.97118571328269
 20
240.35212783490169
 30
0.0
  0
VERTEX
  5
14200
  8
0
 10
163.28713149154731
 20
239.9133913033825
 30
0.0
  0
VERTEX
  5
14201
  8
0
 10
163.59851512119599
 20
239.46822674845569
 30
0.0
  0
VERTEX
  5
14202
  8
0
 10
164.20733343806631
 20
238.55899158179571
 30
0.0
  0
VERTEX
  5
14203
  8
0
 10
164.79712554281599
 20
237.62519163864661
 30
0.0
  0
VERTEX
  5
14204
  8
0
 10
165.36739241244231
 20
236.6676170069868
 30
0.0
  0
VERTEX
  5
14205
  8
0
 10
165.91765154424041
 20
235.68707789055469
 30
0.0
  0
VERTEX
  5
14206
  8
0
 10
166.44743736404911
 20
234.68440392333579
 30
0.0
  0
VERTEX
  5
14207
  8
0
 10
166.704512016172
 20
234.17503077184119
 30
0.0
  0
VERTEX
  5
14208
  8
0
 10
166.95630162017369
 20
233.6604434676087
 30
0.0
  0
VERTEX
  5
14209
  8
0
 10
167.44381376265071
 20
232.61606289614679
 30
0.0
  0
VERTEX
  5
1420A
  8
0
 10
167.90956130753651
 20
231.55214585917949
 30
0.0
  0
VERTEX
  5
1420B
  8
0
 10
168.13414948078301
 20
231.0131418474291
 30
0.0
  0
VERTEX
  5
1420C
  8
0
 10
168.3531501859097
 20
230.46959253673731
 30
0.0
  0
VERTEX
  5
1420D
  8
0
 10
168.77420507729349
 20
229.3693188770082
 30
0.0
  0
VERTEX
  5
1420E
  8
0
 10
169.17236972721321
 20
228.25225582135471
 30
0.0
  0
VERTEX
  5
1420F
  8
0
 10
169.36276216997541
 20
227.68772309533759
 30
0.0
  0
VERTEX
  5
14210
  8
0
 10
169.54730724862469
 20
227.119348516645
 30
0.0
  0
VERTEX
  5
14211
  8
0
 10
169.7203746653577
 20
226.55403993013991
 30
0.0
  0
SEQEND
  5
14212
  8
0
  0
POLYLINE
  5
11560
  8
0
 66
     1
 10
0.0
 20
0.0
 30
0.0
  0
VERTEX
  5
14213
  8
0
 10
110.7203746653576
 20
193.5851327247783
 30
0.0
  0
VERTEX
  5
14214
  8
0
 10
110.6118660201671
 20
194.010458070672
 30
0.0
  0
VERTEX
  5
14215
  8
0
 10
110.4036767934417
 20
194.86546651790849
 30
0.0
  0
VERTEX
  5
14216
  8
0
 10
110.20732342376211
 20
195.72601579322529
 30
0.0
  0
VERTEX
  5
14217
  8
0
 10
110.1136085514372
 20
196.15826668340279
 30
0.0
  0
VERTEX
  5
14218
  8
0
 10
110.0228801210728
 20
196.59178065996301
 30
0.0
  0
VERTEX
  5
14219
  8
0
 10
109.8504165940189
 20
197.46243391027741
 30
0.0
  0
VERTEX
  5
1421A
  8
0
 10
109.6899980235992
 20
198.33764648880469
 30
0.0
  0
VERTEX
  5
1421B
  8
0
 10
109.22422104681389
 20
201.4320055279006
 30
0.0
  0
VERTEX
  5
1421C
  8
0
 10
108.77648473016571
 20
206.8157493747533
 30
0.0
  0
VERTEX
  5
1421D
  8
0
 10
108.7203746653576
 20
209.52603890236259
 30
0.0
  0
SEQEND
  5
1421E
  8
0
  0
POLYLINE
  5
11562
  8
0
 66
     1
 10
0.0
 20
0.0
 30
0.0
  0
VERTEX
  5
1421F
  8
0
 10
174.7203746653577
 20
209.52603890236259
 30
0.0
  0
VERTEX
  5
14220
  8
0
 10
174.66426460054981
 20
206.8157493747533
 30
0.0
  0
VERTEX
  5
14221
  8
0
 10
174.2165282839014
 20
201.4320055279006
 30
0.0
  0
VERTEX
  5
14222
  8
0
 10
173.7507513071161
 20
198.33764648880469
 30
0.0
  0
VERTEX
  5
14223
  8
0
 10
173.59033273669641
 20
197.46243391027741
 30
0.0
  0
VERTEX
  5
14224
  8
0
 10
173.4178692096425
 20
196.59178065996301
 30
0.0
  0
VERTEX
  5
14225
  8
0
 10
173.3271407792781
 20
196.15826668340279
 30
0.0
  0
VERTEX
  5
14226
  8
0
 10
173.23342590695319
 20
195.72601579322529
 30
0.0
  0
VERTEX
  5
14227
  8
0
 10
173.03707253727359
 20
194.86546651790849
 30
0.0
  0
VERTEX
  5
14228
  8
0
 10
172.82888331054821
 20
194.010458070672
 30
0.0
  0
VERTEX
  5
14229
  8
0
 10
172.7203746653577
 20
193.5851327247783
 30
0.0
  0
SEQEND
  5
1422A
  8
0
  0
LINE
  5
11564
  8
0
 10
113.7203746653576
 20
143.52272068512929
 30
0.0
 11
113.7203746653576
 21
256.0227206851294
 31
0.0
  0
LINE
  5
11567
  8
0
 10
169.7203746653577
 20
256.0227206851294
 30
0.0
 11
169.7203746653577
 21
143.52272068512951
 31
0.0
  0
ARC
  5
115FA
  8
0
 10
162.2203746653577
 20
224.58519280822819
 30
0.0
 40
1.999999999999996
 50
0.0
 51
73.690734553588598
  0
ARC
  5
115FB
  8
0
 10
162.2203746653577
 20
84.460248562030515
 30
0.0
 40
2.0000000000000009
 50
286.30926544641142
 51
0.0
  0
ARC
  5
115FC
  8
0
 10
141.72037466535789
 20
154.52272068512909
 30
0.0
 40
75.000000000000043
 50
253.6907345535885
 51
286.30926544641142
  0
ARC
  5
115FD
  8
0
 10
141.72037466535789
 20
154.52272068512929
 30
0.0
 40
75.000000000000199
 50
73.690734553588598
 51
106.3092654464114
  0
ARC
  5
115FE
  8
0
 10
121.2203746653576
 20
224.58519280822819
 30
0.0
 40
1.9999999999999989
 50
106.3092654464114
 51
180.0
  0
ARC
  5
115FF
  8
0
 10
121.2203746653576
 20
84.460248562030515
 30
0.0
 40
1.9999999999999889
 50
180.0
 51
253.6907345535885
  0
LINE
  5
1160A
  8
0
 10
164.22037466535761
 20
224.58519280822819
 30
0.0
 11
164.22037466535761
 21
84.460248562030515
 31
0.0
  0
LINE
  5
1160C
  8
0
 10
119.2203746653576
 20
224.58519280822819
 30
0.0
 11
119.2203746653576
 21
84.460248562030515
 31
0.0
  0
LINE
  5
11615
  8
1
 10
678.07416296126371
 20
63.810914389662692
 30
0.0
 11
678.07416296126371
 21
289.25801209479442
 31
0.0
  0
LINE
  5
11621
  8
1
 10
141.72037466535789
 20
63.799171832563609
 30
0.0
 11
141.72037466535789
 21
289.2462695376953
 31
0.0
  0
LINE
  5
11691
  8
0
 10
110.7203746653576
 20
143.52272068512929
 30
0.0
 11
110.7203746653576
 21
259.72272068512939
 31
0.0
  0
LINE
  5
1230E
  8
0
 10
405.23428809197088
 20
503.8069061122232
 30
0.0
 11
405.23428809197088
 21
510.80690611222332
 31
0.0
  0
ARC
  5
1230F
  8
0
 10
410.73428809197088
 20
510.80690611222332
 30
0.0
 40
5.4999999999999973
 50
0.0
 51
180.0
  0
LINE
  5
12310
  8
0
 10
416.23428809197088
 20
510.80690611222332
 30
0.0
 11
416.23428809197088
 21
503.8069061122232
 31
0.0
  0
ARC
  5
12311
  8
0
 10
410.73428809197088
 20
503.8069061122232
 30
0.0
 40
5.5000000000000009
 50
180.0
 51
0.0
  0
ARC
  5
12312
  8
0
 10
410.73428809197088
 20
423.8069061122232
 30
0.0
 40
5.5000000000000009
 50
180.0
 51
0.0
  0
LINE
  5
12313
  8
0
 10
405.23428809197088
 20
423.8069061122232
 30
0.0
 11
405.23428809197088
 21
430.8069061122232
 31
0.0
  0
ARC
  5
12314
  8
0
 10
410.73428809197088
 20
430.8069061122232
 30
0.0
 40
5.4999999999999973
 50
0.0
 51
180.0
  0
LINE
  5
12315
  8
0
 10
416.23428809197088
 20
430.8069061122232
 30
0.0
 11
416.23428809197088
 21
423.8069061122232
 31
0.0
  0
LINE
  5
1231C
  8
0
 10
413.23428809197128
 20
510.30690611219069
 30
0.0
 11
413.23428809197128
 21
512.23340611219066
 31
0.0
  0
LINE
  5
1231D
  8
0
 10
413.23428809197128
 20
512.23340611219066
 30
0.0
 11
412.16078809197143
 21
513.30690611219075
 31
0.0
  0
LINE
  5
1231E
  8
0
 10
415.54928809197139
 20
506.55690611219069
 30
0.0
 11
415.54928809197139
 21
510.30690611219069
 31
0.0
  0
LINE
  5
1231F
  8
0
 10
413.23428809197128
 20
512.23340611219066
 30
0.0
 11
405.42249952783408
 21
512.23340611219066
 31
0.0
  0
LINE
  5
12320
  8
0
 10
412.16078809197143
 20
513.30690611219075
 30
0.0
 11
405.83530860638751
 21
513.30690611219075
 31
0.0
  0
LINE
  5
12321
  8
0
 10
415.89678809197079
 20
428.80690611219069
 30
0.0
 11
405.23428809197139
 21
428.80690611219069
 31
0.0
  0
LINE
  5
12322
  8
0
 10
413.23228729139009
 20
435.70690611219169
 30
0.0
 11
408.23628889255127
 21
435.70690611219152
 31
0.0
  0
LINE
  5
12323
  8
0
 10
415.89570678276772
 20
429.1659830601767
 30
0.0
 11
415.89570678276772
 21
432.7068421896463
 31
0.0
  0
LINE
  5
12324
  8
0
 10
415.54928809197139
 20
510.30690611219069
 30
0.0
 11
405.23428809197088
 21
510.30690611219069
 31
0.0
  0
LINE
  5
12325
  8
0
 10
415.89678809197119
 20
506.55690611219069
 30
0.0
 11
405.23428809197139
 21
506.55690611219069
 31
0.0
  0
LINE
  5
12326
  8
3
 10
412.16078809197143
 20
513.30690611219075
 30
0.0
 11
412.16078809197143
 21
510.30690611219069
 31
0.0
  0
LINE
  5
12327
  8
0
 10
415.89570678276772
 20
432.70684218964601
 30
0.0
 11
415.89570678276772
 21
428.80690611219069
 31
0.0
  0
LINE
  5
12328
  8
0
 10
415.89570678276772
 20
506.55690611219069
 30
0.0
 11
415.89570678276772
 21
501.90697003480039
 31
0.0
  0
POLYLINE
  5
12329
  8
0
 66
     1
 10
0.0
 20
0.0
 30
0.0
  0
VERTEX
  5
1422B
  8
0
 10
411.56553809197112
 20
506.55690611219069
 30
0.0
  0
VERTEX
  5
1422C
  8
0
 10
410.87008663642331
 20
506.54695385666781
 30
0.0
  0
VERTEX
  5
1422D
  8
0
 10
409.47380622976971
 20
506.46836906326712
 30
0.0
  0
VERTEX
  5
1422E
  8
0
 10
408.0124299401736
 20
506.30973065163761
 30
0.0
  0
VERTEX
  5
1422F
  8
0
 10
407.23428809197088
 20
506.19782916420468
 30
0.0
  0
SEQEND
  5
14230
  8
0
  0
POLYLINE
  5
1232A
  8
0
 66
     1
 10
0.0
 20
0.0
 30
0.0
  0
VERTEX
  5
14231
  8
0
 10
415.89678809197079
 20
506.19782916420468
 30
0.0
  0
VERTEX
  5
14232
  8
0
 10
415.11864624376813
 20
506.30973065163761
 30
0.0
  0
VERTEX
  5
14233
  8
0
 10
413.65726995417202
 20
506.46836906326712
 30
0.0
  0
VERTEX
  5
14234
  8
0
 10
412.26098954751842
 20
506.54695385666781
 30
0.0
  0
VERTEX
  5
14235
  8
0
 10
411.56553809197112
 20
506.55690611219069
 30
0.0
  0
SEQEND
  5
14236
  8
0
  0
POLYLINE
  5
1232B
  8
0
 66
     1
 10
0.0
 20
0.0
 30
0.0
  0
VERTEX
  5
14237
  8
0
 10
405.23428809197088
 20
506.44236838349178
 30
0.0
  0
VERTEX
  5
14238
  8
0
 10
406.45614624376822
 20
506.30973065163761
 30
0.0
  0
VERTEX
  5
14239
  8
0
 10
407.23428809197088
 20
506.19782916420468
 30
0.0
  0
SEQEND
  5
1423A
  8
0
  0
LINE
  5
1232C
  8
0
 10
407.23428809197088
 20
506.19782916420468
 30
0.0
 11
407.23428809197111
 21
499.56426542510371
 31
0.0
  0
POLYLINE
  5
1232D
  8
0
 66
     1
 10
0.0
 20
0.0
 30
0.0
  0
VERTEX
  5
1423B
  8
0
 10
407.23428809197088
 20
429.16598306020751
 30
0.0
  0
VERTEX
  5
1423C
  8
0
 10
408.0124299401736
 20
429.05408157277498
 30
0.0
  0
VERTEX
  5
1423D
  8
0
 10
409.47380622976971
 20
428.89544316114552
 30
0.0
  0
VERTEX
  5
1423E
  8
0
 10
410.87008663642331
 20
428.81685836774471
 30
0.0
  0
VERTEX
  5
1423F
  8
0
 10
411.56553809197112
 20
428.80690611222138
 30
0.0
  0
SEQEND
  5
14240
  8
0
  0
POLYLINE
  5
1232E
  8
0
 66
     1
 10
0.0
 20
0.0
 30
0.0
  0
VERTEX
  5
14241
  8
0
 10
411.56553809197112
 20
428.80690611222138
 30
0.0
  0
VERTEX
  5
14242
  8
0
 10
412.26098954751842
 20
428.81685836774471
 30
0.0
  0
VERTEX
  5
14243
  8
0
 10
413.65726995417202
 20
428.89544316114552
 30
0.0
  0
VERTEX
  5
14244
  8
0
 10
415.11864624376813
 20
429.05408157277498
 30
0.0
  0
VERTEX
  5
14245
  8
0
 10
415.89678809197079
 20
429.16598306020751
 30
0.0
  0
SEQEND
  5
14246
  8
0
  0
POLYLINE
  5
1232F
  8
0
 66
     1
 10
0.0
 20
0.0
 30
0.0
  0
VERTEX
  5
14247
  8
0
 10
407.23428809197088
 20
429.16598306020751
 30
0.0
  0
VERTEX
  5
14248
  8
0
 10
406.45614624376839
 20
429.05408157277401
 30
0.0
  0
VERTEX
  5
14249
  8
0
 10
405.23428809197088
 20
428.92144384091807
 30
0.0
  0
SEQEND
  5
1424A
  8
0
  0
LINE
  5
12330
  8
0
 10
407.23428809197111
 20
435.04954679934281
 30
0.0
 11
407.23428809197111
 21
429.16598306020751
 31
0.0
  0
POLYLINE
  5
12331
  8
0
 66
     1
 10
0.0
 20
0.0
 30
0.0
  0
VERTEX
  5
1424B
  8
0
 10
407.74032269388789
 20
435.42059998970171
 30
0.0
  0
VERTEX
  5
1424C
  8
0
 10
408.0124299401736
 20
435.45973065163798
 30
0.0
  0
VERTEX
  5
1424D
  8
0
 10
409.47380622976971
 20
435.61836906326738
 30
0.0
  0
VERTEX
  5
1424E
  8
0
 10
410.87008663642331
 20
435.69695385666819
 30
0.0
  0
VERTEX
  5
1424F
  8
0
 10
411.56553809197112
 20
435.70690611219152
 30
0.0
  0
SEQEND
  5
14250
  8
0
  0
POLYLINE
  5
12332
  8
0
 66
     1
 10
0.0
 20
0.0
 30
0.0
  0
VERTEX
  5
14251
  8
0
 10
411.56553809197112
 20
435.70690611219152
 30
0.0
  0
VERTEX
  5
14252
  8
0
 10
412.26098954751842
 20
435.69695385666819
 30
0.0
  0
VERTEX
  5
14253
  8
0
 10
413.3693658676508
 20
435.63457274488519
 30
0.0
  0
SEQEND
  5
14254
  8
0
  0
LINE
  5
12335
  8
0
 10
647.07416296126394
 20
156.21273410166981
 30
0.0
 11
647.07416296126394
 21
143.52272068512929
 31
0.0
  0
LINE
  5
12336
  8
0
 10
650.07416296126394
 20
143.52272068512929
 30
0.0
 11
647.07416296126394
 21
143.52272068512929
 31
0.0
  0
LINE
  5
12337
  8
0
 10
709.07416296126394
 20
143.52272068512929
 30
0.0
 11
706.07416296126394
 21
143.52272068512929
 31
0.0
  0
LINE
  5
12338
  8
0
 10
647.07416296126394
 20
146.20772068512929
 30
0.0
 11
646.47416296126403
 21
146.20772068512929
 31
0.0
  0
LINE
  5
12339
  8
0
 10
723.00066296126386
 20
148.52272068512929
 30
0.0
 11
721.07416296126394
 21
148.52272068512929
 31
0.0
  0
LINE
  5
1233A
  8
0
 10
721.07416296126394
 20
160.52272068512929
 30
0.0
 11
723.00066296126386
 21
160.52272068512929
 31
0.0
  0
LINE
  5
1233B
  8
0
 10
724.07416296126394
 20
149.59622068512931
 30
0.0
 11
723.00066296126386
 21
148.52272068512929
 31
0.0
  0
LINE
  5
1233C
  8
0
 10
723.00066296126386
 20
160.52272068512929
 30
0.0
 11
724.07416296126394
 21
159.4492206851294
 31
0.0
  0
LINE
  5
1233D
  8
0
 10
639.57416296126394
 20
163.1852206851292
 30
0.0
 11
639.93323990925001
 21
164.52531409883949
 31
0.0
  0
LINE
  5
1233E
  8
0
 10
639.93323990925001
 20
144.52012727141911
 30
0.0
 11
639.57416296126394
 21
145.86022068512941
 31
0.0
  0
LINE
  5
1233F
  8
0
 10
646.47416296126403
 20
145.86022068512941
 30
0.0
 11
646.11508601327796
 21
144.52012727141911
 31
0.0
  0
LINE
  5
12340
  8
0
 10
721.07416296126394
 20
146.20772068512929
 30
0.0
 11
717.32416296126394
 21
146.20772068512929
 31
0.0
  0
LINE
  5
12341
  8
0
 10
717.32416296126394
 20
162.8377206851294
 30
0.0
 11
721.07416296126394
 21
162.8377206851294
 31
0.0
  0
LINE
  5
12342
  8
0
 10
709.43323990925001
 20
144.52012727141911
 30
0.0
 11
709.07416296126394
 21
145.86022068512941
 31
0.0
  0
LINE
  5
12343
  8
0
 10
716.96508601327787
 20
164.52531409883949
 30
0.0
 11
717.32416296126394
 21
163.1852206851292
 31
0.0
  0
LINE
  5
12344
  8
0
 10
717.32416296126394
 20
145.86022068512941
 30
0.0
 11
716.96508601327787
 21
144.52012727141911
 31
0.0
  0
LINE
  5
12345
  8
0
 10
706.07416296126394
 20
144.52272068512929
 30
0.0
 11
700.57416296126394
 21
144.52272068512929
 31
0.0
  0
LINE
  5
12346
  8
0
 10
655.57416296126394
 20
144.52272068512929
 30
0.0
 11
650.07416296126394
 21
144.52272068512929
 31
0.0
  0
LINE
  5
12347
  8
0
 10
650.07416296126394
 20
164.52272068512929
 30
0.0
 11
655.57416296126394
 21
164.52272068512929
 31
0.0
  0
LINE
  5
12348
  8
0
 10
700.57416296126394
 20
164.52272068512929
 30
0.0
 11
706.07416296126394
 21
164.52272068512929
 31
0.0
  0
LINE
  5
12349
  8
0
 10
723.00066296126386
 20
160.52272068512929
 30
0.0
 11
723.00066296126386
 21
148.52272068512929
 31
0.0
  0
LINE
  5
1234A
  8
0
 10
724.07416296126394
 20
159.4492206851294
 30
0.0
 11
724.07416296126394
 21
149.59622068512931
 31
0.0
  0
LINE
  5
1234B
  8
0
 10
639.57416296126394
 20
163.1852206851292
 30
0.0
 11
639.57416296126394
 21
145.86022068512941
 31
0.0
  0
LINE
  5
1234C
  8
0
 10
646.47416296126494
 20
163.18522068512851
 30
0.0
 11
646.47416296126403
 21
145.86022068512941
 31
0.0
  0
POLYLINE
  5
1234D
  8
0
 66
     1
 10
0.0
 20
0.0
 30
0.0
  0
VERTEX
  5
14255
  8
0
 10
639.93323990925001
 20
149.52142397827421
 30
0.0
  0
VERTEX
  5
14256
  8
0
 10
639.82133842181736
 20
149.0721635727466
 30
0.0
  0
VERTEX
  5
14257
  8
0
 10
639.66270001018745
 20
148.22843757856089
 30
0.0
  0
VERTEX
  5
14258
  8
0
 10
639.58411521678715
 20
147.42229470991529
 30
0.0
  0
VERTEX
  5
14259
  8
0
 10
639.57416296126394
 20
147.02077562484669
 30
0.0
  0
SEQEND
  5
1425A
  8
0
  0
POLYLINE
  5
1234E
  8
0
 66
     1
 10
0.0
 20
0.0
 30
0.0
  0
VERTEX
  5
1425B
  8
0
 10
639.57416296126394
 20
147.02077562484669
 30
0.0
  0
VERTEX
  5
1425C
  8
0
 10
639.58411521678715
 20
146.61925653977801
 30
0.0
  0
VERTEX
  5
1425D
  8
0
 10
639.66270001018745
 20
145.81311367113219
 30
0.0
  0
VERTEX
  5
1425E
  8
0
 10
639.82133842181736
 20
144.96938767694681
 30
0.0
  0
VERTEX
  5
1425F
  8
0
 10
639.93323990925001
 20
144.52012727141911
 30
0.0
  0
SEQEND
  5
14260
  8
0
  0
POLYLINE
  5
1234F
  8
0
 66
     1
 10
0.0
 20
0.0
 30
0.0
  0
VERTEX
  5
14261
  8
0
 10
646.11508601327796
 20
144.52012727141911
 30
0.0
  0
VERTEX
  5
14262
  8
0
 10
646.22698750071049
 20
144.96938767694681
 30
0.0
  0
VERTEX
  5
14263
  8
0
 10
646.38562591233995
 20
145.81311367113219
 30
0.0
  0
VERTEX
  5
14264
  8
0
 10
646.46421070574058
 20
146.61925653977801
 30
0.0
  0
VERTEX
  5
14265
  8
0
 10
646.47416296126403
 20
147.02077562484669
 30
0.0
  0
SEQEND
  5
14266
  8
0
  0
POLYLINE
  5
12350
  8
0
 66
     1
 10
0.0
 20
0.0
 30
0.0
  0
VERTEX
  5
14267
  8
0
 10
646.47416296126403
 20
147.02077562484669
 30
0.0
  0
VERTEX
  5
14268
  8
0
 10
646.46421070574058
 20
147.42229470991529
 30
0.0
  0
VERTEX
  5
14269
  8
0
 10
646.38562591233995
 20
148.22843757856089
 30
0.0
  0
VERTEX
  5
1426A
  8
0
 10
646.22698750071049
 20
149.0721635727466
 30
0.0
  0
VERTEX
  5
1426B
  8
0
 10
646.11508601327796
 20
149.52142397827421
 30
0.0
  0
SEQEND
  5
1426C
  8
0
  0
LINE
  5
12351
  8
0
 10
639.93323990925001
 20
144.52012727141911
 30
0.0
 11
646.11508601327796
 21
144.52012727141911
 31
0.0
  0
POLYLINE
  5
12352
  8
0
 66
     1
 10
0.0
 20
0.0
 30
0.0
  0
VERTEX
  5
1426D
  8
0
 10
639.93323990925001
 20
164.52531409883949
 30
0.0
  0
VERTEX
  5
1426E
  8
0
 10
639.82133842181736
 20
164.07605369331191
 30
0.0
  0
VERTEX
  5
1426F
  8
0
 10
639.66270001018745
 20
163.2323276991265
 30
0.0
  0
VERTEX
  5
14270
  8
0
 10
639.58411521678715
 20
162.42618483048071
 30
0.0
  0
VERTEX
  5
14271
  8
0
 10
639.57416296126394
 20
162.02466574541199
 30
0.0
  0
SEQEND
  5
14272
  8
0
  0
POLYLINE
  5
12353
  8
0
 66
     1
 10
0.0
 20
0.0
 30
0.0
  0
VERTEX
  5
14273
  8
0
 10
639.57416296126394
 20
162.02466574541199
 30
0.0
  0
VERTEX
  5
14274
  8
0
 10
639.58411521678715
 20
161.62314666034331
 30
0.0
  0
VERTEX
  5
14275
  8
0
 10
639.66270001018745
 20
160.81700379169769
 30
0.0
  0
VERTEX
  5
14276
  8
0
 10
639.82133842181736
 20
159.97327779751211
 30
0.0
  0
VERTEX
  5
14277
  8
0
 10
639.93323990925001
 20
159.52401739198439
 30
0.0
  0
SEQEND
  5
14278
  8
0
  0
LINE
  5
12354
  8
0
 10
639.93323990925001
 20
159.52401739198439
 30
0.0
 11
646.11508601327796
 21
159.52401739198439
 31
0.0
  0
POLYLINE
  5
12355
  8
0
 66
     1
 10
0.0
 20
0.0
 30
0.0
  0
VERTEX
  5
14279
  8
0
 10
639.93323990925001
 20
159.52401739198439
 30
0.0
  0
VERTEX
  5
1427A
  8
0
 10
639.82133842181736
 20
158.62549658092911
 30
0.0
  0
VERTEX
  5
1427B
  8
0
 10
639.66270001018745
 20
156.93804459255799
 30
0.0
  0
VERTEX
  5
1427C
  8
0
 10
639.58411521678715
 20
155.32575885526671
 30
0.0
  0
VERTEX
  5
1427D
  8
0
 10
639.57416296126394
 20
154.52272068512929
 30
0.0
  0
SEQEND
  5
1427E
  8
0
  0
POLYLINE
  5
12356
  8
0
 66
     1
 10
0.0
 20
0.0
 30
0.0
  0
VERTEX
  5
1427F
  8
0
 10
639.57416296126394
 20
154.52272068512929
 30
0.0
  0
VERTEX
  5
14280
  8
0
 10
639.58411521678715
 20
153.71968251499189
 30
0.0
  0
VERTEX
  5
14281
  8
0
 10
639.66270001018745
 20
152.10739677770059
 30
0.0
  0
VERTEX
  5
14282
  8
0
 10
639.82133842181736
 20
150.41994478932949
 30
0.0
  0
VERTEX
  5
14283
  8
0
 10
639.93323990925001
 20
149.52142397827421
 30
0.0
  0
SEQEND
  5
14284
  8
0
  0
LINE
  5
12357
  8
0
 10
639.93323990925001
 20
149.52142397827421
 30
0.0
 11
646.11508601327796
 21
149.52142397827421
 31
0.0
  0
POLYLINE
  5
12358
  8
0
 66
     1
 10
0.0
 20
0.0
 30
0.0
  0
VERTEX
  5
14285
  8
0
 10
646.11508601327796
 20
149.52142397827421
 30
0.0
  0
VERTEX
  5
14286
  8
0
 10
646.22698750071049
 20
150.41994478932949
 30
0.0
  0
VERTEX
  5
14287
  8
0
 10
646.38562591233995
 20
152.10739677770059
 30
0.0
  0
VERTEX
  5
14288
  8
0
 10
646.46421070574058
 20
153.71968251499189
 30
0.0
  0
VERTEX
  5
14289
  8
0
 10
646.47416296126403
 20
154.52272068512929
 30
0.0
  0
SEQEND
  5
1428A
  8
0
  0
LINE
  5
12359
  8
0
 10
721.07416296126394
 20
162.8377206851294
 30
0.0
 11
721.07416296126394
 21
146.20772068512929
 31
0.0
  0
LINE
  5
1235A
  8
0
 10
717.32416296126394
 20
163.1852206851292
 30
0.0
 11
717.32416296126394
 21
145.86022068512941
 31
0.0
  0
POLYLINE
  5
1235B
  8
0
 66
     1
 10
0.0
 20
0.0
 30
0.0
  0
VERTEX
  5
1428B
  8
0
 10
709.43323990925001
 20
149.52142397827421
 30
0.0
  0
VERTEX
  5
1428C
  8
0
 10
709.32133842181747
 20
149.0721635727466
 30
0.0
  0
VERTEX
  5
1428D
  8
0
 10
709.16270001018745
 20
148.22843757856089
 30
0.0
  0
VERTEX
  5
1428E
  8
0
 10
709.08411521678727
 20
147.42229470991529
 30
0.0
  0
VERTEX
  5
1428F
  8
0
 10
709.07416296126394
 20
147.02077562484669
 30
0.0
  0
SEQEND
  5
14290
  8
0
  0
POLYLINE
  5
1235C
  8
0
 66
     1
 10
0.0
 20
0.0
 30
0.0
  0
VERTEX
  5
14291
  8
0
 10
709.07416296126394
 20
147.02077562484669
 30
0.0
  0
VERTEX
  5
14292
  8
0
 10
709.08411521678727
 20
146.61925653977801
 30
0.0
  0
VERTEX
  5
14293
  8
0
 10
709.16270001018745
 20
145.81311367113219
 30
0.0
  0
VERTEX
  5
14294
  8
0
 10
709.32133842181747
 20
144.96938767694681
 30
0.0
  0
VERTEX
  5
14295
  8
0
 10
709.43323990925001
 20
144.52012727141911
 30
0.0
  0
SEQEND
  5
14296
  8
0
  0
POLYLINE
  5
1235D
  8
0
 66
     1
 10
0.0
 20
0.0
 30
0.0
  0
VERTEX
  5
14297
  8
0
 10
716.96508601327787
 20
144.52012727141911
 30
0.0
  0
VERTEX
  5
14298
  8
0
 10
717.0769875007104
 20
144.96938767694681
 30
0.0
  0
VERTEX
  5
14299
  8
0
 10
717.23562591234031
 20
145.81311367113219
 30
0.0
  0
VERTEX
  5
1429A
  8
0
 10
717.31421070574049
 20
146.61925653977801
 30
0.0
  0
VERTEX
  5
1429B
  8
0
 10
717.32416296126394
 20
147.02077562484669
 30
0.0
  0
SEQEND
  5
1429C
  8
0
  0
POLYLINE
  5
1235E
  8
0
 66
     1
 10
0.0
 20
0.0
 30
0.0
  0
VERTEX
  5
1429D
  8
0
 10
717.32416296126394
 20
147.02077562484669
 30
0.0
  0
VERTEX
  5
1429E
  8
0
 10
717.31421070574049
 20
147.42229470991529
 30
0.0
  0
VERTEX
  5
1429F
  8
0
 10
717.23562591234031
 20
148.22843757856089
 30
0.0
  0
VERTEX
  5
142A0
  8
0
 10
717.0769875007104
 20
149.0721635727466
 30
0.0
  0
VERTEX
  5
142A1
  8
0
 10
716.96508601327787
 20
149.52142397827421
 30
0.0
  0
SEQEND
  5
142A2
  8
0
  0
LINE
  5
1235F
  8
0
 10
709.43323990925001
 20
144.52012727141911
 30
0.0
 11
716.96508601327787
 21
144.52012727141911
 31
0.0
  0
POLYLINE
  5
12360
  8
0
 66
     1
 10
0.0
 20
0.0
 30
0.0
  0
VERTEX
  5
142A3
  8
0
 10
717.32416296126394
 20
162.02466574541199
 30
0.0
  0
VERTEX
  5
142A4
  8
0
 10
717.31421070574049
 20
162.42618483048071
 30
0.0
  0
VERTEX
  5
142A5
  8
0
 10
717.23562591234031
 20
163.2323276991265
 30
0.0
  0
VERTEX
  5
142A6
  8
0
 10
717.0769875007104
 20
164.07605369331191
 30
0.0
  0
VERTEX
  5
142A7
  8
0
 10
716.96508601327787
 20
164.52531409883949
 30
0.0
  0
SEQEND
  5
142A8
  8
0
  0
POLYLINE
  5
12361
  8
0
 66
     1
 10
0.0
 20
0.0
 30
0.0
  0
VERTEX
  5
142A9
  8
0
 10
716.96508601327787
 20
159.52401739198439
 30
0.0
  0
VERTEX
  5
142AA
  8
0
 10
717.0769875007104
 20
159.97327779751211
 30
0.0
  0
VERTEX
  5
142AB
  8
0
 10
717.23562591234031
 20
160.81700379169769
 30
0.0
  0
VERTEX
  5
142AC
  8
0
 10
717.31421070574049
 20
161.62314666034331
 30
0.0
  0
VERTEX
  5
142AD
  8
0
 10
717.32416296126394
 20
162.02466574541199
 30
0.0
  0
SEQEND
  5
142AE
  8
0
  0
POLYLINE
  5
12362
  8
0
 66
     1
 10
0.0
 20
0.0
 30
0.0
  0
VERTEX
  5
142AF
  8
0
 10
717.32416296126394
 20
154.52272068512929
 30
0.0
  0
VERTEX
  5
142B0
  8
0
 10
717.31421070574049
 20
155.32575885526671
 30
0.0
  0
VERTEX
  5
142B1
  8
0
 10
717.23562591234031
 20
156.93804459255799
 30
0.0
  0
VERTEX
  5
142B2
  8
0
 10
717.0769875007104
 20
158.62549658092911
 30
0.0
  0
VERTEX
  5
142B3
  8
0
 10
716.96508601327787
 20
159.52401739198439
 30
0.0
  0
SEQEND
  5
142B4
  8
0
  0
LINE
  5
12363
  8
0
 10
709.43323990925035
 20
159.52401739198439
 30
0.0
 11
716.96508601327787
 21
159.52401739198439
 31
0.0
  0
POLYLINE
  5
12364
  8
0
 66
     1
 10
0.0
 20
0.0
 30
0.0
  0
VERTEX
  5
142B5
  8
0
 10
709.07416296126394
 20
154.52272068512929
 30
0.0
  0
VERTEX
  5
142B6
  8
0
 10
709.08411521678727
 20
153.71968251499189
 30
0.0
  0
VERTEX
  5
142B7
  8
0
 10
709.16270001018745
 20
152.10739677770059
 30
0.0
  0
VERTEX
  5
142B8
  8
0
 10
709.32133842181747
 20
150.41994478932949
 30
0.0
  0
VERTEX
  5
142B9
  8
0
 10
709.43323990925001
 20
149.52142397827421
 30
0.0
  0
SEQEND
  5
142BA
  8
0
  0
LINE
  5
12365
  8
0
 10
709.43323990925001
 20
149.52142397827421
 30
0.0
 11
716.96508601327787
 21
149.52142397827421
 31
0.0
  0
POLYLINE
  5
12366
  8
0
 66
     1
 10
0.0
 20
0.0
 30
0.0
  0
VERTEX
  5
142BB
  8
0
 10
716.96508601327787
 20
149.52142397827421
 30
0.0
  0
VERTEX
  5
142BC
  8
0
 10
717.0769875007104
 20
150.41994478932949
 30
0.0
  0
VERTEX
  5
142BD
  8
0
 10
717.23562591234031
 20
152.10739677770059
 30
0.0
  0
VERTEX
  5
142BE
  8
0
 10
717.31421070574049
 20
153.71968251499189
 30
0.0
  0
VERTEX
  5
142BF
  8
0
 10
717.32416296126394
 20
154.52272068512929
 30
0.0
  0
SEQEND
  5
142C0
  8
0
  0
LINE
  5
12367
  8
3
 10
724.07416296126394
 20
159.4492206851294
 30
0.0
 11
721.07416296126394
 21
159.4492206851296
 31
0.0
  0
LINE
  5
12368
  8
3
 10
724.07416296126394
 20
149.59622068512931
 30
0.0
 11
721.07416296126394
 21
149.59622068512931
 31
0.0
  0
LINE
  5
12369
  8
0
 10
639.93323990925046
 20
164.52531409883881
 30
0.0
 11
646.11508601327841
 21
164.52531409883861
 31
0.0
  0
LINE
  5
1236A
  8
0
 10
646.47416296126494
 20
163.18522068512851
 30
0.0
 11
646.11508601327932
 21
164.52531409883881
 31
0.0
  0
POLYLINE
  5
1236B
  8
0
 66
     1
 10
0.0
 20
0.0
 30
0.0
  0
VERTEX
  5
142C1
  8
0
 10
646.11508601327796
 20
164.52531409883949
 30
0.0
  0
VERTEX
  5
142C2
  8
0
 10
646.22698750071049
 20
164.07605369331191
 30
0.0
  0
VERTEX
  5
142C3
  8
0
 10
646.38562591233995
 20
163.2323276991265
 30
0.0
  0
VERTEX
  5
142C4
  8
0
 10
646.46421070574058
 20
162.42618483048071
 30
0.0
  0
VERTEX
  5
142C5
  8
0
 10
646.47416296126403
 20
162.02466574541199
 30
0.0
  0
SEQEND
  5
142C6
  8
0
  0
POLYLINE
  5
1236C
  8
0
 66
     1
 10
0.0
 20
0.0
 30
0.0
  0
VERTEX
  5
142C7
  8
0
 10
646.47416296126403
 20
162.02466574541199
 30
0.0
  0
VERTEX
  5
142C8
  8
0
 10
646.46421070574058
 20
161.62314666034331
 30
0.0
  0
VERTEX
  5
142C9
  8
0
 10
646.38562591233995
 20
160.81700379169769
 30
0.0
  0
VERTEX
  5
142CA
  8
0
 10
646.22698750071049
 20
159.97327779751211
 30
0.0
  0
VERTEX
  5
142CB
  8
0
 10
646.11508601327796
 20
159.52401739198439
 30
0.0
  0
SEQEND
  5
142CC
  8
0
  0
POLYLINE
  5
1236D
  8
0
 66
     1
 10
0.0
 20
0.0
 30
0.0
  0
VERTEX
  5
142CD
  8
0
 10
646.11508601327796
 20
159.52401739198439
 30
0.0
  0
VERTEX
  5
142CE
  8
0
 10
646.22698750071049
 20
158.62549658092911
 30
0.0
  0
VERTEX
  5
142CF
  8
0
 10
646.38562591233995
 20
156.93804459255799
 30
0.0
  0
VERTEX
  5
142D0
  8
0
 10
646.46421070574058
 20
155.32575885526671
 30
0.0
  0
VERTEX
  5
142D1
  8
0
 10
646.47416296126403
 20
154.52272068512929
 30
0.0
  0
SEQEND
  5
142D2
  8
0
  0
LINE
  5
1236E
  8
0
 10
647.07416296126519
 20
162.83772068512869
 30
0.0
 11
646.47416296126528
 21
162.83772068512869
 31
0.0
  0
POLYLINE
  5
1236F
  8
0
 66
     1
 10
0.0
 20
0.0
 30
0.0
  0
VERTEX
  5
142D3
  8
0
 10
709.07416296126394
 20
162.02466574541199
 30
0.0
  0
VERTEX
  5
142D4
  8
0
 10
709.08411521678727
 20
162.42618483048071
 30
0.0
  0
VERTEX
  5
142D5
  8
0
 10
709.16270001018745
 20
163.2323276991265
 30
0.0
  0
VERTEX
  5
142D6
  8
0
 10
709.32133842181747
 20
164.07605369331191
 30
0.0
  0
VERTEX
  5
142D7
  8
0
 10
709.43323990925001
 20
164.52531409883949
 30
0.0
  0
SEQEND
  5
142D8
  8
0
  0
LINE
  5
12370
  8
0
 10
709.43323990925001
 20
164.52531409883949
 30
0.0
 11
716.96508601327787
 21
164.52531409883949
 31
0.0
  0
LINE
  5
12371
  8
0
 10
709.43323990925137
 20
164.52531409883949
 30
0.0
 11
709.07416296126485
 21
163.1852206851292
 31
0.0
  0
POLYLINE
  5
12372
  8
0
 66
     1
 10
0.0
 20
0.0
 30
0.0
  0
VERTEX
  5
142D9
  8
0
 10
709.43323990925035
 20
159.52401739198439
 30
0.0
  0
VERTEX
  5
142DA
  8
0
 10
709.32133842181793
 20
159.97327779751211
 30
0.0
  0
VERTEX
  5
142DB
  8
0
 10
709.16270001018836
 20
160.81700379169769
 30
0.0
  0
VERTEX
  5
142DC
  8
0
 10
709.08411521678818
 20
161.62314666034331
 30
0.0
  0
VERTEX
  5
142DD
  8
0
 10
709.07416296126485
 20
162.02466574541199
 30
0.0
  0
SEQEND
  5
142DE
  8
0
  0
POLYLINE
  5
12373
  8
0
 66
     1
 10
0.0
 20
0.0
 30
0.0
  0
VERTEX
  5
142DF
  8
0
 10
709.07416296126485
 20
162.02466574541199
 30
0.0
  0
VERTEX
  5
142E0
  8
0
 10
709.08411521678818
 20
162.42618483048071
 30
0.0
  0
VERTEX
  5
142E1
  8
0
 10
709.16270001018836
 20
163.2323276991265
 30
0.0
  0
VERTEX
  5
142E2
  8
0
 10
709.32133842181827
 20
164.07605369331191
 30
0.0
  0
VERTEX
  5
142E3
  8
0
 10
709.43323990925137
 20
164.52531409883949
 30
0.0
  0
SEQEND
  5
142E4
  8
0
  0
POLYLINE
  5
12374
  8
0
 66
     1
 10
0.0
 20
0.0
 30
0.0
  0
VERTEX
  5
142E5
  8
0
 10
709.07416296126394
 20
154.52272068512929
 30
0.0
  0
VERTEX
  5
142E6
  8
0
 10
709.08411521678727
 20
155.32575885526671
 30
0.0
  0
VERTEX
  5
142E7
  8
0
 10
709.16270001018802
 20
156.93804459255799
 30
0.0
  0
VERTEX
  5
142E8
  8
0
 10
709.32133842181793
 20
158.62549658092911
 30
0.0
  0
VERTEX
  5
142E9
  8
0
 10
709.43323990925035
 20
159.52401739198439
 30
0.0
  0
SEQEND
  5
142EA
  8
0
  0
LINE
  5
12375
  8
0
 10
172.72037466535781
 20
156.21273410166981
 30
0.0
 11
172.72037466535781
 21
143.52272068512929
 31
0.0
  0
LINE
  5
12376
  8
0
 10
169.72037466535781
 20
143.52272068512929
 30
0.0
 11
172.72037466535781
 21
143.52272068512929
 31
0.0
  0
LINE
  5
12377
  8
0
 10
110.7203746653578
 20
143.52272068512929
 30
0.0
 11
113.7203746653578
 21
143.52272068512929
 31
0.0
  0
LINE
  5
12378
  8
0
 10
172.72037466535781
 20
146.20772068512929
 30
0.0
 11
173.32037466535769
 21
146.20772068512929
 31
0.0
  0
LINE
  5
12379
  8
0
 10
96.793874665357748
 20
148.52272068512929
 30
0.0
 11
98.720374665357795
 21
148.52272068512929
 31
0.0
  0
LINE
  5
1237A
  8
0
 10
98.720374665357795
 20
160.52272068512929
 30
0.0
 11
96.793874665357748
 21
160.52272068512929
 31
0.0
  0
LINE
  5
1237B
  8
0
 10
95.720374665357781
 20
149.59622068512931
 30
0.0
 11
96.793874665357748
 21
148.52272068512929
 31
0.0
  0
LINE
  5
1237C
  8
0
 10
96.793874665357748
 20
160.52272068512929
 30
0.0
 11
95.720374665357781
 21
159.4492206851294
 31
0.0
  0
LINE
  5
1237D
  8
0
 10
180.22037466535781
 20
163.1852206851292
 30
0.0
 11
179.86129771737171
 21
164.52531409883949
 31
0.0
  0
LINE
  5
1237E
  8
0
 10
179.86129771737171
 20
144.52012727141911
 30
0.0
 11
180.22037466535781
 21
145.86022068512941
 31
0.0
  0
LINE
  5
1237F
  8
0
 10
173.32037466535769
 20
145.86022068512941
 30
0.0
 11
173.6794516133437
 21
144.52012727141911
 31
0.0
  0
LINE
  5
12380
  8
0
 10
98.720374665357795
 20
146.20772068512929
 30
0.0
 11
102.4703746653577
 21
146.20772068512929
 31
0.0
  0
LINE
  5
12381
  8
0
 10
102.4703746653577
 20
162.8377206851294
 30
0.0
 11
98.720374665357795
 21
162.8377206851294
 31
0.0
  0
LINE
  5
12382
  8
0
 10
110.3612977173717
 20
144.52012727141911
 30
0.0
 11
110.7203746653578
 21
145.86022068512941
 31
0.0
  0
LINE
  5
12383
  8
0
 10
102.82945161334381
 20
164.52531409883949
 30
0.0
 11
102.4703746653577
 21
163.1852206851292
 31
0.0
  0
LINE
  5
12384
  8
0
 10
102.4703746653577
 20
145.86022068512941
 30
0.0
 11
102.82945161334381
 21
144.52012727141911
 31
0.0
  0
LINE
  5
12385
  8
0
 10
113.7203746653578
 20
144.52272068512929
 30
0.0
 11
119.2203746653577
 21
144.52272068512929
 31
0.0
  0
LINE
  5
12386
  8
0
 10
164.22037466535781
 20
144.52272068512929
 30
0.0
 11
169.72037466535781
 21
144.52272068512929
 31
0.0
  0
LINE
  5
12387
  8
0
 10
169.72037466535781
 20
164.52272068512929
 30
0.0
 11
164.22037466535781
 21
164.52272068512929
 31
0.0
  0
LINE
  5
12388
  8
0
 10
119.2203746653577
 20
164.52272068512929
 30
0.0
 11
113.7203746653578
 21
164.52272068512929
 31
0.0
  0
LINE
  5
12389
  8
0
 10
96.793874665357748
 20
160.52272068512929
 30
0.0
 11
96.793874665357748
 21
148.52272068512929
 31
0.0
  0
LINE
  5
1238A
  8
0
 10
95.720374665357781
 20
159.4492206851294
 30
0.0
 11
95.720374665357781
 21
149.59622068512931
 31
0.0
  0
LINE
  5
1238B
  8
0
 10
180.22037466535781
 20
163.1852206851292
 30
0.0
 11
180.22037466535781
 21
145.86022068512941
 31
0.0
  0
LINE
  5
1238C
  8
0
 10
173.32037466535681
 20
163.18522068512851
 30
0.0
 11
173.32037466535769
 21
145.86022068512941
 31
0.0
  0
POLYLINE
  5
1238D
  8
0
 66
     1
 10
0.0
 20
0.0
 30
0.0
  0
VERTEX
  5
142EB
  8
0
 10
179.86129771737171
 20
149.52142397827421
 30
0.0
  0
VERTEX
  5
142EC
  8
0
 10
179.97319920480419
 20
149.0721635727466
 30
0.0
  0
VERTEX
  5
142ED
  8
0
 10
180.1318376164341
 20
148.22843757856089
 30
0.0
  0
VERTEX
  5
142EE
  8
0
 10
180.21042240983439
 20
147.42229470991529
 30
0.0
  0
VERTEX
  5
142EF
  8
0
 10
180.22037466535781
 20
147.02077562484669
 30
0.0
  0
SEQEND
  5
142F0
  8
0
  0
POLYLINE
  5
1238E
  8
0
 66
     1
 10
0.0
 20
0.0
 30
0.0
  0
VERTEX
  5
142F1
  8
0
 10
180.22037466535781
 20
147.02077562484669
 30
0.0
  0
VERTEX
  5
142F2
  8
0
 10
180.21042240983439
 20
146.61925653977801
 30
0.0
  0
VERTEX
  5
142F3
  8
0
 10
180.1318376164341
 20
145.81311367113219
 30
0.0
  0
VERTEX
  5
142F4
  8
0
 10
179.97319920480419
 20
144.96938767694681
 30
0.0
  0
VERTEX
  5
142F5
  8
0
 10
179.86129771737171
 20
144.52012727141911
 30
0.0
  0
SEQEND
  5
142F6
  8
0
  0
POLYLINE
  5
1238F
  8
0
 66
     1
 10
0.0
 20
0.0
 30
0.0
  0
VERTEX
  5
142F7
  8
0
 10
173.6794516133437
 20
144.52012727141911
 30
0.0
  0
VERTEX
  5
142F8
  8
0
 10
173.5675501259112
 20
144.96938767694681
 30
0.0
  0
VERTEX
  5
142F9
  8
0
 10
173.40891171428169
 20
145.81311367113219
 30
0.0
  0
VERTEX
  5
142FA
  8
0
 10
173.33032692088099
 20
146.61925653977801
 30
0.0
  0
VERTEX
  5
142FB
  8
0
 10
173.32037466535769
 20
147.02077562484669
 30
0.0
  0
SEQEND
  5
142FC
  8
0
  0
POLYLINE
  5
12390
  8
0
 66
     1
 10
0.0
 20
0.0
 30
0.0
  0
VERTEX
  5
142FD
  8
0
 10
173.32037466535769
 20
147.02077562484669
 30
0.0
  0
VERTEX
  5
142FE
  8
0
 10
173.33032692088099
 20
147.42229470991529
 30
0.0
  0
VERTEX
  5
142FF
  8
0
 10
173.40891171428169
 20
148.22843757856089
 30
0.0
  0
VERTEX
  5
14300
  8
0
 10
173.5675501259112
 20
149.0721635727466
 30
0.0
  0
VERTEX
  5
14301
  8
0
 10
173.6794516133437
 20
149.52142397827421
 30
0.0
  0
SEQEND
  5
14302
  8
0
  0
LINE
  5
12391
  8
0
 10
179.86129771737171
 20
144.52012727141911
 30
0.0
 11
173.6794516133437
 21
144.52012727141911
 31
0.0
  0
POLYLINE
  5
12392
  8
0
 66
     1
 10
0.0
 20
0.0
 30
0.0
  0
VERTEX
  5
14303
  8
0
 10
179.86129771737171
 20
164.52531409883949
 30
0.0
  0
VERTEX
  5
14304
  8
0
 10
179.97319920480419
 20
164.07605369331191
 30
0.0
  0
VERTEX
  5
14305
  8
0
 10
180.1318376164341
 20
163.2323276991265
 30
0.0
  0
VERTEX
  5
14306
  8
0
 10
180.21042240983439
 20
162.42618483048071
 30
0.0
  0
VERTEX
  5
14307
  8
0
 10
180.22037466535781
 20
162.02466574541199
 30
0.0
  0
SEQEND
  5
14308
  8
0
  0
POLYLINE
  5
12393
  8
0
 66
     1
 10
0.0
 20
0.0
 30
0.0
  0
VERTEX
  5
14309
  8
0
 10
180.22037466535781
 20
162.02466574541199
 30
0.0
  0
VERTEX
  5
1430A
  8
0
 10
180.21042240983439
 20
161.62314666034331
 30
0.0
  0
VERTEX
  5
1430B
  8
0
 10
180.1318376164341
 20
160.81700379169769
 30
0.0
  0
VERTEX
  5
1430C
  8
0
 10
179.97319920480419
 20
159.97327779751211
 30
0.0
  0
VERTEX
  5
1430D
  8
0
 10
179.86129771737171
 20
159.52401739198439
 30
0.0
  0
SEQEND
  5
1430E
  8
0
  0
LINE
  5
12394
  8
0
 10
179.86129771737171
 20
159.52401739198439
 30
0.0
 11
173.6794516133437
 21
159.52401739198439
 31
0.0
  0
POLYLINE
  5
12395
  8
0
 66
     1
 10
0.0
 20
0.0
 30
0.0
  0
VERTEX
  5
1430F
  8
0
 10
179.86129771737171
 20
159.52401739198439
 30
0.0
  0
VERTEX
  5
14310
  8
0
 10
179.97319920480419
 20
158.62549658092911
 30
0.0
  0
VERTEX
  5
14311
  8
0
 10
180.1318376164341
 20
156.93804459255799
 30
0.0
  0
VERTEX
  5
14312
  8
0
 10
180.21042240983439
 20
155.32575885526671
 30
0.0
  0
VERTEX
  5
14313
  8
0
 10
180.22037466535781
 20
154.52272068512929
 30
0.0
  0
SEQEND
  5
14314
  8
0
  0
POLYLINE
  5
12396
  8
0
 66
     1
 10
0.0
 20
0.0
 30
0.0
  0
VERTEX
  5
14315
  8
0
 10
180.22037466535781
 20
154.52272068512929
 30
0.0
  0
VERTEX
  5
14316
  8
0
 10
180.21042240983439
 20
153.71968251499189
 30
0.0
  0
VERTEX
  5
14317
  8
0
 10
180.1318376164341
 20
152.10739677770059
 30
0.0
  0
VERTEX
  5
14318
  8
0
 10
179.97319920480419
 20
150.41994478932949
 30
0.0
  0
VERTEX
  5
14319
  8
0
 10
179.86129771737171
 20
149.52142397827421
 30
0.0
  0
SEQEND
  5
1431A
  8
0
  0
LINE
  5
12397
  8
0
 10
179.86129771737171
 20
149.52142397827421
 30
0.0
 11
173.6794516133437
 21
149.52142397827421
 31
0.0
  0
POLYLINE
  5
12398
  8
0
 66
     1
 10
0.0
 20
0.0
 30
0.0
  0
VERTEX
  5
1431B
  8
0
 10
173.6794516133437
 20
149.52142397827421
 30
0.0
  0
VERTEX
  5
1431C
  8
0
 10
173.5675501259112
 20
150.41994478932949
 30
0.0
  0
VERTEX
  5
1431D
  8
0
 10
173.40891171428169
 20
152.10739677770059
 30
0.0
  0
VERTEX
  5
1431E
  8
0
 10
173.33032692088099
 20
153.71968251499189
 30
0.0
  0
VERTEX
  5
1431F
  8
0
 10
173.32037466535769
 20
154.52272068512929
 30
0.0
  0
SEQEND
  5
14320
  8
0
  0
LINE
  5
12399
  8
0
 10
98.720374665357795
 20
162.8377206851294
 30
0.0
 11
98.720374665357795
 21
146.20772068512929
 31
0.0
  0
LINE
  5
1239A
  8
0
 10
102.4703746653577
 20
163.1852206851292
 30
0.0
 11
102.4703746653577
 21
145.86022068512941
 31
0.0
  0
POLYLINE
  5
1239B
  8
0
 66
     1
 10
0.0
 20
0.0
 30
0.0
  0
VERTEX
  5
14321
  8
0
 10
110.3612977173717
 20
149.52142397827421
 30
0.0
  0
VERTEX
  5
14322
  8
0
 10
110.4731992048042
 20
149.0721635727466
 30
0.0
  0
VERTEX
  5
14323
  8
0
 10
110.6318376164341
 20
148.22843757856089
 30
0.0
  0
VERTEX
  5
14324
  8
0
 10
110.71042240983439
 20
147.42229470991529
 30
0.0
  0
VERTEX
  5
14325
  8
0
 10
110.7203746653578
 20
147.02077562484669
 30
0.0
  0
SEQEND
  5
14326
  8
0
  0
POLYLINE
  5
1239C
  8
0
 66
     1
 10
0.0
 20
0.0
 30
0.0
  0
VERTEX
  5
14327
  8
0
 10
110.7203746653578
 20
147.02077562484669
 30
0.0
  0
VERTEX
  5
14328
  8
0
 10
110.71042240983439
 20
146.61925653977801
 30
0.0
  0
VERTEX
  5
14329
  8
0
 10
110.6318376164341
 20
145.81311367113219
 30
0.0
  0
VERTEX
  5
1432A
  8
0
 10
110.4731992048042
 20
144.96938767694681
 30
0.0
  0
VERTEX
  5
1432B
  8
0
 10
110.3612977173717
 20
144.52012727141911
 30
0.0
  0
SEQEND
  5
1432C
  8
0
  0
POLYLINE
  5
1239D
  8
0
 66
     1
 10
0.0
 20
0.0
 30
0.0
  0
VERTEX
  5
1432D
  8
0
 10
102.82945161334381
 20
144.52012727141911
 30
0.0
  0
VERTEX
  5
1432E
  8
0
 10
102.7175501259113
 20
144.96938767694681
 30
0.0
  0
VERTEX
  5
1432F
  8
0
 10
102.55891171428139
 20
145.81311367113219
 30
0.0
  0
VERTEX
  5
14330
  8
0
 10
102.4803269208811
 20
146.61925653977801
 30
0.0
  0
VERTEX
  5
14331
  8
0
 10
102.4703746653577
 20
147.02077562484669
 30
0.0
  0
SEQEND
  5
14332
  8
0
  0
POLYLINE
  5
1239E
  8
0
 66
     1
 10
0.0
 20
0.0
 30
0.0
  0
VERTEX
  5
14333
  8
0
 10
102.4703746653577
 20
147.02077562484669
 30
0.0
  0
VERTEX
  5
14334
  8
0
 10
102.4803269208811
 20
147.42229470991529
 30
0.0
  0
VERTEX
  5
14335
  8
0
 10
102.55891171428139
 20
148.22843757856089
 30
0.0
  0
VERTEX
  5
14336
  8
0
 10
102.7175501259113
 20
149.0721635727466
 30
0.0
  0
VERTEX
  5
14337
  8
0
 10
102.82945161334381
 20
149.52142397827421
 30
0.0
  0
SEQEND
  5
14338
  8
0
  0
LINE
  5
1239F
  8
0
 10
110.3612977173717
 20
144.52012727141911
 30
0.0
 11
102.82945161334381
 21
144.52012727141911
 31
0.0
  0
POLYLINE
  5
123A0
  8
0
 66
     1
 10
0.0
 20
0.0
 30
0.0
  0
VERTEX
  5
14339
  8
0
 10
102.4703746653577
 20
162.02466574541199
 30
0.0
  0
VERTEX
  5
1433A
  8
0
 10
102.4803269208811
 20
162.42618483048071
 30
0.0
  0
VERTEX
  5
1433B
  8
0
 10
102.55891171428139
 20
163.2323276991265
 30
0.0
  0
VERTEX
  5
1433C
  8
0
 10
102.7175501259113
 20
164.07605369331191
 30
0.0
  0
VERTEX
  5
1433D
  8
0
 10
102.82945161334381
 20
164.52531409883949
 30
0.0
  0
SEQEND
  5
1433E
  8
0
  0
POLYLINE
  5
123A1
  8
0
 66
     1
 10
0.0
 20
0.0
 30
0.0
  0
VERTEX
  5
1433F
  8
0
 10
102.82945161334381
 20
159.52401739198439
 30
0.0
  0
VERTEX
  5
14340
  8
0
 10
102.7175501259113
 20
159.97327779751211
 30
0.0
  0
VERTEX
  5
14341
  8
0
 10
102.55891171428139
 20
160.81700379169769
 30
0.0
  0
VERTEX
  5
14342
  8
0
 10
102.4803269208811
 20
161.62314666034331
 30
0.0
  0
VERTEX
  5
14343
  8
0
 10
102.4703746653577
 20
162.02466574541199
 30
0.0
  0
SEQEND
  5
14344
  8
0
  0
POLYLINE
  5
123A2
  8
0
 66
     1
 10
0.0
 20
0.0
 30
0.0
  0
VERTEX
  5
14345
  8
0
 10
102.4703746653577
 20
154.52272068512929
 30
0.0
  0
VERTEX
  5
14346
  8
0
 10
102.4803269208811
 20
155.32575885526671
 30
0.0
  0
VERTEX
  5
14347
  8
0
 10
102.55891171428139
 20
156.93804459255799
 30
0.0
  0
VERTEX
  5
14348
  8
0
 10
102.7175501259113
 20
158.62549658092911
 30
0.0
  0
VERTEX
  5
14349
  8
0
 10
102.82945161334381
 20
159.52401739198439
 30
0.0
  0
SEQEND
  5
1434A
  8
0
  0
LINE
  5
123A3
  8
0
 10
110.3612977173712
 20
159.52401739198439
 30
0.0
 11
102.82945161334381
 21
159.52401739198439
 31
0.0
  0
POLYLINE
  5
123A4
  8
0
 66
     1
 10
0.0
 20
0.0
 30
0.0
  0
VERTEX
  5
1434B
  8
0
 10
110.7203746653578
 20
154.52272068512929
 30
0.0
  0
VERTEX
  5
1434C
  8
0
 10
110.71042240983439
 20
153.71968251499189
 30
0.0
  0
VERTEX
  5
1434D
  8
0
 10
110.6318376164341
 20
152.10739677770059
 30
0.0
  0
VERTEX
  5
1434E
  8
0
 10
110.4731992048042
 20
150.41994478932949
 30
0.0
  0
VERTEX
  5
1434F
  8
0
 10
110.3612977173717
 20
149.52142397827421
 30
0.0
  0
SEQEND
  5
14350
  8
0
  0
LINE
  5
123A5
  8
0
 10
110.3612977173717
 20
149.52142397827421
 30
0.0
 11
102.82945161334381
 21
149.52142397827421
 31
0.0
  0
POLYLINE
  5
123A6
  8
0
 66
     1
 10
0.0
 20
0.0
 30
0.0
  0
VERTEX
  5
14351
  8
0
 10
102.82945161334381
 20
149.52142397827421
 30
0.0
  0
VERTEX
  5
14352
  8
0
 10
102.7175501259113
 20
150.41994478932949
 30
0.0
  0
VERTEX
  5
14353
  8
0
 10
102.55891171428139
 20
152.10739677770059
 30
0.0
  0
VERTEX
  5
14354
  8
0
 10
102.4803269208811
 20
153.71968251499189
 30
0.0
  0
VERTEX
  5
14355
  8
0
 10
102.4703746653577
 20
154.52272068512929
 30
0.0
  0
SEQEND
  5
14356
  8
0
  0
LINE
  5
123A7
  8
3
 10
95.720374665357781
 20
159.4492206851294
 30
0.0
 11
98.720374665357795
 21
159.4492206851296
 31
0.0
  0
LINE
  5
123A8
  8
3
 10
95.720374665357781
 20
149.59622068512931
 30
0.0
 11
98.720374665357795
 21
149.59622068512931
 31
0.0
  0
LINE
  5
123A9
  8
0
 10
179.8612977173712
 20
164.52531409883881
 30
0.0
 11
173.6794516133433
 21
164.52531409883861
 31
0.0
  0
LINE
  5
123AA
  8
0
 10
173.32037466535681
 20
163.18522068512851
 30
0.0
 11
173.67945161334239
 21
164.52531409883881
 31
0.0
  0
POLYLINE
  5
123AB
  8
0
 66
     1
 10
0.0
 20
0.0
 30
0.0
  0
VERTEX
  5
14357
  8
0
 10
173.6794516133437
 20
164.52531409883949
 30
0.0
  0
VERTEX
  5
14358
  8
0
 10
173.5675501259112
 20
164.07605369331191
 30
0.0
  0
VERTEX
  5
14359
  8
0
 10
173.40891171428169
 20
163.2323276991265
 30
0.0
  0
VERTEX
  5
1435A
  8
0
 10
173.33032692088099
 20
162.42618483048071
 30
0.0
  0
VERTEX
  5
1435B
  8
0
 10
173.32037466535769
 20
162.02466574541199
 30
0.0
  0
SEQEND
  5
1435C
  8
0
  0
POLYLINE
  5
123AC
  8
0
 66
     1
 10
0.0
 20
0.0
 30
0.0
  0
VERTEX
  5
1435D
  8
0
 10
173.32037466535769
 20
162.02466574541199
 30
0.0
  0
VERTEX
  5
1435E
  8
0
 10
173.33032692088099
 20
161.62314666034331
 30
0.0
  0
VERTEX
  5
1435F
  8
0
 10
173.40891171428169
 20
160.81700379169769
 30
0.0
  0
VERTEX
  5
14360
  8
0
 10
173.5675501259112
 20
159.97327779751211
 30
0.0
  0
VERTEX
  5
14361
  8
0
 10
173.6794516133437
 20
159.52401739198439
 30
0.0
  0
SEQEND
  5
14362
  8
0
  0
POLYLINE
  5
123AD
  8
0
 66
     1
 10
0.0
 20
0.0
 30
0.0
  0
VERTEX
  5
14363
  8
0
 10
173.6794516133437
 20
159.52401739198439
 30
0.0
  0
VERTEX
  5
14364
  8
0
 10
173.5675501259112
 20
158.62549658092911
 30
0.0
  0
VERTEX
  5
14365
  8
0
 10
173.40891171428169
 20
156.93804459255799
 30
0.0
  0
VERTEX
  5
14366
  8
0
 10
173.33032692088099
 20
155.32575885526671
 30
0.0
  0
VERTEX
  5
14367
  8
0
 10
173.32037466535769
 20
154.52272068512929
 30
0.0
  0
SEQEND
  5
14368
  8
0
  0
LINE
  5
123AE
  8
0
 10
172.72037466535639
 20
162.83772068512869
 30
0.0
 11
173.3203746653563
 21
162.83772068512869
 31
0.0
  0
POLYLINE
  5
123AF
  8
0
 66
     1
 10
0.0
 20
0.0
 30
0.0
  0
VERTEX
  5
14369
  8
0
 10
110.7203746653578
 20
162.02466574541199
 30
0.0
  0
VERTEX
  5
1436A
  8
0
 10
110.71042240983439
 20
162.42618483048071
 30
0.0
  0
VERTEX
  5
1436B
  8
0
 10
110.6318376164341
 20
163.2323276991265
 30
0.0
  0
VERTEX
  5
1436C
  8
0
 10
110.4731992048042
 20
164.07605369331191
 30
0.0
  0
VERTEX
  5
1436D
  8
0
 10
110.3612977173717
 20
164.52531409883949
 30
0.0
  0
SEQEND
  5
1436E
  8
0
  0
LINE
  5
123B0
  8
0
 10
110.3612977173717
 20
164.52531409883949
 30
0.0
 11
102.82945161334381
 21
164.52531409883949
 31
0.0
  0
LINE
  5
123B1
  8
0
 10
110.36129771737031
 20
164.52531409883949
 30
0.0
 11
110.7203746653568
 21
163.1852206851292
 31
0.0
  0
POLYLINE
  5
123B2
  8
0
 66
     1
 10
0.0
 20
0.0
 30
0.0
  0
VERTEX
  5
1436F
  8
0
 10
110.3612977173712
 20
159.52401739198439
 30
0.0
  0
VERTEX
  5
14370
  8
0
 10
110.47319920480381
 20
159.97327779751211
 30
0.0
  0
VERTEX
  5
14371
  8
0
 10
110.6318376164332
 20
160.81700379169769
 30
0.0
  0
VERTEX
  5
14372
  8
0
 10
110.7104224098335
 20
161.62314666034331
 30
0.0
  0
VERTEX
  5
14373
  8
0
 10
110.7203746653568
 20
162.02466574541199
 30
0.0
  0
SEQEND
  5
14374
  8
0
  0
POLYLINE
  5
123B3
  8
0
 66
     1
 10
0.0
 20
0.0
 30
0.0
  0
VERTEX
  5
14375
  8
0
 10
110.7203746653568
 20
162.02466574541199
 30
0.0
  0
VERTEX
  5
14376
  8
0
 10
110.7104224098335
 20
162.42618483048071
 30
0.0
  0
VERTEX
  5
14377
  8
0
 10
110.6318376164332
 20
163.2323276991265
 30
0.0
  0
VERTEX
  5
14378
  8
0
 10
110.47319920480329
 20
164.07605369331191
 30
0.0
  0
VERTEX
  5
14379
  8
0
 10
110.36129771737031
 20
164.52531409883949
 30
0.0
  0
SEQEND
  5
1437A
  8
0
  0
POLYLINE
  5
123B4
  8
0
 66
     1
 10
0.0
 20
0.0
 30
0.0
  0
VERTEX
  5
1437B
  8
0
 10
110.7203746653578
 20
154.52272068512929
 30
0.0
  0
VERTEX
  5
1437C
  8
0
 10
110.71042240983439
 20
155.32575885526671
 30
0.0
  0
VERTEX
  5
1437D
  8
0
 10
110.6318376164337
 20
156.93804459255799
 30
0.0
  0
VERTEX
  5
1437E
  8
0
 10
110.47319920480381
 20
158.62549658092911
 30
0.0
  0
VERTEX
  5
1437F
  8
0
 10
110.3612977173712
 20
159.52401739198439
 30
0.0
  0
SEQEND
  5
14380
  8
0
  0
LINE
  5
123B5
  8
1
 10
85.81156436003505
 20
154.52272068512909
 30
0.0
 11
197.6335102074255
 21
154.52272068512929
 31
0.0
  0
LINE
  5
123B6
  8
1
 10
622.16535265594075
 20
154.52272068512909
 30
0.0
 11
733.9872985033312
 21
154.52272068512929
 31
0.0
  0
LINE
  5
13F3D
  8
1
 10
506.80330707317529
 20
503.80690611222349
 30
0.0
 11
524.66526911076653
 21
503.80690611222349
 31
0.0
  0
LINE
  5
13F3E
  8
1
 10
515.73428809197094
 20
494.8759250934279
 30
0.0
 11
515.73428809197094
 21
519.73788713101897
 31
0.0
  0
LINE
  5
13F3F
  8
1
 10
506.80330707317529
 20
510.80690611222337
 30
0.0
 11
524.66526911076653
 21
510.80690611222337
 31
0.0
  0
LINE
  5
13F40
  8
1
 10
506.80330707317529
 20
430.80690611222337
 30
0.0
 11
524.66526911076653
 21
430.80690611222337
 31
0.0
  0
LINE
  5
13F41
  8
1
 10
515.73428809197094
 20
439.73788713101902
 30
0.0
 11
515.73428809197094
 21
414.87592509342778
 31
0.0
  0
LINE
  5
13F42
  8
1
 10
506.80330707317529
 20
423.80690611222337
 30
0.0
 11
524.66526911076653
 21
423.80690611222337
 31
0.0
  0
LINE
  5
13F43
  8
1
 10
419.66526911076647
 20
503.80690611222349
 30
0.0
 11
401.80330707317529
 21
503.80690611222349
 31
0.0
  0
LINE
  5
13F44
  8
1
 10
410.73428809197088
 20
494.8759250934279
 30
0.0
 11
410.73428809197088
 21
519.73788713101897
 31
0.0
  0
LINE
  5
13F45
  8
1
 10
419.66526911076647
 20
510.80690611222337
 30
0.0
 11
401.80330707317529
 21
510.80690611222337
 31
0.0
  0
LINE
  5
13F46
  8
1
 10
419.66526911076647
 20
430.80690611222337
 30
0.0
 11
401.80330707317529
 21
430.80690611222337
 31
0.0
  0
LINE
  5
13F47
  8
1
 10
410.73428809197088
 20
439.73788713101902
 30
0.0
 11
410.73428809197088
 21
414.87592509342778
 31
0.0
  0
LINE
  5
13F48
  8
1
 10
419.66526911076647
 20
423.80690611222337
 30
0.0
 11
401.80330707317529
 21
423.80690611222337
 31
0.0
  0
TEXT
  5
13FA4
  8
0
 62
     3
 10
0.0
 20
0.0
 30
0.0
 40
10.0
  1
CAG1-150SBL
  7
STANDARD1
  0
ENDSEC
  0
EOF
