  0
SECTION
  2
HEADER
  9
$ACADVER
  1
AC1009
  9
$INSBASE
 10
0.0
 20
0.0
 30
0.0
  9
$EXTMIN
 10
0.0
 20
-2.960436562073669
 30
0.0
  9
$EXTMAX
 10
335.16260699999998
 20
231.111211
 30
0.0
  9
$LIMMIN
 10
0.0
 20
0.0
  9
$LIMMAX
 10
375.0
 20
270.0
  9
$ORTHOMODE
 70
     1
  9
$REGENMODE
 70
     1
  9
$FILLMODE
 70
     1
  9
$QTEXTMODE
 70
     0
  9
$MIRRTEXT
 70
     0
  9
$DRAGMODE
 70
     2
  9
$LTSCALE
 40
10.0
  9
$OSMODE
 70
  3071
  9
$ATTMODE
 70
     1
  9
$TEXTSIZE
 40
0.2
  9
$TRACEWID
 40
0.05
  9
$TEXTSTYLE
  7
K80
  9
$CLAYER
  8
0
  9
$CELTYPE
  6
BYLAYER
  9
$CECOLOR
 62
   256
  9
$DIMSCALE
 40
1.0
  9
$DIMASZ
 40
3.0
  9
$DIMEXO
 40
2.0
  9
$DIMDLI
 40
0.38
  9
$DIMRND
 40
0.0
  9
$DIMDLE
 40
0.0
  9
$DIMEXE
 40
2.0
  9
$DIMTP
 40
0.0
  9
$DIMTM
 40
0.0
  9
$DIMTXT
 40
3.2000000000000002
  9
$DIMCEN
 40
0.0
  9
$DIMTSZ
 40
0.0
  9
$DIMTOL
 70
     0
  9
$DIMLIM
 70
     0
  9
$DIMTIH
 70
     0
  9
$DIMTOH
 70
     0
  9
$DIMSE1
 70
     0
  9
$DIMSE2
 70
     0
  9
$DIMTAD
 70
     1
  9
$DIMZIN
 70
     0
  9
$DIMBLK
  1

  9
$DIMASO
 70
     0
  9
$DIMSHO
 70
     0
  9
$DIMPOST
  1

  9
$DIMAPOST
  1

  9
$DIMALT
 70
     0
  9
$DIMALTD
 70
     2
  9
$DIMALTF
 40
25.399999999999999
  9
$DIMLFAC
 40
1.0
  9
$DIMTOFL
 70
     1
  9
$DIMTVP
 40
1.6000000000000001
  9
$DIMTIX
 70
     1
  9
$DIMSOXD
 70
     0
  9
$DIMSAH
 70
     0
  9
$DIMBLK1
  1

  9
$DIMBLK2
  1

  9
$DIMSTYLE
  2
STANDARD
  9
$DIMCLRD
 70
     0
  9
$DIMCLRE
 70
     0
  9
$DIMCLRT
 70
     0
  9
$DIMTFAC
 40
1.0
  9
$DIMGAP
 40
0.09
  9
$LUNITS
 70
     2
  9
$LUPREC
 70
     4
  9
$SKETCHINC
 40
0.1
  9
$FILLETRAD
 40
0.0
  9
$AUNITS
 70
     0
  9
$AUPREC
 70
     4
  9
$MENU
  1
E:\r13\win\SUPPORT\ACAD
  9
$ELEVATION
 40
0.0
  9
$PELEVATION
 40
0.0
  9
$THICKNESS
 40
0.0
  9
$LIMCHECK
 70
     0
  9
$BLIPMODE
 70
     0
  9
$CHAMFERA
 40
0.0
  9
$CHAMFERB
 40
0.0
  9
$SKPOLY
 70
     0
  9
$TDCREATE
 40
2449839.7787847221
  9
$TDUPDATE
 40
2456598.5784503128
  9
$TDINDWG
 40
0.0001896412
  9
$TDUSRTIMER
 40
0.0001896412
  9
$USRTIMER
 70
     1
  9
$ANGBASE
 50
0.0
  9
$ANGDIR
 70
     0
  9
$PDMODE
 70
     0
  9
$PDSIZE
 40
0.0
  9
$PLINEWID
 40
0.0
  9
$COORDS
 70
     1
  9
$SPLFRAME
 70
     0
  9
$SPLINETYPE
 70
     6
  9
$SPLINESEGS
 70
     8
  9
$ATTDIA
 70
     0
  9
$ATTREQ
 70
     1
  9
$HANDLING
 70
     1
  9
$HANDSEED
  5
327
  9
$SURFTAB1
 70
     6
  9
$SURFTAB2
 70
     6
  9
$SURFTYPE
 70
     6
  9
$SURFU
 70
     6
  9
$SURFV
 70
     6
  9
$UCSNAME
  2

  9
$UCSORG
 10
0.0
 20
0.0
 30
0.0
  9
$UCSXDIR
 10
1.0
 20
0.0
 30
0.0
  9
$UCSYDIR
 10
0.0
 20
1.0
 30
0.0
  9
$PUCSNAME
  2

  9
$PUCSORG
 10
0.0
 20
0.0
 30
0.0
  9
$PUCSXDIR
 10
1.0
 20
0.0
 30
0.0
  9
$PUCSYDIR
 10
0.0
 20
1.0
 30
0.0
  9
$USERI1
 70
     0
  9
$USERI2
 70
     1
  9
$USERI3
 70
     0
  9
$USERI4
 70
     0
  9
$USERI5
 70
     0
  9
$USERR1
 40
0.0
  9
$USERR2
 40
0.0
  9
$USERR3
 40
0.0
  9
$USERR4
 40
0.0
  9
$USERR5
 40
0.0
  9
$WORLDVIEW
 70
     1
  9
$SHADEDGE
 70
     3
  9
$SHADEDIF
 70
    70
  9
$TILEMODE
 70
     1
  9
$MAXACTVP
 70
    16
  9
$PLIMCHECK
 70
     0
  9
$PEXTMIN
 10
1.0000000000000000E+020
 20
1.0000000000000000E+020
 30
1.0000000000000000E+020
  9
$PEXTMAX
 10
-1.0000000000000000E+020
 20
-1.0000000000000000E+020
 30
-1.0000000000000000E+020
  9
$PLIMMIN
 10
0.0
 20
0.0
  9
$PLIMMAX
 10
12.0
 20
9.0
  9
$UNITMODE
 70
     0
  9
$VISRETAIN
 70
     0
  9
$PLINEGEN
 70
     0
  9
$PSLTSCALE
 70
     0
  0
ENDSEC
  0
SECTION
  2
TABLES
  0
TABLE
  2
VPORT
 70
     1
  0
VPORT
  2
*ACTIVE
 70
     0
 10
0.0
 20
0.0
 11
1.0
 21
1.0
 12
195.0581083320873
 22
133.5127261426681
 13
0.0
 23
0.0
 14
10.0
 24
10.0
 15
10.0
 25
10.0
 16
0.0
 26
0.0
 36
1.0
 17
0.0
 27
0.0
 37
0.0
 40
275.42274993631997
 41
1.831871345029239
 42
50.0
 43
0.0
 44
0.0
 50
0.0
 51
0.0
 71
     0
 72
   100
 73
     1
 74
     0
 75
     0
 76
     0
 77
     0
 78
     2
  0
ENDTAB
  0
TABLE
  2
LTYPE
 70
     4
  0
LTYPE
  2
CONTINUOUS
 70
     0
  3
Solid Line
 72
    65
 73
     0
 40
0.0
  0
LTYPE
  2
CENTER
 70
     0
  3
____ _ ____ _ ____ _ ____ _ ____ _ ____ _ ____
 72
    65
 73
     4
 40
2.0
 49
1.25
 49
-0.25
 49
0.25
 49
-0.25
  0
LTYPE
  2
HIDDEN
 70
     0
  3
_ _ _ _ _ _ _ _ _ _ _ _ _ _ _ _ _ _ _ _ _ _ _
 72
    65
 73
     2
 40
0.375
 49
0.25
 49
-0.125
  0
LTYPE
  2
PHANTOM2
 70
     0
  3
___ _ _ ___ _ _ ___ _ _ ___ _ _
 72
    65
 73
     6
 40
1.25
 49
0.625
 49
-0.125
 49
0.125
 49
-0.125
 49
0.125
 49
-0.125
  0
ENDTAB
  0
TABLE
  2
LAYER
 70
     4
  0
LAYER
  2
0
 70
     0
 62
     7
  6
CONTINUOUS
  0
LAYER
  2
1
 70
     0
 62
     1
  6
CENTER
  0
LAYER
  2
2
 70
     0
 62
     2
  6
HIDDEN
  0
LAYER
  2
3
 70
     0
 62
     3
  6
CONTINUOUS
  0
ENDTAB
  0
TABLE
  2
STYLE
 70
     3
  0
STYLE
  2
STANDARD
 70
     0
 40
0.0
 41
1.0
 50
0.0
 71
     0
 42
0.2
  3
romans.shx
  4

  0
STYLE
  2
K80
 70
     0
 40
0.0
 41
1.0
 50
0.0
 71
     0
 42
0.2
  3
romans.shx
  4

  0
STYLE
  2
STANDARD1
 70
     0
 40
0.0
 41
1.0
 50
0.0
 71
     0
 42
3.0
  3
txt
  4

  0
ENDTAB
  0
TABLE
  2
VIEW
 70
     1
  0
VIEW
  2
ALL
 70
     0
 40
270.0
 10
220.99159700000001
 20
135.0
 41
0.0
 11
0.0
 21
0.0
 31
1.0
 12
0.0
 22
0.0
 32
0.0
 42
0.0
 43
0.0
 44
0.0
 50
0.0
 71
     0
  0
ENDTAB
  0
TABLE
  2
UCS
 70
     0
  0
ENDTAB
  0
TABLE
  2
APPID
 70
     3
  0
APPID
  2
ACAD
 70
     0
  0
APPID
  2
ACAD_MLEADERVER
 70
     0
  0
APPID
  2
ACAD_NAV_VCDISPLAY
 70
     0
  0
ENDTAB
  0
TABLE
  2
DIMSTYLE
 70
     1
  0
DIMSTYLE
  2
STANDARD
 70
     0
  3

  4

  5

  6

  7

 40
1.0
 41
0.18
 42
0.0625
 43
0.38
 44
0.18
 45
0.0
 46
0.0
 47
0.0
 48
0.0
140
0.18
141
0.09
142
0.0
143
25.399999999999999
144
1.0
145
0.0
146
1.0
147
0.09
 71
     0
 72
     0
 73
     1
 74
     1
 75
     0
 76
     0
 77
     0
 78
     0
170
     0
171
     2
172
     0
173
     0
174
     0
175
     0
176
     0
177
     0
178
     0
  0
ENDTAB
  0
ENDSEC
  0
SECTION
  2
BLOCKS
  0
BLOCK
  8
0
  2
$MODEL_SPACE
 70
     0
 10
0.0
 20
0.0
 30
0.0
  3
$MODEL_SPACE
  1

  0
ENDBLK
  5
1D1
  8
0
  0
BLOCK
 67
     1
  8
0
  2
$PAPER_SPACE
 70
     0
 10
0.0
 20
0.0
 30
0.0
  3
$PAPER_SPACE
  1

  0
ENDBLK
  5
1CF
 67
     1
  8
0
  0
ENDSEC
  0
SECTION
  2
ENTITIES
  0
CIRCLE
  5
37
  8
0
 10
64.404111
 20
144.51680300000001
 30
0.0
 40
5.3245740000000001
  0
LINE
  5
38
  8
0
 10
121.660551
 20
139.16049899999999
 30
0.0
 11
121.660551
 21
136.01680300000001
 31
0.0
  0
ARC
  5
39
  8
0
 10
124.374098
 20
144.51680300000001
 30
0.0
 40
6.0044430000000002
 50
116.86713399999999
 51
243.13286600000009
  0
ARC
  5
3A
  8
0
 10
120.13205000000001
 20
144.51680300000001
 30
0.0
 40
13.625465999999999
 50
336.85185899999999
 51
23.148140999999999
  0
LINE
  5
3B
  8
0
 10
132.660551
 20
149.873108
 30
0.0
 11
132.660551
 21
139.16049899999999
 31
0.0
  0
LINE
  5
3C
  8
0
 10
133.75751700000001
 20
211.011211
 30
0.0
 11
141.160551
 21
211.011211
 31
0.0
  0
LINE
  5
3D
  8
0
 10
133.75751700000001
 20
211.011211
 30
0.0
 11
132.83375599999999
 21
212.611211
 31
0.0
  0
LINE
  5
3E
  8
0
 10
133.75751700000001
 20
228.011211
 30
0.0
 11
132.83375599999999
 21
226.41121100000001
 31
0.0
  0
LINE
  5
3F
  8
0
 10
116.160551
 20
224.83578499999999
 30
0.0
 11
116.160551
 21
214.18663799999999
 31
0.0
  0
LINE
  5
40
  8
0
 10
141.160551
 20
228.011211
 30
0.0
 11
141.160551
 21
211.011211
 31
0.0
  0
LINE
  5
41
  8
0
 10
133.75751700000001
 20
228.011211
 30
0.0
 11
141.160551
 21
228.011211
 31
0.0
  0
LINE
  5
42
  8
3
 10
146.160551
 20
215.32321099999999
 30
0.0
 11
144.75412600000001
 21
214.511211
 31
0.0
  0
LINE
  5
43
  8
3
 10
146.160551
 20
223.69921099999999
 30
0.0
 11
144.75412600000001
 21
224.511211
 31
0.0
  0
LINE
  5
44
  8
0
 10
146.160551
 20
224.511211
 30
0.0
 11
146.160551
 21
214.511211
 31
0.0
  0
LINE
  5
45
  8
0
 10
142.160551
 20
224.511211
 30
0.0
 11
147.660551
 21
224.511211
 31
0.0
  0
LINE
  5
46
  8
3
 10
146.160551
 20
223.69921099999999
 30
0.0
 11
147.660551
 21
223.69921099999999
 31
0.0
  0
LINE
  5
47
  8
3
 10
146.160551
 20
215.32321099999999
 30
0.0
 11
147.660551
 21
215.32321099999999
 31
0.0
  0
ARC
  5
48
  8
0
 10
142.160551
 20
225.511211
 30
0.0
 40
1.0
 50
180.0
 51
270.0
  0
LINE
  5
49
  8
0
 10
121.660551
 20
226.41121100000001
 30
0.0
 11
121.660551
 21
212.611211
 31
0.0
  0
LINE
  5
4A
  8
1
 10
123.660551
 20
231.111211
 30
0.0
 11
123.660551
 21
207.91121100000001
 31
0.0
  0
ARC
  5
4B
  8
0
 10
142.160551
 20
213.511211
 30
0.0
 40
1.0
 50
90.0
 51
180.0
  0
LINE
  5
4C
  8
0
 10
142.160551
 20
214.511211
 30
0.0
 11
147.660551
 21
214.511211
 31
0.0
  0
LINE
  5
4D
  8
0
 10
121.660551
 20
139.16049899999999
 30
0.0
 11
132.660551
 21
139.16049899999999
 31
0.0
  0
LINE
  5
4E
  8
0
 10
121.660551
 20
149.873108
 30
0.0
 11
132.660551
 21
149.873108
 31
0.0
  0
LINE
  5
4F
  8
0
 10
121.660551
 20
136.01680300000001
 30
0.0
 11
116.160551
 21
139.19223
 31
0.0
  0
LINE
  5
50
  8
0
 10
121.660551
 20
136.01680300000001
 30
0.0
 11
141.160551
 21
136.01680300000001
 31
0.0
  0
LINE
  5
51
  8
0
 10
142.160551
 20
139.51680300000001
 30
0.0
 11
147.660551
 21
139.51680300000001
 31
0.0
  0
ARC
  5
52
  8
0
 10
142.160551
 20
138.51680300000001
 30
0.0
 40
1.0
 50
90.0
 51
180.0
  0
LINE
  5
53
  8
1
 10
123.660551
 20
152.16680299999999
 30
0.0
 11
123.660551
 21
136.866803
 31
0.0
  0
LINE
  5
54
  8
0
 10
121.660551
 20
153.01680300000001
 30
0.0
 11
116.160551
 21
149.84137699999999
 31
0.0
  0
LINE
  5
55
  8
0
 10
121.660551
 20
153.01680300000001
 30
0.0
 11
121.660551
 21
149.873108
 31
0.0
  0
ARC
  5
56
  8
0
 10
142.160551
 20
150.51680300000001
 30
0.0
 40
1.0
 50
180.0
 51
270.0
  0
LINE
  5
57
  8
2
 10
191.160551
 20
148.01680300000001
 30
0.0
 11
191.160551
 21
141.01680300000001
 31
0.0
  0
LINE
  5
58
  8
3
 10
146.160551
 20
140.32880299999999
 30
0.0
 11
147.660551
 21
140.32880299999999
 31
0.0
  0
LINE
  5
59
  8
3
 10
146.160551
 20
148.704803
 30
0.0
 11
147.660551
 21
148.704803
 31
0.0
  0
LINE
  5
5A
  8
0
 10
142.160551
 20
149.51680300000001
 30
0.0
 11
147.660551
 21
149.51680300000001
 31
0.0
  0
LINE
  5
5B
  8
2
 10
189.660551
 20
149.51680300000001
 30
0.0
 11
191.160551
 21
148.01680300000001
 31
0.0
  0
LINE
  5
5C
  8
2
 10
191.160551
 20
141.01680300000001
 30
0.0
 11
189.660551
 21
139.51680300000001
 31
0.0
  0
LINE
  5
5D
  8
0
 10
146.160551
 20
149.51680300000001
 30
0.0
 11
146.160551
 21
139.51680300000001
 31
0.0
  0
LINE
  5
5E
  8
3
 10
146.160551
 20
148.704803
 30
0.0
 11
144.75412600000001
 21
149.51680300000001
 31
0.0
  0
LINE
  5
5F
  8
3
 10
146.160551
 20
140.32880299999999
 30
0.0
 11
144.75412600000001
 21
139.51680300000001
 31
0.0
  0
LINE
  5
60
  8
2
 10
189.660551
 20
149.51680300000001
 30
0.0
 11
189.660551
 21
139.51680300000001
 31
0.0
  0
LINE
  5
61
  8
0
 10
121.660551
 20
153.01680300000001
 30
0.0
 11
141.160551
 21
153.01680300000001
 31
0.0
  0
LINE
  5
62
  8
0
 10
141.160551
 20
153.01680300000001
 30
0.0
 11
141.160551
 21
136.01680300000001
 31
0.0
  0
CIRCLE
  5
63
  8
0
 10
64.404111
 20
144.51680300000001
 30
0.0
 40
8.5
  0
LINE
  5
64
  8
0
 10
116.160551
 20
149.84137699999999
 30
0.0
 11
116.160551
 21
139.19223
 31
0.0
  0
TEXT
  5
65
  8
0
 10
218.5176938571428
 20
142.26680300000001
 30
0.0
 40
4.5
  1
L
 72
     4
 11
220.660551
 21
144.51680300000001
 31
0.0
  0
LINE
  5
66
  8
0
 10
155.660551
 20
134.70184900000001
 30
0.0
 11
155.660551
 21
154.33175800000001
 31
0.0
  0
LINE
  5
67
  8
0
 10
156.56407799999999
 20
134.70184900000001
 30
0.0
 11
155.660551
 21
136.26680300000001
 31
0.0
  0
ARC
  5
68
  8
0
 10
160.149787
 20
137.155587
 30
0.0
 40
4.344898999999999
 50
145.61575300000001
 51
205.61575300000001
  0
LINE
  5
69
  8
0
 10
229.757024
 20
134.70184900000001
 30
0.0
 11
156.56407799999999
 21
134.70184900000001
 31
0.0
  0
LINE
  5
6A
  8
0
 10
229.757024
 20
139.60932600000001
 30
0.0
 11
156.56407799999999
 21
139.60932600000001
 31
0.0
  0
LINE
  5
6B
  8
0
 10
229.757024
 20
149.42428100000001
 30
0.0
 11
156.56407799999999
 21
149.42428100000001
 31
0.0
  0
LINE
  5
6C
  8
0
 10
229.757024
 20
154.33175800000001
 30
0.0
 11
156.56407799999999
 21
154.33175800000001
 31
0.0
  0
ARC
  5
6D
  8
0
 10
172.04569900000001
 20
144.51680300000001
 30
0.0
 40
16.24081099999999
 50
162.412046
 51
197.587954
  0
ARC
  5
6E
  8
0
 10
160.149787
 20
151.87801899999999
 30
0.0
 40
4.344898999999999
 50
154.38424699999999
 51
214.38424699999999
  0
LINE
  5
6F
  8
0
 10
156.56407799999999
 20
154.33175800000001
 30
0.0
 11
155.660551
 21
152.76680300000001
 31
0.0
  0
LINE
  5
70
  8
0
 10
64.404111
 20
154.33175800000001
 30
0.0
 11
55.904111
 21
149.42428100000001
 31
0.0
  0
LINE
  5
71
  8
0
 10
72.904111
 20
149.42428100000001
 30
0.0
 11
64.404111
 21
154.33175800000001
 31
0.0
  0
LINE
  5
72
  8
0
 10
72.904111
 20
139.60932600000001
 30
0.0
 11
72.904111
 21
149.42428100000001
 31
0.0
  0
LINE
  5
73
  8
0
 10
64.404111
 20
134.70184900000001
 30
0.0
 11
72.904111
 21
139.60932600000001
 31
0.0
  0
LINE
  5
74
  8
0
 10
55.904111
 20
139.60932600000001
 30
0.0
 11
64.404111
 21
134.70184900000001
 31
0.0
  0
LINE
  5
75
  8
0
 10
55.904111
 20
149.42428100000001
 30
0.0
 11
55.904111
 21
139.60932600000001
 31
0.0
  0
LINE
  5
76
  8
0
 10
148.56407799999999
 20
154.33175800000001
 30
0.0
 11
147.660551
 21
152.76680300000001
 31
0.0
  0
ARC
  5
77
  8
0
 10
152.149787
 20
151.87801899999999
 30
0.0
 40
4.344898999999999
 50
154.38424699999999
 51
214.38424699999999
  0
ARC
  5
78
  8
0
 10
164.04569900000001
 20
144.51680300000001
 30
0.0
 40
16.24081099999999
 50
162.412046
 51
197.587954
  0
LINE
  5
79
  8
0
 10
155.660551
 20
154.33175800000001
 30
0.0
 11
148.56407799999999
 21
154.33175800000001
 31
0.0
  0
LINE
  5
7A
  8
0
 10
155.660551
 20
149.42428100000001
 30
0.0
 11
148.56407799999999
 21
149.42428100000001
 31
0.0
  0
LINE
  5
7B
  8
0
 10
155.660551
 20
139.60932600000001
 30
0.0
 11
148.56407799999999
 21
139.60932600000001
 31
0.0
  0
LINE
  5
7C
  8
0
 10
155.660551
 20
134.70184900000001
 30
0.0
 11
148.56407799999999
 21
134.70184900000001
 31
0.0
  0
ARC
  5
7D
  8
0
 10
152.149787
 20
137.155587
 30
0.0
 40
4.344898999999999
 50
145.61575300000001
 51
205.61575300000001
  0
LINE
  5
7E
  8
0
 10
148.56407799999999
 20
134.70184900000001
 30
0.0
 11
147.660551
 21
136.26680300000001
 31
0.0
  0
LINE
  5
7F
  8
0
 10
147.660551
 20
136.26680300000001
 30
0.0
 11
147.660551
 21
152.76680300000001
 31
0.0
  0
LINE
  5
80
  8
2
 10
155.660551
 20
148.704803
 30
0.0
 11
190.47255100000001
 21
148.704803
 31
0.0
  0
LINE
  5
81
  8
2
 10
155.660551
 20
149.51680300000001
 30
0.0
 11
189.660551
 21
149.51680300000001
 31
0.0
  0
LINE
  5
82
  8
2
 10
155.660551
 20
140.32880299999999
 30
0.0
 11
190.47255100000001
 21
140.32880299999999
 31
0.0
  0
LINE
  5
83
  8
2
 10
155.660551
 20
139.51680300000001
 30
0.0
 11
189.660551
 21
139.51680300000001
 31
0.0
  0
LINE
  5
84
  8
0
 10
147.804889
 20
211.011211
 30
0.0
 11
147.660551
 21
211.261211
 31
0.0
  0
ARC
  5
85
  8
0
 10
160.0803949999999
 20
215.261211
 30
0.0
 40
12.275506999999999
 50
159.743842
 51
200.256158
  0
LINE
  5
86
  8
0
 10
155.660551
 20
211.011211
 30
0.0
 11
147.804889
 21
211.011211
 31
0.0
  0
LINE
  5
87
  8
0
 10
155.660551
 20
219.511211
 30
0.0
 11
148.56407799999999
 21
219.511211
 31
0.0
  0
LINE
  5
88
  8
0
 10
155.660551
 20
228.011211
 30
0.0
 11
147.804889
 21
228.011211
 31
0.0
  0
LINE
  5
89
  8
0
 10
147.804889
 20
228.011211
 30
0.0
 11
147.660551
 21
227.761211
 31
0.0
  0
ARC
  5
8A
  8
0
 10
160.0803949999999
 20
223.761211
 30
0.0
 40
12.275506999999999
 50
159.743842
 51
200.256158
  0
LINE
  5
8B
  8
0
 10
147.660551
 20
227.761211
 30
0.0
 11
147.660551
 21
211.261211
 31
0.0
  0
LINE
  5
8C
  8
0
 10
155.660551
 20
228.011211
 30
0.0
 11
155.660551
 21
211.011211
 31
0.0
  0
ARC
  5
8D
  8
0
 10
168.08039500000001
 20
223.761211
 30
0.0
 40
12.275506999999999
 50
159.743842
 51
200.256158
  0
LINE
  5
8E
  8
0
 10
155.804889
 20
228.011211
 30
0.0
 11
155.660551
 21
227.761211
 31
0.0
  0
LINE
  5
8F
  8
0
 10
230.51621399999999
 20
228.011211
 30
0.0
 11
155.804889
 21
228.011211
 31
0.0
  0
LINE
  5
90
  8
0
 10
229.757024
 20
219.511211
 30
0.0
 11
156.56407799999999
 21
219.511211
 31
0.0
  0
LINE
  5
91
  8
0
 10
230.51621399999999
 20
211.011211
 30
0.0
 11
155.804889
 21
211.011211
 31
0.0
  0
ARC
  5
92
  8
0
 10
168.08039500000001
 20
215.261211
 30
0.0
 40
12.275506999999999
 50
159.743842
 51
200.256158
  0
LINE
  5
93
  8
0
 10
155.804889
 20
211.011211
 30
0.0
 11
155.660551
 21
211.261211
 31
0.0
  0
LINE
  5
94
  8
0
 10
230.51621399999999
 20
211.011211
 30
0.0
 11
230.660551
 21
211.261211
 31
0.0
  0
ARC
  5
95
  8
0
 10
218.24070699999999
 20
215.261211
 30
0.0
 40
12.275506999999999
 50
339.74384199999997
 51
20.256157999999999
  0
LINE
  5
96
  8
0
 10
230.51621399999999
 20
228.011211
 30
0.0
 11
230.660551
 21
227.761211
 31
0.0
  0
ARC
  5
97
  8
0
 10
218.24070699999999
 20
223.761211
 30
0.0
 40
12.275506999999999
 50
339.74384199999997
 51
20.256157999999999
  0
LINE
  5
98
  8
0
 10
230.660551
 20
228.011211
 30
0.0
 11
230.660551
 21
211.011211
 31
0.0
  0
LINE
  5
99
  8
0
 10
238.660551
 20
227.761211
 30
0.0
 11
238.660551
 21
211.261211
 31
0.0
  0
ARC
  5
9A
  8
0
 10
226.24070699999999
 20
223.761211
 30
0.0
 40
12.275506999999999
 50
339.74384199999997
 51
20.256157999999999
  0
LINE
  5
9B
  8
0
 10
238.51621399999999
 20
228.011211
 30
0.0
 11
238.660551
 21
227.761211
 31
0.0
  0
LINE
  5
9C
  8
0
 10
230.660551
 20
228.011211
 30
0.0
 11
238.51621399999999
 21
228.011211
 31
0.0
  0
LINE
  5
9D
  8
0
 10
230.660551
 20
219.511211
 30
0.0
 11
237.757024
 21
219.511211
 31
0.0
  0
LINE
  5
9E
  8
0
 10
230.660551
 20
211.011211
 30
0.0
 11
238.51621399999999
 21
211.011211
 31
0.0
  0
ARC
  5
9F
  8
0
 10
226.24070699999999
 20
215.261211
 30
0.0
 40
12.275506999999999
 50
339.74384199999997
 51
20.256157999999999
  0
LINE
  5
A0
  8
0
 10
238.51621399999999
 20
211.011211
 30
0.0
 11
238.660551
 21
211.261211
 31
0.0
  0
LINE
  5
A1
  8
2
 10
230.660551
 20
139.51680300000001
 30
0.0
 11
196.660551
 21
139.51680300000001
 31
0.0
  0
LINE
  5
A2
  8
2
 10
230.660551
 20
140.32880299999999
 30
0.0
 11
195.84855099999999
 21
140.32880299999999
 31
0.0
  0
LINE
  5
A3
  8
2
 10
230.660551
 20
149.51680300000001
 30
0.0
 11
196.660551
 21
149.51680300000001
 31
0.0
  0
LINE
  5
A4
  8
2
 10
230.660551
 20
148.704803
 30
0.0
 11
195.84855099999999
 21
148.704803
 31
0.0
  0
LINE
  5
A5
  8
0
 10
238.660551
 20
136.26680300000001
 30
0.0
 11
238.660551
 21
152.76680300000001
 31
0.0
  0
LINE
  5
A6
  8
0
 10
237.757024
 20
134.70184900000001
 30
0.0
 11
238.660551
 21
136.26680300000001
 31
0.0
  0
ARC
  5
A7
  8
0
 10
234.17131499999999
 20
137.155587
 30
0.0
 40
4.344898999999999
 50
334.38424700000002
 51
34.384247000000002
  0
LINE
  5
A8
  8
0
 10
230.660551
 20
134.70184900000001
 30
0.0
 11
237.757024
 21
134.70184900000001
 31
0.0
  0
LINE
  5
A9
  8
0
 10
230.660551
 20
139.60932600000001
 30
0.0
 11
237.757024
 21
139.60932600000001
 31
0.0
  0
LINE
  5
AA
  8
0
 10
230.660551
 20
149.42428100000001
 30
0.0
 11
237.757024
 21
149.42428100000001
 31
0.0
  0
LINE
  5
AB
  8
0
 10
230.660551
 20
154.33175800000001
 30
0.0
 11
237.757024
 21
154.33175800000001
 31
0.0
  0
ARC
  5
AC
  8
0
 10
222.27540300000001
 20
144.51680300000001
 30
0.0
 40
16.24081099999999
 50
342.41204599999998
 51
17.587954
  0
ARC
  5
AD
  8
0
 10
234.17131499999999
 20
151.87801899999999
 30
0.0
 40
4.344898999999999
 50
325.61575299999998
 51
25.615753000000002
  0
LINE
  5
AE
  8
0
 10
237.757024
 20
154.33175800000001
 30
0.0
 11
238.660551
 21
152.76680300000001
 31
0.0
  0
LINE
  5
AF
  8
0
 10
229.757024
 20
154.33175800000001
 30
0.0
 11
230.660551
 21
152.76680300000001
 31
0.0
  0
ARC
  5
B0
  8
0
 10
226.17131499999999
 20
151.87801899999999
 30
0.0
 40
4.344898999999999
 50
325.61575299999998
 51
25.615753000000002
  0
ARC
  5
B1
  8
0
 10
214.27540300000001
 20
144.51680300000001
 30
0.0
 40
16.24081099999999
 50
342.41204599999998
 51
17.587954
  0
ARC
  5
B2
  8
0
 10
226.17131499999999
 20
137.155587
 30
0.0
 40
4.344898999999999
 50
334.38424700000002
 51
34.384247000000002
  0
LINE
  5
B3
  8
0
 10
229.757024
 20
134.70184900000001
 30
0.0
 11
230.660551
 21
136.26680300000001
 31
0.0
  0
LINE
  5
B4
  8
0
 10
230.660551
 20
134.70184900000001
 30
0.0
 11
230.660551
 21
154.33175800000001
 31
0.0
  0
LINE
  5
B5
  8
0
 10
270.160551
 20
149.84137699999999
 30
0.0
 11
270.160551
 21
139.19223
 31
0.0
  0
LINE
  5
B6
  8
0
 10
245.160551
 20
153.01680300000001
 30
0.0
 11
245.160551
 21
136.01680300000001
 31
0.0
  0
LINE
  5
B7
  8
0
 10
264.660551
 20
153.01680300000001
 30
0.0
 11
245.160551
 21
153.01680300000001
 31
0.0
  0
LINE
  5
B8
  8
2
 10
196.660551
 20
149.51680300000001
 30
0.0
 11
196.660551
 21
139.51680300000001
 31
0.0
  0
LINE
  5
B9
  8
3
 10
240.16055099999991
 20
140.32880299999999
 30
0.0
 11
241.56697700000001
 21
139.51680300000001
 31
0.0
  0
LINE
  5
BA
  8
3
 10
240.16055099999991
 20
148.704803
 30
0.0
 11
241.56697700000001
 21
149.51680300000001
 31
0.0
  0
LINE
  5
BB
  8
0
 10
240.16055099999991
 20
149.51680300000001
 30
0.0
 11
240.16055099999991
 21
139.51680300000001
 31
0.0
  0
LINE
  5
BC
  8
2
 10
195.160551
 20
141.01680300000001
 30
0.0
 11
196.660551
 21
139.51680300000001
 31
0.0
  0
LINE
  5
BD
  8
2
 10
196.660551
 20
149.51680300000001
 30
0.0
 11
195.160551
 21
148.01680300000001
 31
0.0
  0
LINE
  5
BE
  8
0
 10
244.160551
 20
149.51680300000001
 30
0.0
 11
238.660551
 21
149.51680300000001
 31
0.0
  0
LINE
  5
BF
  8
3
 10
240.16055099999991
 20
148.704803
 30
0.0
 11
238.660551
 21
148.704803
 31
0.0
  0
LINE
  5
C0
  8
3
 10
240.16055099999991
 20
140.32880299999999
 30
0.0
 11
238.660551
 21
140.32880299999999
 31
0.0
  0
LINE
  5
C1
  8
2
 10
195.160551
 20
148.01680300000001
 30
0.0
 11
195.160551
 21
141.01680300000001
 31
0.0
  0
ARC
  5
C2
  8
0
 10
244.160551
 20
150.51680300000001
 30
0.0
 40
1.0
 50
270.0
 51
0.0
  0
LINE
  5
C3
  8
0
 10
264.660551
 20
153.01680300000001
 30
0.0
 11
264.660551
 21
149.873108
 31
0.0
  0
LINE
  5
C4
  8
0
 10
264.660551
 20
153.01680300000001
 30
0.0
 11
270.160551
 21
149.84137699999999
 31
0.0
  0
LINE
  5
C5
  8
1
 10
262.660551
 20
152.16680299999999
 30
0.0
 11
262.660551
 21
136.866803
 31
0.0
  0
ARC
  5
C6
  8
0
 10
244.160551
 20
138.51680300000001
 30
0.0
 40
1.0
 50
0.0
 51
90.0
  0
LINE
  5
C7
  8
0
 10
244.160551
 20
139.51680300000001
 30
0.0
 11
238.660551
 21
139.51680300000001
 31
0.0
  0
LINE
  5
C8
  8
0
 10
264.660551
 20
136.01680300000001
 30
0.0
 11
245.160551
 21
136.01680300000001
 31
0.0
  0
LINE
  5
C9
  8
0
 10
264.660551
 20
136.01680300000001
 30
0.0
 11
270.160551
 21
139.19223
 31
0.0
  0
LINE
  5
CA
  8
0
 10
264.660551
 20
149.873108
 30
0.0
 11
253.660551
 21
149.873108
 31
0.0
  0
LINE
  5
CB
  8
0
 10
264.660551
 20
139.16049899999999
 30
0.0
 11
253.660551
 21
139.16049899999999
 31
0.0
  0
LINE
  5
CC
  8
0
 10
244.160551
 20
214.511211
 30
0.0
 11
238.660551
 21
214.511211
 31
0.0
  0
ARC
  5
CD
  8
0
 10
244.160551
 20
213.511211
 30
0.0
 40
1.0
 50
0.0
 51
90.0
  0
LINE
  5
CE
  8
1
 10
262.660551
 20
231.111211
 30
0.0
 11
262.660551
 21
207.91121100000001
 31
0.0
  0
ARC
  5
CF
  8
0
 10
244.160551
 20
225.511211
 30
0.0
 40
1.0
 50
270.0
 51
0.0
  0
LINE
  5
D0
  8
3
 10
240.16055099999991
 20
215.32321099999999
 30
0.0
 11
238.660551
 21
215.32321099999999
 31
0.0
  0
LINE
  5
D1
  8
3
 10
240.16055099999991
 20
223.69921099999999
 30
0.0
 11
238.660551
 21
223.69921099999999
 31
0.0
  0
LINE
  5
D2
  8
0
 10
244.160551
 20
224.511211
 30
0.0
 11
238.660551
 21
224.511211
 31
0.0
  0
LINE
  5
D3
  8
0
 10
240.16055099999991
 20
224.511211
 30
0.0
 11
240.16055099999991
 21
214.511211
 31
0.0
  0
LINE
  5
D4
  8
3
 10
240.16055099999991
 20
223.69921099999999
 30
0.0
 11
241.56697700000001
 21
224.511211
 31
0.0
  0
LINE
  5
D5
  8
3
 10
240.16055099999991
 20
215.32321099999999
 30
0.0
 11
241.56697700000001
 21
214.511211
 31
0.0
  0
LINE
  5
D6
  8
0
 10
253.660551
 20
149.873108
 30
0.0
 11
253.660551
 21
139.16049899999999
 31
0.0
  0
ARC
  5
D7
  8
0
 10
266.189052
 20
144.51680300000001
 30
0.0
 40
13.625465999999999
 50
156.85185899999999
 51
203.14814100000001
  0
ARC
  5
D8
  8
0
 10
261.94700499999999
 20
144.51680300000001
 30
0.0
 40
6.0044430000000002
 50
296.86713400000002
 51
63.132866
  0
LINE
  5
D9
  8
0
 10
264.660551
 20
139.16049899999999
 30
0.0
 11
264.660551
 21
136.01680300000001
 31
0.0
  0
LINE
  5
DA
  8
2
 10
58.004111000000002
 20
147.116803
 30
0.0
 11
58.004111000000002
 21
141.91680299999999
 31
0.0
  0
LINE
  5
DB
  8
2
 10
70.804110999999992
 20
147.116803
 30
0.0
 11
70.804110999999992
 21
141.91680299999999
 31
0.0
  0
LINE
  5
DC
  8
2
 10
58.004111000000002
 20
141.91680299999999
 30
0.0
 11
57.504111000000002
 21
141.41680299999999
 31
0.0
  0
LINE
  5
DD
  8
2
 10
57.504111000000002
 20
147.616803
 30
0.0
 11
58.004111000000002
 21
147.116803
 31
0.0
  0
LINE
  5
DE
  8
2
 10
70.804110999999992
 20
141.91680299999999
 30
0.0
 11
71.304110999999992
 21
141.41680299999999
 31
0.0
  0
LINE
  5
DF
  8
2
 10
71.304110999999992
 20
147.616803
 30
0.0
 11
70.804110999999992
 21
147.116803
 31
0.0
  0
LINE
  5
E0
  8
2
 10
70.804110999999992
 20
141.91680299999999
 30
0.0
 11
58.004111000000002
 21
141.91680299999999
 31
0.0
  0
LINE
  5
E1
  8
2
 10
70.804110999999992
 20
147.116803
 30
0.0
 11
58.004111000000002
 21
147.116803
 31
0.0
  0
LINE
  5
E2
  8
0
 10
71.304110999999992
 20
139.55293399999999
 30
0.0
 11
71.304110999999992
 21
149.480673
 31
0.0
  0
LINE
  5
E3
  8
0
 10
57.504111000000002
 20
139.55293399999999
 30
0.0
 11
57.504111000000002
 21
149.480673
 31
0.0
  0
LINE
  5
E4
  8
1
 10
64.404111
 20
159.33175800000001
 30
0.0
 11
64.404111
 21
129.70184900000001
 31
0.0
  0
LINE
  5
E5
  8
1
 10
50.904111
 20
144.51680300000001
 30
0.0
 11
77.904111
 21
144.51680300000001
 31
0.0
  0
CIRCLE
  5
E6
  8
0
 10
123.660551
 20
144.51680300000001
 30
0.0
 40
2.6000000000000001
  0
CIRCLE
  5
E7
  8
0
 10
262.660551
 20
144.51680300000001
 30
0.0
 40
2.6000000000000001
  0
LINE
  5
E8
  8
0
 10
314.762607
 20
139.55293399999999
 30
0.0
 11
314.762607
 21
149.480673
 31
0.0
  0
LINE
  5
E9
  8
0
 10
328.56260700000001
 20
139.55293399999999
 30
0.0
 11
328.56260700000001
 21
149.480673
 31
0.0
  0
LINE
  5
EA
  8
2
 10
328.06260700000001
 20
147.116803
 30
0.0
 11
315.262607
 21
147.116803
 31
0.0
  0
LINE
  5
EB
  8
2
 10
328.06260700000001
 20
141.91680299999999
 30
0.0
 11
315.262607
 21
141.91680299999999
 31
0.0
  0
LINE
  5
EC
  8
2
 10
328.56260700000001
 20
147.616803
 30
0.0
 11
328.06260700000001
 21
147.116803
 31
0.0
  0
LINE
  5
ED
  8
2
 10
328.06260700000001
 20
141.91680299999999
 30
0.0
 11
328.56260700000001
 21
141.41680299999999
 31
0.0
  0
LINE
  5
EE
  8
2
 10
314.762607
 20
147.616803
 30
0.0
 11
315.262607
 21
147.116803
 31
0.0
  0
LINE
  5
EF
  8
2
 10
315.262607
 20
141.91680299999999
 30
0.0
 11
314.762607
 21
141.41680299999999
 31
0.0
  0
LINE
  5
F0
  8
2
 10
328.06260700000001
 20
147.116803
 30
0.0
 11
328.06260700000001
 21
141.91680299999999
 31
0.0
  0
LINE
  5
F1
  8
2
 10
315.262607
 20
147.116803
 30
0.0
 11
315.262607
 21
141.91680299999999
 31
0.0
  0
LINE
  5
F2
  8
0
 10
313.16260699999998
 20
149.42428100000001
 30
0.0
 11
313.16260699999998
 21
139.60932600000001
 31
0.0
  0
LINE
  5
F3
  8
0
 10
313.16260699999998
 20
139.60932600000001
 30
0.0
 11
321.66260699999998
 21
134.70184900000001
 31
0.0
  0
LINE
  5
F4
  8
0
 10
321.66260699999998
 20
134.70184900000001
 30
0.0
 11
330.16260699999998
 21
139.60932600000001
 31
0.0
  0
LINE
  5
F5
  8
0
 10
330.16260699999998
 20
139.60932600000001
 30
0.0
 11
330.16260699999998
 21
149.42428100000001
 31
0.0
  0
LINE
  5
F6
  8
0
 10
330.16260699999998
 20
149.42428100000001
 30
0.0
 11
321.66260699999998
 21
154.33175800000001
 31
0.0
  0
LINE
  5
F7
  8
0
 10
321.66260699999998
 20
154.33175800000001
 30
0.0
 11
313.16260699999998
 21
149.42428100000001
 31
0.0
  0
CIRCLE
  5
F8
  8
0
 10
321.66260699999998
 20
144.51680300000001
 30
0.0
 40
8.5
  0
CIRCLE
  5
F9
  8
0
 10
321.66260699999998
 20
144.51680300000001
 30
0.0
 40
5.3245740000000001
  0
LINE
  5
FA
  8
1
 10
321.66260699999998
 20
159.33175800000001
 30
0.0
 11
321.66260699999998
 21
129.70184900000001
 31
0.0
  0
LINE
  5
FB
  8
1
 10
308.16260699999998
 20
144.51680300000001
 30
0.0
 11
335.16260699999998
 21
144.51680300000001
 31
0.0
  0
LINE
  5
FC
  8
0
 10
118.36965499999999
 20
226.41121100000001
 30
0.0
 11
132.83375599999999
 21
226.41121100000001
 31
0.0
  0
LINE
  5
FD
  8
0
 10
118.36965499999999
 20
212.611211
 30
0.0
 11
132.83375599999999
 21
212.611211
 31
0.0
  0
LINE
  5
FE
  8
2
 10
121.060551
 20
213.111211
 30
0.0
 11
126.26055100000001
 21
213.111211
 31
0.0
  0
LINE
  5
FF
  8
2
 10
121.060551
 20
225.91121100000001
 30
0.0
 11
126.26055100000001
 21
225.91121100000001
 31
0.0
  0
LINE
  5
100
  8
2
 10
126.26055100000001
 20
213.111211
 30
0.0
 11
126.76055100000001
 21
212.611211
 31
0.0
  0
LINE
  5
101
  8
2
 10
120.560551
 20
212.611211
 30
0.0
 11
121.060551
 21
213.111211
 31
0.0
  0
LINE
  5
102
  8
2
 10
126.26055100000001
 20
225.91121100000001
 30
0.0
 11
126.76055100000001
 21
226.41121100000001
 31
0.0
  0
LINE
  5
103
  8
2
 10
120.560551
 20
226.41121100000001
 30
0.0
 11
121.060551
 21
225.91121100000001
 31
0.0
  0
LINE
  5
104
  8
2
 10
126.26055100000001
 20
225.91121100000001
 30
0.0
 11
126.26055100000001
 21
213.111211
 31
0.0
  0
LINE
  5
105
  8
2
 10
121.060551
 20
225.91121100000001
 30
0.0
 11
121.060551
 21
213.111211
 31
0.0
  0
LINE
  5
106
  8
0
 10
118.36965499999999
 20
212.611211
 30
0.0
 11
116.160551
 21
214.18663799999999
 31
0.0
  0
LINE
  5
107
  8
0
 10
118.36965499999999
 20
226.41121100000001
 30
0.0
 11
116.160551
 21
224.83578499999999
 31
0.0
  0
LINE
  5
108
  8
0
 10
267.95144800000003
 20
226.41121100000001
 30
0.0
 11
270.160551
 21
224.83578499999999
 31
0.0
  0
LINE
  5
109
  8
0
 10
267.95144800000003
 20
212.611211
 30
0.0
 11
270.160551
 21
214.18663799999999
 31
0.0
  0
LINE
  5
10A
  8
2
 10
265.26055100000002
 20
225.91121100000001
 30
0.0
 11
265.26055100000002
 21
213.111211
 31
0.0
  0
LINE
  5
10B
  8
2
 10
260.06055099999998
 20
225.91121100000001
 30
0.0
 11
260.06055099999998
 21
213.111211
 31
0.0
  0
LINE
  5
10C
  8
2
 10
265.76055100000002
 20
226.41121100000001
 30
0.0
 11
265.26055100000002
 21
225.91121100000001
 31
0.0
  0
LINE
  5
10D
  8
2
 10
260.06055099999998
 20
225.91121100000001
 30
0.0
 11
259.56055099999998
 21
226.41121100000001
 31
0.0
  0
LINE
  5
10E
  8
2
 10
265.76055100000002
 20
212.611211
 30
0.0
 11
265.26055100000002
 21
213.111211
 31
0.0
  0
LINE
  5
10F
  8
2
 10
260.06055099999998
 20
213.111211
 30
0.0
 11
259.56055099999998
 21
212.611211
 31
0.0
  0
LINE
  5
110
  8
2
 10
265.26055100000002
 20
225.91121100000001
 30
0.0
 11
260.06055099999998
 21
225.91121100000001
 31
0.0
  0
LINE
  5
111
  8
2
 10
265.26055100000002
 20
213.111211
 30
0.0
 11
260.06055099999998
 21
213.111211
 31
0.0
  0
LINE
  5
112
  8
0
 10
267.95144800000003
 20
212.611211
 30
0.0
 11
253.487346
 21
212.611211
 31
0.0
  0
LINE
  5
113
  8
0
 10
267.95144800000003
 20
226.41121100000001
 30
0.0
 11
253.487346
 21
226.41121100000001
 31
0.0
  0
LINE
  5
114
  8
0
 10
264.660551
 20
226.41121100000001
 30
0.0
 11
264.660551
 21
212.611211
 31
0.0
  0
LINE
  5
115
  8
0
 10
252.56358599999999
 20
228.011211
 30
0.0
 11
245.160551
 21
228.011211
 31
0.0
  0
LINE
  5
116
  8
0
 10
245.160551
 20
228.011211
 30
0.0
 11
245.160551
 21
211.011211
 31
0.0
  0
LINE
  5
117
  8
0
 10
270.160551
 20
224.83578499999999
 30
0.0
 11
270.160551
 21
214.18663799999999
 31
0.0
  0
LINE
  5
118
  8
0
 10
252.56358599999999
 20
228.011211
 30
0.0
 11
253.487346
 21
226.41121100000001
 31
0.0
  0
LINE
  5
119
  8
0
 10
252.56358599999999
 20
211.011211
 30
0.0
 11
253.487346
 21
212.611211
 31
0.0
  0
LINE
  5
11A
  8
0
 10
252.56358599999999
 20
211.011211
 30
0.0
 11
245.160551
 21
211.011211
 31
0.0
  0
LINE
  5
11B
  8
1
 10
111.160551
 20
144.51680300000001
 30
0.0
 11
275.160551
 21
144.51680300000001
 31
0.0
  0
LINE
  5
11C
  8
1
 10
111.160551
 20
219.511211
 30
0.0
 11
275.160551
 21
219.511211
 31
0.0
  0
LINE
  5
11D
  8
1
 10
111.160551
 20
69.522394999999989
 30
0.0
 11
275.160551
 21
69.522394999999989
 31
0.0
  0
LINE
  5
11E
  8
0
 10
252.56358599999999
 20
78.022394999999975
 30
0.0
 11
245.160551
 21
78.022394999999975
 31
0.0
  0
LINE
  5
11F
  8
0
 10
252.56358599999999
 20
78.022394999999975
 30
0.0
 11
253.487346
 21
76.422394999999995
 31
0.0
  0
LINE
  5
120
  8
0
 10
252.56358599999999
 20
61.022394999999989
 30
0.0
 11
253.487346
 21
62.62239499999999
 31
0.0
  0
LINE
  5
121
  8
0
 10
270.160551
 20
64.197822000000002
 30
0.0
 11
270.160551
 21
74.846969000000001
 31
0.0
  0
LINE
  5
122
  8
0
 10
245.160551
 20
61.022394999999989
 30
0.0
 11
245.160551
 21
78.022394999999975
 31
0.0
  0
LINE
  5
123
  8
0
 10
252.56358599999999
 20
61.022394999999989
 30
0.0
 11
245.160551
 21
61.022394999999989
 31
0.0
  0
LINE
  5
124
  8
0
 10
264.660551
 20
62.62239499999999
 30
0.0
 11
264.660551
 21
76.422394999999995
 31
0.0
  0
LINE
  5
125
  8
0
 10
267.95144800000003
 20
62.62239499999999
 30
0.0
 11
253.487346
 21
62.62239499999999
 31
0.0
  0
LINE
  5
126
  8
0
 10
267.95144800000003
 20
76.422394999999995
 30
0.0
 11
253.487346
 21
76.422394999999995
 31
0.0
  0
LINE
  5
127
  8
2
 10
265.26055100000002
 20
75.922394999999995
 30
0.0
 11
260.06055099999998
 21
75.922394999999995
 31
0.0
  0
LINE
  5
128
  8
2
 10
265.26055100000002
 20
63.122394999999997
 30
0.0
 11
260.06055099999998
 21
63.122394999999997
 31
0.0
  0
LINE
  5
129
  8
2
 10
260.06055099999998
 20
75.922394999999995
 30
0.0
 11
259.56055099999998
 21
76.422394999999995
 31
0.0
  0
LINE
  5
12A
  8
2
 10
265.76055100000002
 20
76.422394999999995
 30
0.0
 11
265.26055100000002
 21
75.922394999999995
 31
0.0
  0
LINE
  5
12B
  8
2
 10
260.06055099999998
 20
63.122394999999997
 30
0.0
 11
259.56055099999998
 21
62.62239499999999
 31
0.0
  0
LINE
  5
12C
  8
2
 10
265.76055100000002
 20
62.62239499999999
 30
0.0
 11
265.26055100000002
 21
63.122394999999997
 31
0.0
  0
LINE
  5
12D
  8
2
 10
260.06055099999998
 20
63.122394999999997
 30
0.0
 11
260.06055099999998
 21
75.922394999999995
 31
0.0
  0
LINE
  5
12E
  8
2
 10
265.26055100000002
 20
63.122394999999997
 30
0.0
 11
265.26055100000002
 21
75.922394999999995
 31
0.0
  0
LINE
  5
12F
  8
0
 10
267.95144800000003
 20
76.422394999999995
 30
0.0
 11
270.160551
 21
74.846969000000001
 31
0.0
  0
LINE
  5
130
  8
0
 10
267.95144800000003
 20
62.62239499999999
 30
0.0
 11
270.160551
 21
64.197822000000002
 31
0.0
  0
LINE
  5
131
  8
0
 10
118.36965499999999
 20
62.62239499999999
 30
0.0
 11
116.160551
 21
64.197822000000002
 31
0.0
  0
LINE
  5
132
  8
0
 10
118.36965499999999
 20
76.422394999999995
 30
0.0
 11
116.160551
 21
74.846969000000001
 31
0.0
  0
LINE
  5
133
  8
2
 10
121.060551
 20
63.122394999999997
 30
0.0
 11
121.060551
 21
75.922394999999995
 31
0.0
  0
LINE
  5
134
  8
2
 10
126.26055100000001
 20
63.122394999999997
 30
0.0
 11
126.26055100000001
 21
75.922394999999995
 31
0.0
  0
LINE
  5
135
  8
2
 10
120.560551
 20
62.62239499999999
 30
0.0
 11
121.060551
 21
63.122394999999997
 31
0.0
  0
LINE
  5
136
  8
2
 10
126.26055100000001
 20
63.122394999999997
 30
0.0
 11
126.76055100000001
 21
62.62239499999999
 31
0.0
  0
LINE
  5
137
  8
2
 10
120.560551
 20
76.422394999999995
 30
0.0
 11
121.060551
 21
75.922394999999995
 31
0.0
  0
LINE
  5
138
  8
2
 10
126.26055100000001
 20
75.922394999999995
 30
0.0
 11
126.76055100000001
 21
76.422394999999995
 31
0.0
  0
LINE
  5
139
  8
2
 10
121.060551
 20
63.122394999999997
 30
0.0
 11
126.26055100000001
 21
63.122394999999997
 31
0.0
  0
LINE
  5
13A
  8
2
 10
121.060551
 20
75.922394999999995
 30
0.0
 11
126.26055100000001
 21
75.922394999999995
 31
0.0
  0
LINE
  5
13B
  8
0
 10
118.36965499999999
 20
76.422394999999995
 30
0.0
 11
132.83375599999999
 21
76.422394999999995
 31
0.0
  0
LINE
  5
13C
  8
0
 10
118.36965499999999
 20
62.62239499999999
 30
0.0
 11
132.83375599999999
 21
62.62239499999999
 31
0.0
  0
LINE
  5
13D
  8
3
 10
240.16055099999991
 20
73.710394999999991
 30
0.0
 11
241.56697700000001
 21
74.522394999999989
 31
0.0
  0
LINE
  5
13E
  8
3
 10
240.16055099999991
 20
65.334395000000001
 30
0.0
 11
241.56697700000001
 21
64.522394999999989
 31
0.0
  0
LINE
  5
13F
  8
0
 10
240.16055099999991
 20
64.522394999999989
 30
0.0
 11
240.16055099999991
 21
74.522394999999989
 31
0.0
  0
LINE
  5
140
  8
0
 10
244.160551
 20
64.522394999999989
 30
0.0
 11
238.660551
 21
64.522394999999989
 31
0.0
  0
LINE
  5
141
  8
3
 10
240.16055099999991
 20
65.334395000000001
 30
0.0
 11
238.660551
 21
65.334395000000001
 31
0.0
  0
LINE
  5
142
  8
3
 10
240.16055099999991
 20
73.710394999999991
 30
0.0
 11
238.660551
 21
73.710394999999991
 31
0.0
  0
ARC
  5
143
  8
0
 10
244.160551
 20
63.522394999999989
 30
0.0
 40
1.0
 50
0.0
 51
90.0
  0
LINE
  5
144
  8
1
 10
262.660551
 20
57.922394999999987
 30
0.0
 11
262.660551
 21
81.122394999999983
 31
0.0
  0
ARC
  5
145
  8
0
 10
244.160551
 20
75.522394999999975
 30
0.0
 40
1.0
 50
270.0
 51
0.0
  0
LINE
  5
146
  8
0
 10
244.160551
 20
74.522394999999989
 30
0.0
 11
238.660551
 21
74.522394999999989
 31
0.0
  0
LINE
  5
147
  8
0
 10
238.51621399999999
 20
78.022394999999975
 30
0.0
 11
238.660551
 21
77.772394999999989
 31
0.0
  0
ARC
  5
148
  8
0
 10
226.24070699999999
 20
73.772394999999989
 30
0.0
 40
12.275506999999999
 50
339.74384199999997
 51
20.256157999999999
  0
LINE
  5
149
  8
0
 10
230.660551
 20
78.022394999999975
 30
0.0
 11
238.51621399999999
 21
78.022394999999975
 31
0.0
  0
LINE
  5
14A
  8
0
 10
230.660551
 20
69.522394999999989
 30
0.0
 11
237.757024
 21
69.522394999999989
 31
0.0
  0
LINE
  5
14B
  8
0
 10
230.660551
 20
61.022394999999989
 30
0.0
 11
238.51621399999999
 21
61.022394999999989
 31
0.0
  0
LINE
  5
14C
  8
0
 10
238.51621399999999
 20
61.022394999999989
 30
0.0
 11
238.660551
 21
61.272394999999989
 31
0.0
  0
ARC
  5
14D
  8
0
 10
226.24070699999999
 20
65.272394999999989
 30
0.0
 40
12.275506999999999
 50
339.74384199999997
 51
20.256157999999999
  0
LINE
  5
14E
  8
0
 10
238.660551
 20
61.272394999999989
 30
0.0
 11
238.660551
 21
77.772394999999989
 31
0.0
  0
LINE
  5
14F
  8
0
 10
230.660551
 20
61.022394999999989
 30
0.0
 11
230.660551
 21
78.022394999999975
 31
0.0
  0
ARC
  5
150
  8
0
 10
218.24070699999999
 20
65.272394999999989
 30
0.0
 40
12.275506999999999
 50
339.74384199999997
 51
20.256157999999999
  0
LINE
  5
151
  8
0
 10
230.51621399999999
 20
61.022394999999989
 30
0.0
 11
230.660551
 21
61.272394999999989
 31
0.0
  0
ARC
  5
152
  8
0
 10
218.24070699999999
 20
73.772394999999989
 30
0.0
 40
12.275506999999999
 50
339.74384199999997
 51
20.256157999999999
  0
LINE
  5
153
  8
0
 10
230.51621399999999
 20
78.022394999999975
 30
0.0
 11
230.660551
 21
77.772394999999989
 31
0.0
  0
LINE
  5
154
  8
0
 10
155.804889
 20
78.022394999999975
 30
0.0
 11
155.660551
 21
77.772394999999989
 31
0.0
  0
ARC
  5
155
  8
0
 10
168.08039500000001
 20
73.772394999999989
 30
0.0
 40
12.275506999999999
 50
159.743842
 51
200.256158
  0
LINE
  5
156
  8
0
 10
230.51621399999999
 20
78.022394999999975
 30
0.0
 11
155.804889
 21
78.022394999999975
 31
0.0
  0
LINE
  5
157
  8
0
 10
229.757024
 20
69.522394999999989
 30
0.0
 11
156.56407799999999
 21
69.522394999999989
 31
0.0
  0
LINE
  5
158
  8
0
 10
230.51621399999999
 20
61.022394999999989
 30
0.0
 11
155.804889
 21
61.022394999999989
 31
0.0
  0
LINE
  5
159
  8
0
 10
155.804889
 20
61.022394999999989
 30
0.0
 11
155.660551
 21
61.272394999999989
 31
0.0
  0
ARC
  5
15A
  8
0
 10
168.08039500000001
 20
65.272394999999989
 30
0.0
 40
12.275506999999999
 50
159.743842
 51
200.256158
  0
LINE
  5
15B
  8
0
 10
155.660551
 20
61.022394999999989
 30
0.0
 11
155.660551
 21
78.022394999999975
 31
0.0
  0
LINE
  5
15C
  8
0
 10
147.660551
 20
61.272394999999989
 30
0.0
 11
147.660551
 21
77.772394999999989
 31
0.0
  0
ARC
  5
15D
  8
0
 10
160.0803949999999
 20
65.272394999999989
 30
0.0
 40
12.275506999999999
 50
159.743842
 51
200.256158
  0
LINE
  5
15E
  8
0
 10
147.804889
 20
61.022394999999989
 30
0.0
 11
147.660551
 21
61.272394999999989
 31
0.0
  0
LINE
  5
15F
  8
0
 10
155.660551
 20
61.022394999999989
 30
0.0
 11
147.804889
 21
61.022394999999989
 31
0.0
  0
LINE
  5
160
  8
0
 10
155.660551
 20
69.522394999999989
 30
0.0
 11
148.56407799999999
 21
69.522394999999989
 31
0.0
  0
LINE
  5
161
  8
0
 10
155.660551
 20
78.022394999999975
 30
0.0
 11
147.804889
 21
78.022394999999975
 31
0.0
  0
ARC
  5
162
  8
0
 10
160.0803949999999
 20
73.772394999999989
 30
0.0
 40
12.275506999999999
 50
159.743842
 51
200.256158
  0
LINE
  5
163
  8
0
 10
147.804889
 20
78.022394999999975
 30
0.0
 11
147.660551
 21
77.772394999999989
 31
0.0
  0
LINE
  5
164
  8
0
 10
142.160551
 20
74.522394999999989
 30
0.0
 11
147.660551
 21
74.522394999999989
 31
0.0
  0
ARC
  5
165
  8
0
 10
142.160551
 20
75.522394999999975
 30
0.0
 40
1.0
 50
180.0
 51
270.0
  0
LINE
  5
166
  8
1
 10
123.660551
 20
57.922394999999987
 30
0.0
 11
123.660551
 21
81.122394999999983
 31
0.0
  0
LINE
  5
167
  8
0
 10
121.660551
 20
62.62239499999999
 30
0.0
 11
121.660551
 21
76.422394999999995
 31
0.0
  0
ARC
  5
168
  8
0
 10
142.160551
 20
63.522394999999989
 30
0.0
 40
1.0
 50
90.0
 51
180.0
  0
LINE
  5
169
  8
3
 10
146.160551
 20
73.710394999999991
 30
0.0
 11
147.660551
 21
73.710394999999991
 31
0.0
  0
LINE
  5
16A
  8
3
 10
146.160551
 20
65.334395000000001
 30
0.0
 11
147.660551
 21
65.334395000000001
 31
0.0
  0
LINE
  5
16B
  8
0
 10
142.160551
 20
64.522394999999989
 30
0.0
 11
147.660551
 21
64.522394999999989
 31
0.0
  0
LINE
  5
16C
  8
0
 10
146.160551
 20
64.522394999999989
 30
0.0
 11
146.160551
 21
74.522394999999989
 31
0.0
  0
LINE
  5
16D
  8
3
 10
146.160551
 20
65.334395000000001
 30
0.0
 11
144.75412600000001
 21
64.522394999999989
 31
0.0
  0
LINE
  5
16E
  8
3
 10
146.160551
 20
73.710394999999991
 30
0.0
 11
144.75412600000001
 21
74.522394999999989
 31
0.0
  0
LINE
  5
16F
  8
0
 10
133.75751700000001
 20
61.022394999999989
 30
0.0
 11
141.160551
 21
61.022394999999989
 31
0.0
  0
LINE
  5
170
  8
0
 10
141.160551
 20
61.022394999999989
 30
0.0
 11
141.160551
 21
78.022394999999975
 31
0.0
  0
LINE
  5
171
  8
0
 10
116.160551
 20
64.197822000000002
 30
0.0
 11
116.160551
 21
74.846969000000001
 31
0.0
  0
LINE
  5
172
  8
0
 10
133.75751700000001
 20
61.022394999999989
 30
0.0
 11
132.83375599999999
 21
62.62239499999999
 31
0.0
  0
LINE
  5
173
  8
0
 10
133.75751700000001
 20
78.022394999999975
 30
0.0
 11
132.83375599999999
 21
76.422394999999995
 31
0.0
  0
LINE
  5
174
  8
0
 10
133.75751700000001
 20
78.022394999999975
 30
0.0
 11
141.160551
 21
78.022394999999975
 31
0.0
  0
TEXT
  5
297
  8
0
 62
     3
 10
0.0
 20
0.0
 30
0.0
 40
10.0
  1
CBD1-50
  7
STANDARD1
  0
ENDSEC
  0
EOF
