  0
SECTION
  2
HEADER
  9
$ACADVER
  1
AC1009
  9
$INSBASE
 10
0.0
 20
0.0
 30
0.0
  9
$EXTMIN
 10
0.0
 20
-2.960436562073669
 30
0.0
  9
$EXTMAX
 10
366.08695399999999
 20
229.45569699999999
 30
0.0
  9
$LIMMIN
 10
0.0
 20
0.0
  9
$LIMMAX
 10
375.0
 20
270.0
  9
$ORTHOMODE
 70
     1
  9
$REGENMODE
 70
     1
  9
$FILLMODE
 70
     1
  9
$QTEXTMODE
 70
     0
  9
$MIRRTEXT
 70
     0
  9
$DRAGMODE
 70
     2
  9
$LTSCALE
 40
10.0
  9
$OSMODE
 70
  3071
  9
$ATTMODE
 70
     1
  9
$TEXTSIZE
 40
0.2
  9
$TRACEWID
 40
0.05
  9
$TEXTSTYLE
  7
K80
  9
$CLAYER
  8
0
  9
$CELTYPE
  6
BYLAYER
  9
$CECOLOR
 62
   256
  9
$DIMSCALE
 40
1.0
  9
$DIMASZ
 40
3.0
  9
$DIMEXO
 40
2.0
  9
$DIMDLI
 40
0.38
  9
$DIMRND
 40
0.0
  9
$DIMDLE
 40
0.0
  9
$DIMEXE
 40
2.0
  9
$DIMTP
 40
0.0
  9
$DIMTM
 40
0.0
  9
$DIMTXT
 40
3.2000000000000002
  9
$DIMCEN
 40
0.0
  9
$DIMTSZ
 40
0.0
  9
$DIMTOL
 70
     0
  9
$DIMLIM
 70
     0
  9
$DIMTIH
 70
     0
  9
$DIMTOH
 70
     0
  9
$DIMSE1
 70
     0
  9
$DIMSE2
 70
     0
  9
$DIMTAD
 70
     1
  9
$DIMZIN
 70
     0
  9
$DIMBLK
  1

  9
$DIMASO
 70
     0
  9
$DIMSHO
 70
     0
  9
$DIMPOST
  1

  9
$DIMAPOST
  1

  9
$DIMALT
 70
     0
  9
$DIMALTD
 70
     2
  9
$DIMALTF
 40
25.399999999999999
  9
$DIMLFAC
 40
1.0
  9
$DIMTOFL
 70
     1
  9
$DIMTVP
 40
1.6000000000000001
  9
$DIMTIX
 70
     1
  9
$DIMSOXD
 70
     0
  9
$DIMSAH
 70
     0
  9
$DIMBLK1
  1

  9
$DIMBLK2
  1

  9
$DIMSTYLE
  2
STANDARD
  9
$DIMCLRD
 70
     0
  9
$DIMCLRE
 70
     0
  9
$DIMCLRT
 70
     0
  9
$DIMTFAC
 40
1.0
  9
$DIMGAP
 40
0.09
  9
$LUNITS
 70
     2
  9
$LUPREC
 70
     4
  9
$SKETCHINC
 40
0.1
  9
$FILLETRAD
 40
0.0
  9
$AUNITS
 70
     0
  9
$AUPREC
 70
     4
  9
$MENU
  1
E:\r13\win\SUPPORT\ACAD
  9
$ELEVATION
 40
0.0
  9
$PELEVATION
 40
0.0
  9
$THICKNESS
 40
0.0
  9
$LIMCHECK
 70
     0
  9
$BLIPMODE
 70
     0
  9
$CHAMFERA
 40
0.0
  9
$CHAMFERB
 40
0.0
  9
$SKPOLY
 70
     0
  9
$TDCREATE
 40
2449839.7788194451
  9
$TDUPDATE
 40
2456598.5785210882
  9
$TDINDWG
 40
0.0001662153
  9
$TDUSRTIMER
 40
0.0001662153
  9
$USRTIMER
 70
     1
  9
$ANGBASE
 50
0.0
  9
$ANGDIR
 70
     0
  9
$PDMODE
 70
     0
  9
$PDSIZE
 40
0.0
  9
$PLINEWID
 40
0.0
  9
$COORDS
 70
     1
  9
$SPLFRAME
 70
     0
  9
$SPLINETYPE
 70
     6
  9
$SPLINESEGS
 70
     8
  9
$ATTDIA
 70
     0
  9
$ATTREQ
 70
     1
  9
$HANDLING
 70
     1
  9
$HANDSEED
  5
349
  9
$SURFTAB1
 70
     6
  9
$SURFTAB2
 70
     6
  9
$SURFTYPE
 70
     6
  9
$SURFU
 70
     6
  9
$SURFV
 70
     6
  9
$UCSNAME
  2

  9
$UCSORG
 10
0.0
 20
0.0
 30
0.0
  9
$UCSXDIR
 10
1.0
 20
0.0
 30
0.0
  9
$UCSYDIR
 10
0.0
 20
1.0
 30
0.0
  9
$PUCSNAME
  2

  9
$PUCSORG
 10
0.0
 20
0.0
 30
0.0
  9
$PUCSXDIR
 10
1.0
 20
0.0
 30
0.0
  9
$PUCSYDIR
 10
0.0
 20
1.0
 30
0.0
  9
$USERI1
 70
     0
  9
$USERI2
 70
     1
  9
$USERI3
 70
     0
  9
$USERI4
 70
     0
  9
$USERI5
 70
     0
  9
$USERR1
 40
0.0
  9
$USERR2
 40
0.0
  9
$USERR3
 40
0.0
  9
$USERR4
 40
0.0
  9
$USERR5
 40
0.0
  9
$WORLDVIEW
 70
     1
  9
$SHADEDGE
 70
     3
  9
$SHADEDIF
 70
    70
  9
$TILEMODE
 70
     1
  9
$MAXACTVP
 70
    16
  9
$PLIMCHECK
 70
     0
  9
$PEXTMIN
 10
1.0000000000000000E+020
 20
1.0000000000000000E+020
 30
1.0000000000000000E+020
  9
$PEXTMAX
 10
-1.0000000000000000E+020
 20
-1.0000000000000000E+020
 30
-1.0000000000000000E+020
  9
$PLIMMIN
 10
0.0
 20
0.0
  9
$PLIMMAX
 10
12.0
 20
9.0
  9
$UNITMODE
 70
     0
  9
$VISRETAIN
 70
     0
  9
$PLINEGEN
 70
     0
  9
$PSLTSCALE
 70
     0
  0
ENDSEC
  0
SECTION
  2
TABLES
  0
TABLE
  2
VPORT
 70
     1
  0
VPORT
  2
*ACTIVE
 70
     0
 10
0.0
 20
0.0
 11
1.0
 21
1.0
 12
195.0581083320873
 22
133.5127261426681
 13
0.0
 23
0.0
 14
10.0
 24
10.0
 15
10.0
 25
10.0
 16
0.0
 26
0.0
 36
1.0
 17
0.0
 27
0.0
 37
0.0
 40
275.42274993631997
 41
1.831871345029239
 42
50.0
 43
0.0
 44
0.0
 50
0.0
 51
0.0
 71
     0
 72
   100
 73
     1
 74
     0
 75
     0
 76
     0
 77
     0
 78
     2
  0
ENDTAB
  0
TABLE
  2
LTYPE
 70
     4
  0
LTYPE
  2
CONTINUOUS
 70
     0
  3
Solid Line
 72
    65
 73
     0
 40
0.0
  0
LTYPE
  2
CENTER
 70
     0
  3
____ _ ____ _ ____ _ ____ _ ____ _ ____ _ ____
 72
    65
 73
     4
 40
2.0
 49
1.25
 49
-0.25
 49
0.25
 49
-0.25
  0
LTYPE
  2
HIDDEN
 70
     0
  3
_ _ _ _ _ _ _ _ _ _ _ _ _ _ _ _ _ _ _ _ _ _ _
 72
    65
 73
     2
 40
0.375
 49
0.25
 49
-0.125
  0
LTYPE
  2
PHANTOM2
 70
     0
  3
___ _ _ ___ _ _ ___ _ _ ___ _ _
 72
    65
 73
     6
 40
1.25
 49
0.625
 49
-0.125
 49
0.125
 49
-0.125
 49
0.125
 49
-0.125
  0
ENDTAB
  0
TABLE
  2
LAYER
 70
     4
  0
LAYER
  2
0
 70
     0
 62
     7
  6
CONTINUOUS
  0
LAYER
  2
1
 70
     0
 62
     1
  6
CENTER
  0
LAYER
  2
2
 70
     0
 62
     2
  6
HIDDEN
  0
LAYER
  2
3
 70
     0
 62
     3
  6
CONTINUOUS
  0
ENDTAB
  0
TABLE
  2
STYLE
 70
     3
  0
STYLE
  2
STANDARD
 70
     0
 40
0.0
 41
1.0
 50
0.0
 71
     0
 42
0.2
  3
romans.shx
  4

  0
STYLE
  2
K80
 70
     0
 40
0.0
 41
1.0
 50
0.0
 71
     0
 42
0.2
  3
romans.shx
  4

  0
STYLE
  2
STANDARD1
 70
     0
 40
0.0
 41
1.0
 50
0.0
 71
     0
 42
3.0
  3
txt
  4

  0
ENDTAB
  0
TABLE
  2
VIEW
 70
     1
  0
VIEW
  2
ALL
 70
     0
 40
270.0
 10
220.99159700000001
 20
135.0
 41
0.0
 11
0.0
 21
0.0
 31
1.0
 12
0.0
 22
0.0
 32
0.0
 42
0.0
 43
0.0
 44
0.0
 50
0.0
 71
     0
  0
ENDTAB
  0
TABLE
  2
UCS
 70
     0
  0
ENDTAB
  0
TABLE
  2
APPID
 70
     3
  0
APPID
  2
ACAD
 70
     0
  0
APPID
  2
ACAD_MLEADERVER
 70
     0
  0
APPID
  2
ACAD_NAV_VCDISPLAY
 70
     0
  0
ENDTAB
  0
TABLE
  2
DIMSTYLE
 70
     1
  0
DIMSTYLE
  2
STANDARD
 70
     0
  3

  4

  5

  6

  7

 40
1.0
 41
0.18
 42
0.0625
 43
0.38
 44
0.18
 45
0.0
 46
0.0
 47
0.0
 48
0.0
140
0.18
141
0.09
142
0.0
143
25.399999999999999
144
1.0
145
0.0
146
1.0
147
0.09
 71
     0
 72
     0
 73
     1
 74
     1
 75
     0
 76
     0
 77
     0
 78
     0
170
     0
171
     2
172
     0
173
     0
174
     0
175
     0
176
     0
177
     0
178
     0
  0
ENDTAB
  0
ENDSEC
  0
SECTION
  2
BLOCKS
  0
BLOCK
  8
0
  2
$MODEL_SPACE
 70
     0
 10
0.0
 20
0.0
 30
0.0
  3
$MODEL_SPACE
  1

  0
ENDBLK
  5
1F3
  8
0
  0
BLOCK
 67
     1
  8
0
  2
$PAPER_SPACE
 70
     0
 10
0.0
 20
0.0
 30
0.0
  3
$PAPER_SPACE
  1

  0
ENDBLK
  5
1F1
 67
     1
  8
0
  0
ENDSEC
  0
SECTION
  2
ENTITIES
  0
ARC
  5
37
  8
0
 10
81.121347
 20
137.72292300000001
 30
0.0
 40
9.2376039999999993
 50
122.089951
 51
237.91004899999999
  0
ARC
  5
38
  8
0
 10
73.717934999999997
 20
137.72292300000001
 30
0.0
 40
21.939309999999999
 50
339.10097200000001
 51
20.899028000000001
  0
CIRCLE
  5
39
  8
0
 10
32.303533000000002
 20
137.72292300000001
 30
0.0
 40
8.8811979999999995
  0
LINE
  5
3A
  8
0
 10
95.657246000000015
 20
199.95569699999999
 30
0.0
 11
107.21387
 21
199.95569699999999
 31
0.0
  0
LINE
  5
3B
  8
0
 10
94.387074999999996
 20
202.155697
 30
0.0
 11
95.657246000000015
 21
199.95569699999999
 31
0.0
  0
LINE
  5
3C
  8
0
 10
94.387074999999996
 20
224.755697
 30
0.0
 11
95.657246000000015
 21
226.95569699999999
 31
0.0
  0
LINE
  5
3D
  8
0
 10
95.657246000000015
 20
226.95569699999999
 30
0.0
 11
107.21387
 21
226.95569699999999
 31
0.0
  0
LINE
  5
3E
  8
0
 10
108.21387
 20
200.95569699999999
 30
0.0
 11
108.21387
 21
225.95569699999999
 31
0.0
  0
LINE
  5
3F
  8
0
 10
68.21387
 20
204.574499
 30
0.0
 11
68.21387
 21
222.336895
 31
0.0
  0
LINE
  5
40
  8
1
 10
80.21387
 20
197.45569699999999
 30
0.0
 11
80.21387
 21
229.45569699999999
 31
0.0
  0
LINE
  5
41
  8
0
 10
76.21387
 20
202.155697
 30
0.0
 11
76.21387
 21
224.755697
 31
0.0
  0
LINE
  5
42
  8
3
 10
114.21387
 20
206.538197
 30
0.0
 11
112.338925
 21
205.45569699999999
 31
0.0
  0
LINE
  5
43
  8
3
 10
114.21387
 20
220.373197
 30
0.0
 11
112.338925
 21
221.45569699999999
 31
0.0
  0
LINE
  5
44
  8
0
 10
114.21387
 20
221.45569699999999
 30
0.0
 11
114.21387
 21
205.45569699999999
 31
0.0
  0
LINE
  5
45
  8
0
 10
109.21387
 20
221.45569699999999
 30
0.0
 11
117.21387
 21
221.45569699999999
 31
0.0
  0
LINE
  5
46
  8
3
 10
114.21387
 20
220.373197
 30
0.0
 11
117.21387
 21
220.373197
 31
0.0
  0
LINE
  5
47
  8
3
 10
114.21387
 20
206.538197
 30
0.0
 11
117.21387
 21
206.538197
 31
0.0
  0
LINE
  5
48
  8
0
 10
109.21387
 20
205.45569699999999
 30
0.0
 11
117.21387
 21
205.45569699999999
 31
0.0
  0
ARC
  5
49
  8
0
 10
109.21387
 20
222.45569699999999
 30
0.0
 40
1.0
 50
180.0
 51
270.0
  0
ARC
  5
4A
  8
0
 10
109.21387
 20
204.45569699999999
 30
0.0
 40
1.0
 50
90.0
 51
180.0
  0
LINE
  5
4B
  8
0
 10
107.21387
 20
199.95569699999999
 30
0.0
 11
107.21387
 21
226.95569699999999
 31
0.0
  0
LINE
  5
4C
  8
0
 10
108.21387
 20
225.95569699999999
 30
0.0
 11
107.21387
 21
226.95569699999999
 31
0.0
  0
LINE
  5
4D
  8
0
 10
108.21387
 20
200.95569699999999
 30
0.0
 11
107.21387
 21
199.95569699999999
 31
0.0
  0
LINE
  5
4E
  8
0
 10
108.21387
 20
125.22292299999999
 30
0.0
 11
107.21387
 21
124.22292299999999
 31
0.0
  0
LINE
  5
4F
  8
0
 10
108.21387
 20
150.22292300000001
 30
0.0
 11
107.21387
 21
151.22292300000001
 31
0.0
  0
LINE
  5
50
  8
0
 10
107.21387
 20
124.22292299999999
 30
0.0
 11
107.21387
 21
151.22292300000001
 31
0.0
  0
ARC
  5
51
  8
0
 10
109.21387
 20
128.72292300000001
 30
0.0
 40
1.0
 50
90.0
 51
180.0
  0
ARC
  5
52
  8
0
 10
109.21387
 20
146.72292300000001
 30
0.0
 40
1.0
 50
180.0
 51
270.0
  0
LINE
  5
53
  8
2
 10
188.21386999999999
 20
143.72292300000001
 30
0.0
 11
188.21386999999999
 21
131.72292300000001
 31
0.0
  0
LINE
  5
54
  8
0
 10
109.21387
 20
129.72292300000001
 30
0.0
 11
117.21387
 21
129.72292300000001
 31
0.0
  0
LINE
  5
55
  8
3
 10
114.21387
 20
130.80542299999999
 30
0.0
 11
117.21387
 21
130.80542299999999
 31
0.0
  0
LINE
  5
56
  8
3
 10
114.21387
 20
144.640423
 30
0.0
 11
117.21387
 21
144.640423
 31
0.0
  0
LINE
  5
57
  8
0
 10
109.21387
 20
145.72292300000001
 30
0.0
 11
117.21387
 21
145.72292300000001
 31
0.0
  0
LINE
  5
58
  8
2
 10
186.21386999999999
 20
145.72292300000001
 30
0.0
 11
188.21386999999999
 21
143.72292300000001
 31
0.0
  0
LINE
  5
59
  8
2
 10
188.21386999999999
 20
131.72292300000001
 30
0.0
 11
186.21386999999999
 21
129.72292300000001
 31
0.0
  0
LINE
  5
5A
  8
2
 10
186.21386999999999
 20
129.72292300000001
 30
0.0
 11
186.21386999999999
 21
145.72292300000001
 31
0.0
  0
LINE
  5
5B
  8
0
 10
114.21387
 20
145.72292300000001
 30
0.0
 11
114.21387
 21
129.72292300000001
 31
0.0
  0
LINE
  5
5C
  8
3
 10
114.21387
 20
144.640423
 30
0.0
 11
112.338925
 21
145.72292300000001
 31
0.0
  0
LINE
  5
5D
  8
3
 10
114.21387
 20
130.80542299999999
 30
0.0
 11
112.338925
 21
129.72292300000001
 31
0.0
  0
LINE
  5
5E
  8
0
 10
76.21387
 20
124.22292299999999
 30
0.0
 11
68.21387
 21
128.84172599999999
 31
0.0
  0
LINE
  5
5F
  8
0
 10
76.21387
 20
145.549161
 30
0.0
 11
76.21387
 21
151.22292300000001
 31
0.0
  0
LINE
  5
60
  8
0
 10
76.21387
 20
151.22292300000001
 30
0.0
 11
68.21387
 21
146.60412099999999
 31
0.0
  0
LINE
  5
61
  8
0
 10
94.213870000000014
 20
129.89668499999999
 30
0.0
 11
94.213870000000014
 21
145.549161
 31
0.0
  0
LINE
  5
62
  8
1
 10
80.21387
 20
128.62292299999999
 30
0.0
 11
80.21387
 21
146.822923
 31
0.0
  0
LINE
  5
63
  8
0
 10
76.21387
 20
124.22292299999999
 30
0.0
 11
76.21387
 21
129.89668499999999
 31
0.0
  0
LINE
  5
64
  8
0
 10
68.21387
 20
128.84172599999999
 30
0.0
 11
68.21387
 21
146.60412099999999
 31
0.0
  0
LINE
  5
65
  8
0
 10
108.21387
 20
125.22292299999999
 30
0.0
 11
108.21387
 21
150.22292300000001
 31
0.0
  0
LINE
  5
66
  8
0
 10
76.21387
 20
124.22292299999999
 30
0.0
 11
107.21387
 21
124.22292299999999
 31
0.0
  0
LINE
  5
67
  8
0
 10
76.21387
 20
129.89668499999999
 30
0.0
 11
94.213870000000014
 21
129.89668499999999
 31
0.0
  0
LINE
  5
68
  8
0
 10
76.21387
 20
151.22292300000001
 30
0.0
 11
107.21387
 21
151.22292300000001
 31
0.0
  0
LINE
  5
69
  8
0
 10
76.21387
 20
145.549161
 30
0.0
 11
94.213870000000014
 21
145.549161
 31
0.0
  0
CIRCLE
  5
6A
  8
0
 10
32.303533000000002
 20
137.72292300000001
 30
0.0
 40
13.5
  0
TEXT
  5
6B
  8
0
 10
238.0710128571429
 20
135.47292300000001
 30
0.0
 40
4.5
  1
L
 72
     4
 11
240.21386999999999
 21
137.72292300000001
 31
0.0
  0
LINE
  5
6C
  8
0
 10
44.303533000000002
 20
143.90758199999999
 30
0.0
 11
44.303533000000002
 21
144.651127
 31
0.0
  0
LINE
  5
6D
  8
0
 10
44.303533000000002
 20
144.651127
 30
0.0
 11
43.659603999999987
 21
145.022899
 31
0.0
  0
LINE
  5
6E
  8
0
 10
32.303533000000002
 20
151.57933
 30
0.0
 11
31.659604000000002
 21
151.20755700000001
 31
0.0
  0
LINE
  5
6F
  8
0
 10
32.947462000000002
 20
151.20755700000001
 30
0.0
 11
32.303533000000002
 21
151.57933
 31
0.0
  0
LINE
  5
70
  8
0
 10
20.303533000000002
 20
144.651127
 30
0.0
 11
20.303533000000002
 21
143.90758199999999
 31
0.0
  0
LINE
  5
71
  8
0
 10
20.947462000000002
 20
145.022899
 30
0.0
 11
20.303533000000002
 21
144.651127
 31
0.0
  0
LINE
  5
72
  8
0
 10
20.303533000000002
 20
130.79472000000001
 30
0.0
 11
20.947462000000002
 21
130.42294799999999
 31
0.0
  0
LINE
  5
73
  8
0
 10
20.303533000000002
 20
131.538265
 30
0.0
 11
20.303533000000002
 21
130.79472000000001
 31
0.0
  0
LINE
  5
74
  8
0
 10
32.303533000000002
 20
123.866517
 30
0.0
 11
32.947462000000002
 21
124.23828899999999
 31
0.0
  0
LINE
  5
75
  8
0
 10
31.659604000000002
 20
124.23828899999999
 30
0.0
 11
32.303533000000002
 21
123.866517
 31
0.0
  0
LINE
  5
76
  8
0
 10
44.303533000000002
 20
130.79472000000001
 30
0.0
 11
44.303533000000002
 21
131.538265
 31
0.0
  0
LINE
  5
77
  8
0
 10
43.659603999999987
 20
130.42294799999999
 30
0.0
 11
44.303533000000002
 21
130.79472000000001
 31
0.0
  0
LINE
  5
78
  8
0
 10
117.21387
 20
126.22292299999999
 30
0.0
 11
117.21387
 21
149.22292300000001
 31
0.0
  0
LINE
  5
79
  8
0
 10
118.574342
 20
123.866517
 30
0.0
 11
117.21387
 21
126.22292299999999
 31
0.0
  0
ARC
  5
7A
  8
0
 10
123.63652
 20
127.330619
 30
0.0
 40
6.1339750000000004
 50
145.61575300000001
 51
205.61575300000001
  0
LINE
  5
7B
  8
0
 10
130.21386999999999
 20
123.866517
 30
0.0
 11
118.574342
 21
123.866517
 31
0.0
  0
LINE
  5
7C
  8
0
 10
130.21386999999999
 20
130.79472000000001
 30
0.0
 11
118.574342
 21
130.79472000000001
 31
0.0
  0
LINE
  5
7D
  8
0
 10
130.21386999999999
 20
144.651127
 30
0.0
 11
118.574342
 21
144.651127
 31
0.0
  0
LINE
  5
7E
  8
0
 10
130.21386999999999
 20
151.57933
 30
0.0
 11
118.574342
 21
151.57933
 31
0.0
  0
ARC
  5
7F
  8
0
 10
140.43074799999999
 20
137.72292300000001
 30
0.0
 40
22.928203
 50
162.412046
 51
197.587954
  0
ARC
  5
80
  8
0
 10
123.63652
 20
148.115228
 30
0.0
 40
6.1339750000000004
 50
154.38424699999999
 51
214.38424699999999
  0
LINE
  5
81
  8
0
 10
118.574342
 20
151.57933
 30
0.0
 11
117.21387
 21
149.22292300000001
 31
0.0
  0
LINE
  5
82
  8
0
 10
131.574342
 20
151.57933
 30
0.0
 11
130.21386999999999
 21
149.22292300000001
 31
0.0
  0
ARC
  5
83
  8
0
 10
136.63651999999999
 20
148.115228
 30
0.0
 40
6.1339750000000004
 50
154.38424699999999
 51
214.38424699999999
  0
ARC
  5
84
  8
0
 10
153.43074799999999
 20
137.72292300000001
 30
0.0
 40
22.928203
 50
162.412046
 51
197.587954
  0
ARC
  5
85
  8
0
 10
136.63651999999999
 20
127.330619
 30
0.0
 40
6.1339750000000004
 50
145.61575300000001
 51
205.61575300000001
  0
LINE
  5
86
  8
0
 10
131.574342
 20
123.866517
 30
0.0
 11
130.21386999999999
 21
126.22292299999999
 31
0.0
  0
LINE
  5
87
  8
0
 10
130.21386999999999
 20
123.866517
 30
0.0
 11
130.21386999999999
 21
151.57933
 31
0.0
  0
LINE
  5
88
  8
0
 10
248.853398
 20
151.57933
 30
0.0
 11
131.574342
 21
151.57933
 31
0.0
  0
LINE
  5
89
  8
0
 10
248.853398
 20
144.651127
 30
0.0
 11
131.574342
 21
144.651127
 31
0.0
  0
LINE
  5
8A
  8
0
 10
248.853398
 20
130.79472000000001
 30
0.0
 11
131.574342
 21
130.79472000000001
 31
0.0
  0
LINE
  5
8B
  8
0
 10
248.853398
 20
123.866517
 30
0.0
 11
131.574342
 21
123.866517
 31
0.0
  0
LINE
  5
8C
  8
2
 10
130.21386999999999
 20
145.72292300000001
 30
0.0
 11
186.21386999999999
 21
145.72292300000001
 31
0.0
  0
LINE
  5
8D
  8
2
 10
130.21386999999999
 20
144.640423
 30
0.0
 11
187.29637
 21
144.640423
 31
0.0
  0
LINE
  5
8E
  8
2
 10
130.21386999999999
 20
130.80542299999999
 30
0.0
 11
187.29637
 21
130.80542299999999
 31
0.0
  0
LINE
  5
8F
  8
2
 10
130.21386999999999
 20
129.72292300000001
 30
0.0
 11
186.21386999999999
 21
129.72292300000001
 31
0.0
  0
LINE
  5
90
  8
0
 10
117.502545
 20
201.45569699999999
 30
0.0
 11
117.21387
 21
201.95569699999999
 31
0.0
  0
ARC
  5
91
  8
0
 10
134.832672
 20
207.45569699999999
 30
0.0
 40
17.33012699999999
 50
159.743842
 51
200.256158
  0
LINE
  5
92
  8
0
 10
130.21386999999999
 20
201.45569699999999
 30
0.0
 11
117.502545
 21
201.45569699999999
 31
0.0
  0
LINE
  5
93
  8
0
 10
118.574342
 20
213.45569699999999
 30
0.0
 11
130.21386999999999
 21
213.45569699999999
 31
0.0
  0
LINE
  5
94
  8
0
 10
130.21386999999999
 20
225.45569699999999
 30
0.0
 11
117.502545
 21
225.45569699999999
 31
0.0
  0
ARC
  5
95
  8
0
 10
134.832672
 20
219.45569699999999
 30
0.0
 40
17.33012699999999
 50
159.743842
 51
200.256158
  0
LINE
  5
96
  8
0
 10
117.502545
 20
225.45569699999999
 30
0.0
 11
117.21387
 21
224.95569699999999
 31
0.0
  0
LINE
  5
97
  8
0
 10
130.21386999999999
 20
225.45569699999999
 30
0.0
 11
130.21386999999999
 21
201.45569699999999
 31
0.0
  0
LINE
  5
98
  8
0
 10
117.21387
 20
201.95569699999999
 30
0.0
 11
117.21387
 21
224.95569699999999
 31
0.0
  0
LINE
  5
99
  8
0
 10
130.502545
 20
225.45569699999999
 30
0.0
 11
130.21386999999999
 21
224.95569699999999
 31
0.0
  0
ARC
  5
9A
  8
0
 10
147.832672
 20
219.45569699999999
 30
0.0
 40
17.33012699999999
 50
159.743842
 51
200.256158
  0
LINE
  5
9B
  8
0
 10
249.925195
 20
225.45569699999999
 30
0.0
 11
130.502545
 21
225.45569699999999
 31
0.0
  0
LINE
  5
9C
  8
0
 10
131.574342
 20
213.45569699999999
 30
0.0
 11
248.853398
 21
213.45569699999999
 31
0.0
  0
LINE
  5
9D
  8
0
 10
249.925195
 20
201.45569699999999
 30
0.0
 11
130.502545
 21
201.45569699999999
 31
0.0
  0
ARC
  5
9E
  8
0
 10
147.832672
 20
207.45569699999999
 30
0.0
 40
17.33012699999999
 50
159.743842
 51
200.256158
  0
LINE
  5
9F
  8
0
 10
130.502545
 20
201.45569699999999
 30
0.0
 11
130.21386999999999
 21
201.95569699999999
 31
0.0
  0
LINE
  5
A0
  8
0
 10
249.925195
 20
201.45569699999999
 30
0.0
 11
250.21386999999999
 21
201.95569699999999
 31
0.0
  0
ARC
  5
A1
  8
0
 10
232.595068
 20
207.45569699999999
 30
0.0
 40
17.33012699999999
 50
339.74384199999997
 51
20.256157999999999
  0
ARC
  5
A2
  8
0
 10
232.595068
 20
219.45569699999999
 30
0.0
 40
17.33012699999999
 50
339.74384199999997
 51
20.256157999999999
  0
LINE
  5
A3
  8
0
 10
249.925195
 20
225.45569699999999
 30
0.0
 11
250.21386999999999
 21
224.95569699999999
 31
0.0
  0
LINE
  5
A4
  8
0
 10
263.21386999999999
 20
201.95569699999999
 30
0.0
 11
263.21386999999999
 21
224.95569699999999
 31
0.0
  0
LINE
  5
A5
  8
0
 10
250.21386999999999
 20
225.45569699999999
 30
0.0
 11
250.21386999999999
 21
201.45569699999999
 31
0.0
  0
LINE
  5
A6
  8
0
 10
262.92519499999997
 20
225.45569699999999
 30
0.0
 11
263.21386999999999
 21
224.95569699999999
 31
0.0
  0
ARC
  5
A7
  8
0
 10
245.595068
 20
219.45569699999999
 30
0.0
 40
17.33012699999999
 50
339.74384199999997
 51
20.256157999999999
  0
LINE
  5
A8
  8
0
 10
250.21386999999999
 20
225.45569699999999
 30
0.0
 11
262.92519499999997
 21
225.45569699999999
 31
0.0
  0
LINE
  5
A9
  8
0
 10
261.85339800000003
 20
213.45569699999999
 30
0.0
 11
250.21386999999999
 21
213.45569699999999
 31
0.0
  0
LINE
  5
AA
  8
0
 10
250.21386999999999
 20
201.45569699999999
 30
0.0
 11
262.92519499999997
 21
201.45569699999999
 31
0.0
  0
ARC
  5
AB
  8
0
 10
245.595068
 20
207.45569699999999
 30
0.0
 40
17.33012699999999
 50
339.74384199999997
 51
20.256157999999999
  0
LINE
  5
AC
  8
0
 10
262.92519499999997
 20
201.45569699999999
 30
0.0
 11
263.21386999999999
 21
201.95569699999999
 31
0.0
  0
LINE
  5
AD
  8
2
 10
250.21386999999999
 20
129.72292300000001
 30
0.0
 11
194.21386999999999
 21
129.72292300000001
 31
0.0
  0
LINE
  5
AE
  8
2
 10
250.21386999999999
 20
130.80542299999999
 30
0.0
 11
193.13137
 21
130.80542299999999
 31
0.0
  0
LINE
  5
AF
  8
2
 10
250.21386999999999
 20
144.640423
 30
0.0
 11
193.13137
 21
144.640423
 31
0.0
  0
LINE
  5
B0
  8
2
 10
250.21386999999999
 20
145.72292300000001
 30
0.0
 11
194.21386999999999
 21
145.72292300000001
 31
0.0
  0
LINE
  5
B1
  8
0
 10
250.21386999999999
 20
123.866517
 30
0.0
 11
250.21386999999999
 21
151.57933
 31
0.0
  0
LINE
  5
B2
  8
0
 10
248.853398
 20
123.866517
 30
0.0
 11
250.21386999999999
 21
126.22292299999999
 31
0.0
  0
ARC
  5
B3
  8
0
 10
243.79122000000001
 20
127.330619
 30
0.0
 40
6.1339750000000004
 50
334.38424700000002
 51
34.384247000000002
  0
ARC
  5
B4
  8
0
 10
226.99699100000001
 20
137.72292300000001
 30
0.0
 40
22.928203
 50
342.41204599999998
 51
17.587954
  0
ARC
  5
B5
  8
0
 10
243.79122000000001
 20
148.115228
 30
0.0
 40
6.1339750000000004
 50
325.61575299999998
 51
25.615753000000002
  0
LINE
  5
B6
  8
0
 10
248.853398
 20
151.57933
 30
0.0
 11
250.21386999999999
 21
149.22292300000001
 31
0.0
  0
LINE
  5
B7
  8
0
 10
261.85339800000003
 20
151.57933
 30
0.0
 11
263.21386999999999
 21
149.22292300000001
 31
0.0
  0
ARC
  5
B8
  8
0
 10
256.79122000000001
 20
148.115228
 30
0.0
 40
6.1339750000000004
 50
325.61575299999998
 51
25.615753000000002
  0
ARC
  5
B9
  8
0
 10
239.99699100000001
 20
137.72292300000001
 30
0.0
 40
22.928203
 50
342.41204599999998
 51
17.587954
  0
LINE
  5
BA
  8
0
 10
250.21386999999999
 20
151.57933
 30
0.0
 11
261.85339800000003
 21
151.57933
 31
0.0
  0
LINE
  5
BB
  8
0
 10
250.21386999999999
 20
144.651127
 30
0.0
 11
261.85339800000003
 21
144.651127
 31
0.0
  0
LINE
  5
BC
  8
0
 10
250.21386999999999
 20
130.79472000000001
 30
0.0
 11
261.85339800000003
 21
130.79472000000001
 31
0.0
  0
LINE
  5
BD
  8
0
 10
250.21386999999999
 20
123.866517
 30
0.0
 11
261.85339800000003
 21
123.866517
 31
0.0
  0
ARC
  5
BE
  8
0
 10
256.79122000000001
 20
127.330619
 30
0.0
 40
6.1339750000000004
 50
334.38424700000002
 51
34.384247000000002
  0
LINE
  5
BF
  8
0
 10
261.85339800000003
 20
123.866517
 30
0.0
 11
263.21386999999999
 21
126.22292299999999
 31
0.0
  0
LINE
  5
C0
  8
0
 10
263.21386999999999
 20
126.22292299999999
 30
0.0
 11
263.21386999999999
 21
149.22292300000001
 31
0.0
  0
LINE
  5
C1
  8
0
 10
304.2138700000001
 20
145.549161
 30
0.0
 11
286.21386999999999
 21
145.549161
 31
0.0
  0
LINE
  5
C2
  8
0
 10
304.2138700000001
 20
151.22292300000001
 30
0.0
 11
273.2138700000001
 21
151.22292300000001
 31
0.0
  0
LINE
  5
C3
  8
0
 10
304.2138700000001
 20
129.89668499999999
 30
0.0
 11
286.21386999999999
 21
129.89668499999999
 31
0.0
  0
LINE
  5
C4
  8
0
 10
304.2138700000001
 20
124.22292299999999
 30
0.0
 11
273.2138700000001
 21
124.22292299999999
 31
0.0
  0
LINE
  5
C5
  8
0
 10
272.21386999999999
 20
125.22292299999999
 30
0.0
 11
272.21386999999999
 21
150.22292300000001
 31
0.0
  0
LINE
  5
C6
  8
0
 10
312.2138700000001
 20
128.84172599999999
 30
0.0
 11
312.2138700000001
 21
146.60412099999999
 31
0.0
  0
LINE
  5
C7
  8
0
 10
304.2138700000001
 20
124.22292299999999
 30
0.0
 11
304.2138700000001
 21
129.89668499999999
 31
0.0
  0
LINE
  5
C8
  8
1
 10
300.2138700000001
 20
128.62292299999999
 30
0.0
 11
300.2138700000001
 21
146.822923
 31
0.0
  0
LINE
  5
C9
  8
0
 10
286.21386999999999
 20
129.89668499999999
 30
0.0
 11
286.21386999999999
 21
145.549161
 31
0.0
  0
LINE
  5
CA
  8
0
 10
304.2138700000001
 20
151.22292300000001
 30
0.0
 11
312.2138700000001
 21
146.60412099999999
 31
0.0
  0
LINE
  5
CB
  8
0
 10
304.2138700000001
 20
145.549161
 30
0.0
 11
304.2138700000001
 21
151.22292300000001
 31
0.0
  0
LINE
  5
CC
  8
0
 10
304.2138700000001
 20
124.22292299999999
 30
0.0
 11
312.2138700000001
 21
128.84172599999999
 31
0.0
  0
LINE
  5
CD
  8
3
 10
266.21386999999999
 20
130.80542299999999
 30
0.0
 11
268.08881500000001
 21
129.72292300000001
 31
0.0
  0
LINE
  5
CE
  8
3
 10
266.21386999999999
 20
144.640423
 30
0.0
 11
268.08881500000001
 21
145.72292300000001
 31
0.0
  0
LINE
  5
CF
  8
0
 10
266.21386999999999
 20
145.72292300000001
 30
0.0
 11
266.21386999999999
 21
129.72292300000001
 31
0.0
  0
LINE
  5
D0
  8
2
 10
194.21386999999999
 20
129.72292300000001
 30
0.0
 11
194.21386999999999
 21
145.72292300000001
 31
0.0
  0
LINE
  5
D1
  8
2
 10
192.21386999999999
 20
131.72292300000001
 30
0.0
 11
194.21386999999999
 21
129.72292300000001
 31
0.0
  0
LINE
  5
D2
  8
2
 10
194.21386999999999
 20
145.72292300000001
 30
0.0
 11
192.21386999999999
 21
143.72292300000001
 31
0.0
  0
LINE
  5
D3
  8
0
 10
271.2138700000001
 20
145.72292300000001
 30
0.0
 11
263.21386999999999
 21
145.72292300000001
 31
0.0
  0
LINE
  5
D4
  8
3
 10
266.21386999999999
 20
144.640423
 30
0.0
 11
263.21386999999999
 21
144.640423
 31
0.0
  0
LINE
  5
D5
  8
3
 10
266.21386999999999
 20
130.80542299999999
 30
0.0
 11
263.21386999999999
 21
130.80542299999999
 31
0.0
  0
LINE
  5
D6
  8
0
 10
271.2138700000001
 20
129.72292300000001
 30
0.0
 11
263.21386999999999
 21
129.72292300000001
 31
0.0
  0
LINE
  5
D7
  8
2
 10
192.21386999999999
 20
143.72292300000001
 30
0.0
 11
192.21386999999999
 21
131.72292300000001
 31
0.0
  0
ARC
  5
D8
  8
0
 10
271.2138700000001
 20
146.72292300000001
 30
0.0
 40
1.0
 50
270.0
 51
0.0
  0
ARC
  5
D9
  8
0
 10
271.2138700000001
 20
128.72292300000001
 30
0.0
 40
1.0
 50
360.0
 51
90.0
  0
LINE
  5
DA
  8
0
 10
273.2138700000001
 20
124.22292299999999
 30
0.0
 11
273.2138700000001
 21
151.22292300000001
 31
0.0
  0
LINE
  5
DB
  8
0
 10
272.21386999999999
 20
150.22292300000001
 30
0.0
 11
273.2138700000001
 21
151.22292300000001
 31
0.0
  0
LINE
  5
DC
  8
0
 10
272.21386999999999
 20
125.22292299999999
 30
0.0
 11
273.2138700000001
 21
124.22292299999999
 31
0.0
  0
ARC
  5
DD
  8
0
 10
271.2138700000001
 20
204.45569699999999
 30
0.0
 40
1.0
 50
360.0
 51
90.0
  0
ARC
  5
DE
  8
0
 10
271.2138700000001
 20
222.45569699999999
 30
0.0
 40
1.0
 50
270.0
 51
0.0
  0
LINE
  5
DF
  8
0
 10
271.2138700000001
 20
205.45569699999999
 30
0.0
 11
263.21386999999999
 21
205.45569699999999
 31
0.0
  0
LINE
  5
E0
  8
3
 10
266.21386999999999
 20
206.538197
 30
0.0
 11
263.21386999999999
 21
206.538197
 31
0.0
  0
LINE
  5
E1
  8
3
 10
266.21386999999999
 20
220.373197
 30
0.0
 11
263.21386999999999
 21
220.373197
 31
0.0
  0
LINE
  5
E2
  8
0
 10
271.2138700000001
 20
221.45569699999999
 30
0.0
 11
263.21386999999999
 21
221.45569699999999
 31
0.0
  0
LINE
  5
E3
  8
0
 10
266.21386999999999
 20
221.45569699999999
 30
0.0
 11
266.21386999999999
 21
205.45569699999999
 31
0.0
  0
LINE
  5
E4
  8
3
 10
266.21386999999999
 20
220.373197
 30
0.0
 11
268.08881500000001
 21
221.45569699999999
 31
0.0
  0
LINE
  5
E5
  8
3
 10
266.21386999999999
 20
206.538197
 30
0.0
 11
268.08881500000001
 21
205.45569699999999
 31
0.0
  0
LINE
  5
E6
  8
1
 10
300.2138700000001
 20
197.45569699999999
 30
0.0
 11
300.2138700000001
 21
229.45569699999999
 31
0.0
  0
ARC
  5
E7
  8
0
 10
306.70980400000002
 20
137.72292300000001
 30
0.0
 40
21.939309999999999
 50
159.10097200000001
 51
200.89902799999999
  0
ARC
  5
E8
  8
0
 10
299.30639300000001
 20
137.72292300000001
 30
0.0
 40
9.2376039999999993
 50
302.08995099999999
 51
57.910049000000001
  0
LINE
  5
E9
  8
2
 10
42.603532999999999
 20
141.72292300000001
 30
0.0
 11
22.003533000000001
 21
141.72292300000001
 31
0.0
  0
LINE
  5
EA
  8
2
 10
42.603532999999999
 20
133.72292300000001
 30
0.0
 11
22.003533000000001
 21
133.72292300000001
 31
0.0
  0
LINE
  5
EB
  8
2
 10
21.003533000000001
 20
142.72292300000001
 30
0.0
 11
22.003533000000001
 21
141.72292300000001
 31
0.0
  0
LINE
  5
EC
  8
2
 10
42.603532999999999
 20
141.72292300000001
 30
0.0
 11
43.603532999999992
 21
142.72292300000001
 31
0.0
  0
LINE
  5
ED
  8
2
 10
42.603532999999999
 20
133.72292300000001
 30
0.0
 11
43.603532999999992
 21
132.72292300000001
 31
0.0
  0
LINE
  5
EE
  8
2
 10
22.003533000000001
 20
133.72292300000001
 30
0.0
 11
21.003533000000001
 21
132.72292300000001
 31
0.0
  0
LINE
  5
EF
  8
2
 10
42.603532999999999
 20
141.72292300000001
 30
0.0
 11
42.603532999999999
 21
133.72292300000001
 31
0.0
  0
LINE
  5
F0
  8
2
 10
22.003533000000001
 20
141.72292300000001
 30
0.0
 11
22.003533000000001
 21
133.72292300000001
 31
0.0
  0
LINE
  5
F1
  8
0
 10
43.603532999999992
 20
130.33644899999999
 30
0.0
 11
43.603532999999992
 21
145.109398
 31
0.0
  0
LINE
  5
F2
  8
0
 10
21.003533000000001
 20
130.33644899999999
 30
0.0
 11
21.003533000000001
 21
145.109398
 31
0.0
  0
CIRCLE
  5
F3
  8
0
 10
80.21387
 20
137.72292300000001
 30
0.0
 40
4.0
  0
LINE
  5
F4
  8
0
 10
336.28695399999998
 20
130.33644899999999
 30
0.0
 11
336.28695399999998
 21
145.109398
 31
0.0
  0
LINE
  5
F5
  8
0
 10
358.886954
 20
130.33644899999999
 30
0.0
 11
358.886954
 21
145.109398
 31
0.0
  0
LINE
  5
F6
  8
2
 10
337.28695399999998
 20
141.72292300000001
 30
0.0
 11
337.28695399999998
 21
133.72292300000001
 31
0.0
  0
LINE
  5
F7
  8
2
 10
357.886954
 20
141.72292300000001
 30
0.0
 11
357.886954
 21
133.72292300000001
 31
0.0
  0
LINE
  5
F8
  8
2
 10
337.28695399999998
 20
133.72292300000001
 30
0.0
 11
336.28695399999998
 21
132.72292300000001
 31
0.0
  0
LINE
  5
F9
  8
2
 10
357.886954
 20
133.72292300000001
 30
0.0
 11
358.886954
 21
132.72292300000001
 31
0.0
  0
LINE
  5
FA
  8
2
 10
357.886954
 20
141.72292300000001
 30
0.0
 11
358.886954
 21
142.72292300000001
 31
0.0
  0
LINE
  5
FB
  8
2
 10
336.28695399999998
 20
142.72292300000001
 30
0.0
 11
337.28695399999998
 21
141.72292300000001
 31
0.0
  0
LINE
  5
FC
  8
2
 10
357.886954
 20
133.72292300000001
 30
0.0
 11
337.28695399999998
 21
133.72292300000001
 31
0.0
  0
LINE
  5
FD
  8
2
 10
357.886954
 20
141.72292300000001
 30
0.0
 11
337.28695399999998
 21
141.72292300000001
 31
0.0
  0
LINE
  5
FE
  8
0
 10
358.94302599999997
 20
130.42294799999999
 30
0.0
 11
359.58695399999999
 21
130.79472000000001
 31
0.0
  0
LINE
  5
FF
  8
0
 10
359.58695399999999
 20
130.79472000000001
 30
0.0
 11
359.58695399999999
 21
131.538265
 31
0.0
  0
LINE
  5
100
  8
0
 10
346.94302599999997
 20
124.23828899999999
 30
0.0
 11
347.58695399999999
 21
123.866517
 31
0.0
  0
LINE
  5
101
  8
0
 10
347.58695399999999
 20
123.866517
 30
0.0
 11
348.23088300000001
 21
124.23828899999999
 31
0.0
  0
LINE
  5
102
  8
0
 10
335.58695399999999
 20
131.538265
 30
0.0
 11
335.58695399999999
 21
130.79472000000001
 31
0.0
  0
LINE
  5
103
  8
0
 10
335.58695399999999
 20
130.79472000000001
 30
0.0
 11
336.23088300000001
 21
130.42294799999999
 31
0.0
  0
LINE
  5
104
  8
0
 10
336.23088300000001
 20
145.022899
 30
0.0
 11
335.58695399999999
 21
144.651127
 31
0.0
  0
LINE
  5
105
  8
0
 10
335.58695399999999
 20
144.651127
 30
0.0
 11
335.58695399999999
 21
143.90758199999999
 31
0.0
  0
LINE
  5
106
  8
0
 10
348.23088300000001
 20
151.20755700000001
 30
0.0
 11
347.58695399999999
 21
151.57933
 31
0.0
  0
LINE
  5
107
  8
0
 10
347.58695399999999
 20
151.57933
 30
0.0
 11
346.94302599999997
 21
151.20755700000001
 31
0.0
  0
LINE
  5
108
  8
0
 10
359.58695399999999
 20
144.651127
 30
0.0
 11
358.94302599999997
 21
145.022899
 31
0.0
  0
LINE
  5
109
  8
0
 10
359.58695399999999
 20
143.90758199999999
 30
0.0
 11
359.58695399999999
 21
144.651127
 31
0.0
  0
CIRCLE
  5
10A
  8
0
 10
347.58695399999999
 20
137.72292300000001
 30
0.0
 40
13.5
  0
CIRCLE
  5
10B
  8
0
 10
347.58695399999999
 20
137.72292300000001
 30
0.0
 40
8.8811979999999995
  0
CIRCLE
  5
10C
  8
0
 10
300.2138700000001
 20
137.72292300000001
 30
0.0
 40
4.0
  0
LINE
  5
10D
  8
2
 10
76.21387
 20
223.755697
 30
0.0
 11
76.21387
 21
203.155697
 31
0.0
  0
LINE
  5
10E
  8
2
 10
84.213870000000014
 20
223.755697
 30
0.0
 11
84.213870000000014
 21
203.155697
 31
0.0
  0
LINE
  5
10F
  8
2
 10
75.21387
 20
202.155697
 30
0.0
 11
76.21387
 21
203.155697
 31
0.0
  0
LINE
  5
110
  8
2
 10
76.21387
 20
223.755697
 30
0.0
 11
75.21387
 21
224.755697
 31
0.0
  0
LINE
  5
111
  8
2
 10
84.213870000000014
 20
223.755697
 30
0.0
 11
85.21387
 21
224.755697
 31
0.0
  0
LINE
  5
112
  8
2
 10
84.213870000000014
 20
203.155697
 30
0.0
 11
85.21387
 21
202.155697
 31
0.0
  0
LINE
  5
113
  8
2
 10
76.21387
 20
223.755697
 30
0.0
 11
84.213870000000014
 21
223.755697
 31
0.0
  0
LINE
  5
114
  8
2
 10
76.21387
 20
203.155697
 30
0.0
 11
84.213870000000014
 21
203.155697
 31
0.0
  0
LINE
  5
115
  8
0
 10
71.88374300000001
 20
224.755697
 30
0.0
 11
94.387074999999996
 21
224.755697
 31
0.0
  0
LINE
  5
116
  8
0
 10
71.88374300000001
 20
202.155697
 30
0.0
 11
94.387074999999996
 21
202.155697
 31
0.0
  0
LINE
  5
117
  8
0
 10
71.88374300000001
 20
202.155697
 30
0.0
 11
68.21387
 21
204.574499
 31
0.0
  0
LINE
  5
118
  8
0
 10
71.88374300000001
 20
224.755697
 30
0.0
 11
68.21387
 21
222.336895
 31
0.0
  0
LINE
  5
119
  8
0
 10
308.54399699999999
 20
224.755697
 30
0.0
 11
312.2138700000001
 21
222.336895
 31
0.0
  0
LINE
  5
11A
  8
0
 10
308.54399699999999
 20
202.155697
 30
0.0
 11
312.2138700000001
 21
204.574499
 31
0.0
  0
LINE
  5
11B
  8
0
 10
308.54399699999999
 20
202.155697
 30
0.0
 11
286.04066499999999
 21
202.155697
 31
0.0
  0
LINE
  5
11C
  8
0
 10
308.54399699999999
 20
224.755697
 30
0.0
 11
286.04066499999999
 21
224.755697
 31
0.0
  0
LINE
  5
11D
  8
2
 10
304.2138700000001
 20
203.155697
 30
0.0
 11
296.21386999999999
 21
203.155697
 31
0.0
  0
LINE
  5
11E
  8
2
 10
304.2138700000001
 20
223.755697
 30
0.0
 11
296.21386999999999
 21
223.755697
 31
0.0
  0
LINE
  5
11F
  8
2
 10
296.21386999999999
 20
203.155697
 30
0.0
 11
295.21386999999999
 21
202.155697
 31
0.0
  0
LINE
  5
120
  8
2
 10
296.21386999999999
 20
223.755697
 30
0.0
 11
295.21386999999999
 21
224.755697
 31
0.0
  0
LINE
  5
121
  8
2
 10
304.2138700000001
 20
223.755697
 30
0.0
 11
305.21386999999999
 21
224.755697
 31
0.0
  0
LINE
  5
122
  8
2
 10
305.21386999999999
 20
202.155697
 30
0.0
 11
304.2138700000001
 21
203.155697
 31
0.0
  0
LINE
  5
123
  8
2
 10
296.21386999999999
 20
223.755697
 30
0.0
 11
296.21386999999999
 21
203.155697
 31
0.0
  0
LINE
  5
124
  8
2
 10
304.2138700000001
 20
223.755697
 30
0.0
 11
304.2138700000001
 21
203.155697
 31
0.0
  0
LINE
  5
125
  8
0
 10
272.21386999999999
 20
200.95569699999999
 30
0.0
 11
273.2138700000001
 21
199.95569699999999
 31
0.0
  0
LINE
  5
126
  8
0
 10
272.21386999999999
 20
225.95569699999999
 30
0.0
 11
273.2138700000001
 21
226.95569699999999
 31
0.0
  0
LINE
  5
127
  8
0
 10
273.2138700000001
 20
199.95569699999999
 30
0.0
 11
273.2138700000001
 21
226.95569699999999
 31
0.0
  0
ARC
  5
128
  8
0
 10
271.2138700000001
 20
204.45569699999999
 30
0.0
 40
1.0
 50
360.0
 51
90.0
  0
ARC
  5
129
  8
0
 10
271.2138700000001
 20
222.45569699999999
 30
0.0
 40
1.0
 50
270.0
 51
0.0
  0
LINE
  5
12A
  8
0
 10
304.2138700000001
 20
202.155697
 30
0.0
 11
304.2138700000001
 21
224.755697
 31
0.0
  0
LINE
  5
12B
  8
0
 10
312.2138700000001
 20
204.574499
 30
0.0
 11
312.2138700000001
 21
222.336895
 31
0.0
  0
LINE
  5
12C
  8
0
 10
272.21386999999999
 20
200.95569699999999
 30
0.0
 11
272.21386999999999
 21
225.95569699999999
 31
0.0
  0
LINE
  5
12D
  8
0
 10
284.77049399999999
 20
226.95569699999999
 30
0.0
 11
273.2138700000001
 21
226.95569699999999
 31
0.0
  0
LINE
  5
12E
  8
0
 10
286.04066499999999
 20
224.755697
 30
0.0
 11
284.77049399999999
 21
226.95569699999999
 31
0.0
  0
LINE
  5
12F
  8
0
 10
286.04066499999999
 20
202.155697
 30
0.0
 11
284.77049399999999
 21
199.95569699999999
 31
0.0
  0
LINE
  5
130
  8
0
 10
284.77049399999999
 20
199.95569699999999
 30
0.0
 11
273.2138700000001
 21
199.95569699999999
 31
0.0
  0
LINE
  5
131
  8
1
 10
63.213869999999993
 20
137.72292300000001
 30
0.0
 11
317.21386999999999
 21
137.72292300000001
 31
0.0
  0
LINE
  5
132
  8
1
 10
63.213869999999993
 20
213.45569699999999
 30
0.0
 11
317.21386999999999
 21
213.45569699999999
 31
0.0
  0
LINE
  5
133
  8
1
 10
50.803533000000002
 20
137.72292300000001
 30
0.0
 11
13.803533
 21
137.72292300000001
 31
0.0
  0
LINE
  5
134
  8
1
 10
32.303533000000002
 20
156.22292300000001
 30
0.0
 11
32.303533000000002
 21
119.22292299999999
 31
0.0
  0
LINE
  5
135
  8
1
 10
366.08695399999999
 20
137.72292300000001
 30
0.0
 11
329.08695399999999
 21
137.72292300000001
 31
0.0
  0
LINE
  5
136
  8
1
 10
347.58695399999999
 20
156.22292300000001
 30
0.0
 11
347.58695399999999
 21
119.22292299999999
 31
0.0
  0
LINE
  5
137
  8
1
 10
63.213869999999993
 20
61.99015
 30
0.0
 11
317.21386999999999
 21
61.99015
 31
0.0
  0
LINE
  5
138
  8
0
 10
284.77049399999999
 20
75.49015
 30
0.0
 11
273.2138700000001
 21
75.49015
 31
0.0
  0
LINE
  5
139
  8
0
 10
286.04066499999999
 20
73.290149999999997
 30
0.0
 11
284.77049399999999
 21
75.49015
 31
0.0
  0
LINE
  5
13A
  8
0
 10
286.04066499999999
 20
50.690150000000003
 30
0.0
 11
284.77049399999999
 21
48.49015
 31
0.0
  0
LINE
  5
13B
  8
0
 10
284.77049399999999
 20
48.49015
 30
0.0
 11
273.2138700000001
 21
48.49015
 31
0.0
  0
LINE
  5
13C
  8
0
 10
272.21386999999999
 20
74.49015
 30
0.0
 11
272.21386999999999
 21
49.49015
 31
0.0
  0
LINE
  5
13D
  8
0
 10
312.2138700000001
 20
70.871347999999998
 30
0.0
 11
312.2138700000001
 21
53.108952000000002
 31
0.0
  0
LINE
  5
13E
  8
0
 10
304.2138700000001
 20
73.290149999999997
 30
0.0
 11
304.2138700000001
 21
50.690150000000003
 31
0.0
  0
ARC
  5
13F
  8
0
 10
271.2138700000001
 20
52.99015
 30
0.0
 40
1.0
 50
0.0
 51
90.0
  0
ARC
  5
140
  8
0
 10
271.2138700000001
 20
70.99015
 30
0.0
 40
1.0
 50
270.0
 51
0.0
  0
LINE
  5
141
  8
0
 10
273.2138700000001
 20
75.49015
 30
0.0
 11
273.2138700000001
 21
48.49015
 31
0.0
  0
LINE
  5
142
  8
0
 10
272.21386999999999
 20
49.49015
 30
0.0
 11
273.2138700000001
 21
48.49015
 31
0.0
  0
LINE
  5
143
  8
0
 10
272.21386999999999
 20
74.49015
 30
0.0
 11
273.2138700000001
 21
75.49015
 31
0.0
  0
LINE
  5
144
  8
2
 10
304.2138700000001
 20
51.690150000000003
 30
0.0
 11
304.2138700000001
 21
72.290149999999997
 31
0.0
  0
LINE
  5
145
  8
2
 10
296.21386999999999
 20
51.690150000000003
 30
0.0
 11
296.21386999999999
 21
72.290149999999997
 31
0.0
  0
LINE
  5
146
  8
2
 10
305.21386999999999
 20
73.290149999999997
 30
0.0
 11
304.2138700000001
 21
72.290149999999997
 31
0.0
  0
LINE
  5
147
  8
2
 10
304.2138700000001
 20
51.690150000000003
 30
0.0
 11
305.21386999999999
 21
50.690150000000003
 31
0.0
  0
LINE
  5
148
  8
2
 10
296.21386999999999
 20
51.690150000000003
 30
0.0
 11
295.21386999999999
 21
50.690150000000003
 31
0.0
  0
LINE
  5
149
  8
2
 10
296.21386999999999
 20
72.290149999999997
 30
0.0
 11
295.21386999999999
 21
73.290149999999997
 31
0.0
  0
LINE
  5
14A
  8
2
 10
304.2138700000001
 20
51.690150000000003
 30
0.0
 11
296.21386999999999
 21
51.690150000000003
 31
0.0
  0
LINE
  5
14B
  8
2
 10
304.2138700000001
 20
72.290149999999997
 30
0.0
 11
296.21386999999999
 21
72.290149999999997
 31
0.0
  0
LINE
  5
14C
  8
0
 10
308.54399699999999
 20
50.690150000000003
 30
0.0
 11
286.04066499999999
 21
50.690150000000003
 31
0.0
  0
LINE
  5
14D
  8
0
 10
308.54399699999999
 20
73.290149999999997
 30
0.0
 11
286.04066499999999
 21
73.290149999999997
 31
0.0
  0
LINE
  5
14E
  8
0
 10
308.54399699999999
 20
73.290149999999997
 30
0.0
 11
312.2138700000001
 21
70.871347999999998
 31
0.0
  0
LINE
  5
14F
  8
0
 10
308.54399699999999
 20
50.690150000000003
 30
0.0
 11
312.2138700000001
 21
53.108952000000002
 31
0.0
  0
LINE
  5
150
  8
0
 10
71.88374300000001
 20
50.690150000000003
 30
0.0
 11
68.21387
 21
53.108952000000002
 31
0.0
  0
LINE
  5
151
  8
0
 10
71.88374300000001
 20
73.290149999999997
 30
0.0
 11
68.21387
 21
70.871347999999998
 31
0.0
  0
LINE
  5
152
  8
0
 10
71.88374300000001
 20
73.290149999999997
 30
0.0
 11
94.387074999999996
 21
73.290149999999997
 31
0.0
  0
LINE
  5
153
  8
0
 10
71.88374300000001
 20
50.690150000000003
 30
0.0
 11
94.387074999999996
 21
50.690150000000003
 31
0.0
  0
LINE
  5
154
  8
2
 10
76.21387
 20
72.290149999999997
 30
0.0
 11
84.213870000000014
 21
72.290149999999997
 31
0.0
  0
LINE
  5
155
  8
2
 10
76.21387
 20
51.690150000000003
 30
0.0
 11
84.213870000000014
 21
51.690150000000003
 31
0.0
  0
LINE
  5
156
  8
2
 10
84.213870000000014
 20
72.290149999999997
 30
0.0
 11
85.21387
 21
73.290149999999997
 31
0.0
  0
LINE
  5
157
  8
2
 10
84.213870000000014
 20
51.690150000000003
 30
0.0
 11
85.21387
 21
50.690150000000003
 31
0.0
  0
LINE
  5
158
  8
2
 10
76.21387
 20
51.690150000000003
 30
0.0
 11
75.21387
 21
50.690150000000003
 31
0.0
  0
LINE
  5
159
  8
2
 10
75.21387
 20
73.290149999999997
 30
0.0
 11
76.21387
 21
72.290149999999997
 31
0.0
  0
LINE
  5
15A
  8
2
 10
84.213870000000014
 20
51.690150000000003
 30
0.0
 11
84.213870000000014
 21
72.290149999999997
 31
0.0
  0
LINE
  5
15B
  8
2
 10
76.21387
 20
51.690150000000003
 30
0.0
 11
76.21387
 21
72.290149999999997
 31
0.0
  0
LINE
  5
15C
  8
1
 10
300.2138700000001
 20
77.99015
 30
0.0
 11
300.2138700000001
 21
45.99015
 31
0.0
  0
LINE
  5
15D
  8
3
 10
266.21386999999999
 20
68.907650000000004
 30
0.0
 11
268.08881500000001
 21
69.990149999999986
 31
0.0
  0
LINE
  5
15E
  8
3
 10
266.21386999999999
 20
55.072650000000003
 30
0.0
 11
268.08881500000001
 21
53.99015
 31
0.0
  0
LINE
  5
15F
  8
0
 10
266.21386999999999
 20
53.99015
 30
0.0
 11
266.21386999999999
 21
69.990149999999986
 31
0.0
  0
LINE
  5
160
  8
0
 10
271.2138700000001
 20
53.99015
 30
0.0
 11
263.21386999999999
 21
53.99015
 31
0.0
  0
LINE
  5
161
  8
3
 10
266.21386999999999
 20
55.072650000000003
 30
0.0
 11
263.21386999999999
 21
55.072650000000003
 31
0.0
  0
LINE
  5
162
  8
3
 10
266.21386999999999
 20
68.907650000000004
 30
0.0
 11
263.21386999999999
 21
68.907650000000004
 31
0.0
  0
LINE
  5
163
  8
0
 10
271.2138700000001
 20
69.990149999999986
 30
0.0
 11
263.21386999999999
 21
69.990149999999986
 31
0.0
  0
ARC
  5
164
  8
0
 10
271.2138700000001
 20
52.99015
 30
0.0
 40
1.0
 50
0.0
 51
90.0
  0
ARC
  5
165
  8
0
 10
271.2138700000001
 20
70.99015
 30
0.0
 40
1.0
 50
270.0
 51
0.0
  0
LINE
  5
166
  8
0
 10
262.92519499999997
 20
73.99015
 30
0.0
 11
263.21386999999999
 21
73.49015
 31
0.0
  0
ARC
  5
167
  8
0
 10
245.595068
 20
67.99015
 30
0.0
 40
17.33012699999999
 50
339.74384199999997
 51
20.256157999999999
  0
LINE
  5
168
  8
0
 10
250.21386999999999
 20
73.99015
 30
0.0
 11
262.92519499999997
 21
73.99015
 31
0.0
  0
LINE
  5
169
  8
0
 10
261.85339800000003
 20
61.99015
 30
0.0
 11
250.21386999999999
 21
61.99015
 31
0.0
  0
LINE
  5
16A
  8
0
 10
250.21386999999999
 20
49.990149999999993
 30
0.0
 11
262.92519499999997
 21
49.990149999999993
 31
0.0
  0
ARC
  5
16B
  8
0
 10
245.595068
 20
55.99015
 30
0.0
 40
17.33012699999999
 50
339.74384199999997
 51
20.256157999999999
  0
LINE
  5
16C
  8
0
 10
262.92519499999997
 20
49.990149999999993
 30
0.0
 11
263.21386999999999
 21
50.49015
 31
0.0
  0
LINE
  5
16D
  8
0
 10
250.21386999999999
 20
49.990149999999993
 30
0.0
 11
250.21386999999999
 21
73.99015
 31
0.0
  0
LINE
  5
16E
  8
0
 10
263.21386999999999
 20
73.49015
 30
0.0
 11
263.21386999999999
 21
50.49015
 31
0.0
  0
LINE
  5
16F
  8
0
 10
249.925195
 20
49.990149999999993
 30
0.0
 11
250.21386999999999
 21
50.49015
 31
0.0
  0
ARC
  5
170
  8
0
 10
232.595068
 20
55.99015
 30
0.0
 40
17.33012699999999
 50
339.74384199999997
 51
20.256157999999999
  0
ARC
  5
171
  8
0
 10
232.595068
 20
67.99015
 30
0.0
 40
17.33012699999999
 50
339.74384199999997
 51
20.256157999999999
  0
LINE
  5
172
  8
0
 10
249.925195
 20
73.99015
 30
0.0
 11
250.21386999999999
 21
73.49015
 31
0.0
  0
LINE
  5
173
  8
0
 10
130.502545
 20
73.99015
 30
0.0
 11
130.21386999999999
 21
73.49015
 31
0.0
  0
ARC
  5
174
  8
0
 10
147.832672
 20
67.99015
 30
0.0
 40
17.33012699999999
 50
159.743842
 51
200.256158
  0
LINE
  5
175
  8
0
 10
249.925195
 20
73.99015
 30
0.0
 11
130.502545
 21
73.99015
 31
0.0
  0
LINE
  5
176
  8
0
 10
131.574342
 20
61.99015
 30
0.0
 11
248.853398
 21
61.99015
 31
0.0
  0
LINE
  5
177
  8
0
 10
249.925195
 20
49.990149999999993
 30
0.0
 11
130.502545
 21
49.990149999999993
 31
0.0
  0
ARC
  5
178
  8
0
 10
147.832672
 20
55.99015
 30
0.0
 40
17.33012699999999
 50
159.743842
 51
200.256158
  0
LINE
  5
179
  8
0
 10
130.502545
 20
49.990149999999993
 30
0.0
 11
130.21386999999999
 21
50.49015
 31
0.0
  0
LINE
  5
17A
  8
0
 10
117.21387
 20
73.49015
 30
0.0
 11
117.21387
 21
50.49015
 31
0.0
  0
LINE
  5
17B
  8
0
 10
130.21386999999999
 20
49.990149999999993
 30
0.0
 11
130.21386999999999
 21
73.99015
 31
0.0
  0
LINE
  5
17C
  8
0
 10
117.502545
 20
49.990149999999993
 30
0.0
 11
117.21387
 21
50.49015
 31
0.0
  0
ARC
  5
17D
  8
0
 10
134.832672
 20
55.99015
 30
0.0
 40
17.33012699999999
 50
159.743842
 51
200.256158
  0
LINE
  5
17E
  8
0
 10
130.21386999999999
 20
49.990149999999993
 30
0.0
 11
117.502545
 21
49.990149999999993
 31
0.0
  0
LINE
  5
17F
  8
0
 10
118.574342
 20
61.99015
 30
0.0
 11
130.21386999999999
 21
61.99015
 31
0.0
  0
LINE
  5
180
  8
0
 10
130.21386999999999
 20
73.99015
 30
0.0
 11
117.502545
 21
73.99015
 31
0.0
  0
ARC
  5
181
  8
0
 10
134.832672
 20
67.99015
 30
0.0
 40
17.33012699999999
 50
159.743842
 51
200.256158
  0
LINE
  5
182
  8
0
 10
117.502545
 20
73.99015
 30
0.0
 11
117.21387
 21
73.49015
 31
0.0
  0
LINE
  5
183
  8
0
 10
108.21387
 20
74.49015
 30
0.0
 11
107.21387
 21
75.49015
 31
0.0
  0
LINE
  5
184
  8
0
 10
108.21387
 20
49.49015
 30
0.0
 11
107.21387
 21
48.49015
 31
0.0
  0
LINE
  5
185
  8
0
 10
107.21387
 20
75.49015
 30
0.0
 11
107.21387
 21
48.49015
 31
0.0
  0
ARC
  5
186
  8
0
 10
109.21387
 20
70.99015
 30
0.0
 40
1.0
 50
180.0
 51
270.0
  0
ARC
  5
187
  8
0
 10
109.21387
 20
52.99015
 30
0.0
 40
1.0
 50
90.0
 51
180.0
  0
LINE
  5
188
  8
0
 10
109.21387
 20
69.990149999999986
 30
0.0
 11
117.21387
 21
69.990149999999986
 31
0.0
  0
LINE
  5
189
  8
3
 10
114.21387
 20
68.907650000000004
 30
0.0
 11
117.21387
 21
68.907650000000004
 31
0.0
  0
LINE
  5
18A
  8
3
 10
114.21387
 20
55.072650000000003
 30
0.0
 11
117.21387
 21
55.072650000000003
 31
0.0
  0
LINE
  5
18B
  8
0
 10
109.21387
 20
53.99015
 30
0.0
 11
117.21387
 21
53.99015
 31
0.0
  0
LINE
  5
18C
  8
0
 10
114.21387
 20
53.99015
 30
0.0
 11
114.21387
 21
69.990149999999986
 31
0.0
  0
LINE
  5
18D
  8
3
 10
114.21387
 20
55.072650000000003
 30
0.0
 11
112.338925
 21
53.99015
 31
0.0
  0
LINE
  5
18E
  8
3
 10
114.21387
 20
68.907650000000004
 30
0.0
 11
112.338925
 21
69.990149999999986
 31
0.0
  0
LINE
  5
18F
  8
0
 10
76.21387
 20
73.290149999999997
 30
0.0
 11
76.21387
 21
50.690150000000003
 31
0.0
  0
LINE
  5
190
  8
1
 10
80.21387
 20
77.99015
 30
0.0
 11
80.21387
 21
45.99015
 31
0.0
  0
LINE
  5
191
  8
0
 10
68.21387
 20
70.871347999999998
 30
0.0
 11
68.21387
 21
53.108952000000002
 31
0.0
  0
LINE
  5
192
  8
0
 10
108.21387
 20
74.49015
 30
0.0
 11
108.21387
 21
49.49015
 31
0.0
  0
LINE
  5
193
  8
0
 10
95.657246000000015
 20
48.49015
 30
0.0
 11
107.21387
 21
48.49015
 31
0.0
  0
LINE
  5
194
  8
0
 10
94.387074999999996
 20
50.690150000000003
 30
0.0
 11
95.657246000000015
 21
48.49015
 31
0.0
  0
LINE
  5
195
  8
0
 10
94.387074999999996
 20
73.290149999999997
 30
0.0
 11
95.657246000000015
 21
75.49015
 31
0.0
  0
LINE
  5
196
  8
0
 10
95.657246000000015
 20
75.49015
 30
0.0
 11
107.21387
 21
75.49015
 31
0.0
  0
TEXT
  5
2B9
  8
0
 62
     3
 10
0.0
 20
0.0
 30
0.0
 40
10.0
  1
CBD1-80
  7
STANDARD1
  0
ENDSEC
  0
EOF
