  0
SECTION
  2
HEADER
  9
$ACADVER
  1
AC1009
  9
$INSBASE
 10
0.0
 20
0.0
 30
0.0
  9
$EXTMIN
 10
0.0
 20
-2.960436562073669
 30
0.0
  9
$EXTMAX
 10
369.19165600000002
 20
214.114499
 30
0.0
  9
$LIMMIN
 10
0.0
 20
0.0
  9
$LIMMAX
 10
375.0
 20
270.0
  9
$ORTHOMODE
 70
     1
  9
$REGENMODE
 70
     1
  9
$FILLMODE
 70
     1
  9
$QTEXTMODE
 70
     0
  9
$MIRRTEXT
 70
     0
  9
$DRAGMODE
 70
     2
  9
$LTSCALE
 40
10.0
  9
$OSMODE
 70
  3071
  9
$ATTMODE
 70
     1
  9
$TEXTSIZE
 40
4.0
  9
$TRACEWID
 40
0.05
  9
$TEXTSTYLE
  7
STANDARD
  9
$CLAYER
  8
0
  9
$CELTYPE
  6
BYLAYER
  9
$CECOLOR
 62
   256
  9
$DIMSCALE
 40
1.0
  9
$DIMASZ
 40
3.0
  9
$DIMEXO
 40
2.0
  9
$DIMDLI
 40
0.38
  9
$DIMRND
 40
0.0
  9
$DIMDLE
 40
0.0
  9
$DIMEXE
 40
2.0
  9
$DIMTP
 40
0.0
  9
$DIMTM
 40
0.0
  9
$DIMTXT
 40
3.2000000000000002
  9
$DIMCEN
 40
0.0
  9
$DIMTSZ
 40
0.0
  9
$DIMTOL
 70
     0
  9
$DIMLIM
 70
     0
  9
$DIMTIH
 70
     0
  9
$DIMTOH
 70
     0
  9
$DIMSE1
 70
     0
  9
$DIMSE2
 70
     0
  9
$DIMTAD
 70
     1
  9
$DIMZIN
 70
     0
  9
$DIMBLK
  1

  9
$DIMASO
 70
     0
  9
$DIMSHO
 70
     0
  9
$DIMPOST
  1

  9
$DIMAPOST
  1

  9
$DIMALT
 70
     0
  9
$DIMALTD
 70
     2
  9
$DIMALTF
 40
25.399999999999999
  9
$DIMLFAC
 40
1.0
  9
$DIMTOFL
 70
     0
  9
$DIMTVP
 40
1.6000000000000001
  9
$DIMTIX
 70
     1
  9
$DIMSOXD
 70
     0
  9
$DIMSAH
 70
     0
  9
$DIMBLK1
  1

  9
$DIMBLK2
  1

  9
$DIMSTYLE
  2
STANDARD
  9
$DIMCLRD
 70
     0
  9
$DIMCLRE
 70
     0
  9
$DIMCLRT
 70
     0
  9
$DIMTFAC
 40
1.0
  9
$DIMGAP
 40
0.09
  9
$LUNITS
 70
     2
  9
$LUPREC
 70
     1
  9
$SKETCHINC
 40
0.1
  9
$FILLETRAD
 40
0.0
  9
$AUNITS
 70
     0
  9
$AUPREC
 70
     0
  9
$MENU
  1
E:\r13\win\SUPPORT\ACAD
  9
$ELEVATION
 40
0.0
  9
$PELEVATION
 40
0.0
  9
$THICKNESS
 40
0.0
  9
$LIMCHECK
 70
     0
  9
$BLIPMODE
 70
     0
  9
$CHAMFERA
 40
0.0
  9
$CHAMFERB
 40
0.0
  9
$SKPOLY
 70
     0
  9
$TDCREATE
 40
2449839.7789930562
  9
$TDUPDATE
 40
2456598.5797880441
  9
$TDINDWG
 40
0.0030237847
  9
$TDUSRTIMER
 40
0.0030237847
  9
$USRTIMER
 70
     1
  9
$ANGBASE
 50
0.0
  9
$ANGDIR
 70
     0
  9
$PDMODE
 70
     0
  9
$PDSIZE
 40
0.0
  9
$PLINEWID
 40
0.0
  9
$COORDS
 70
     1
  9
$SPLFRAME
 70
     0
  9
$SPLINETYPE
 70
     6
  9
$SPLINESEGS
 70
     8
  9
$ATTDIA
 70
     0
  9
$ATTREQ
 70
     1
  9
$HANDLING
 70
     1
  9
$HANDSEED
  5
27E
  9
$SURFTAB1
 70
     6
  9
$SURFTAB2
 70
     6
  9
$SURFTYPE
 70
     6
  9
$SURFU
 70
     6
  9
$SURFV
 70
     6
  9
$UCSNAME
  2

  9
$UCSORG
 10
0.0
 20
0.0
 30
0.0
  9
$UCSXDIR
 10
1.0
 20
0.0
 30
0.0
  9
$UCSYDIR
 10
0.0
 20
1.0
 30
0.0
  9
$PUCSNAME
  2

  9
$PUCSORG
 10
0.0
 20
0.0
 30
0.0
  9
$PUCSXDIR
 10
1.0
 20
0.0
 30
0.0
  9
$PUCSYDIR
 10
0.0
 20
1.0
 30
0.0
  9
$USERI1
 70
     0
  9
$USERI2
 70
     1
  9
$USERI3
 70
     0
  9
$USERI4
 70
     0
  9
$USERI5
 70
     0
  9
$USERR1
 40
0.0
  9
$USERR2
 40
0.0
  9
$USERR3
 40
0.0
  9
$USERR4
 40
0.0
  9
$USERR5
 40
0.0
  9
$WORLDVIEW
 70
     1
  9
$SHADEDGE
 70
     3
  9
$SHADEDIF
 70
    70
  9
$TILEMODE
 70
     1
  9
$MAXACTVP
 70
    16
  9
$PLIMCHECK
 70
     0
  9
$PEXTMIN
 10
1.0000000000000000E+020
 20
1.0000000000000000E+020
 30
1.0000000000000000E+020
  9
$PEXTMAX
 10
-1.0000000000000000E+020
 20
-1.0000000000000000E+020
 30
-1.0000000000000000E+020
  9
$PLIMMIN
 10
0.0
 20
0.0
  9
$PLIMMAX
 10
12.0
 20
9.0
  9
$UNITMODE
 70
     0
  9
$VISRETAIN
 70
     0
  9
$PLINEGEN
 70
     0
  9
$PSLTSCALE
 70
     0
  0
ENDSEC
  0
SECTION
  2
TABLES
  0
TABLE
  2
VPORT
 70
     1
  0
VPORT
  2
*ACTIVE
 70
     0
 10
0.0
 20
0.0
 11
1.0
 21
1.0
 12
195.0581083320873
 22
133.5127261426681
 13
0.0
 23
0.0
 14
10.0
 24
10.0
 15
10.0
 25
10.0
 16
0.0
 26
0.0
 36
1.0
 17
0.0
 27
0.0
 37
0.0
 40
275.42274993631997
 41
1.831871345029239
 42
50.0
 43
0.0
 44
0.0
 50
0.0
 51
0.0
 71
     0
 72
   100
 73
     1
 74
     0
 75
     0
 76
     0
 77
     0
 78
     2
  0
ENDTAB
  0
TABLE
  2
LTYPE
 70
     4
  0
LTYPE
  2
CONTINUOUS
 70
     0
  3
Solid Line
 72
    65
 73
     0
 40
0.0
  0
LTYPE
  2
CENTER
 70
     0
  3
____ _ ____ _ ____ _ ____ _ ____ _ ____ _ ____
 72
    65
 73
     4
 40
2.0
 49
1.25
 49
-0.25
 49
0.25
 49
-0.25
  0
LTYPE
  2
HIDDEN
 70
     0
  3
_ _ _ _ _ _ _ _ _ _ _ _ _ _ _ _ _ _ _ _ _ _ _
 72
    65
 73
     2
 40
0.375
 49
0.25
 49
-0.125
  0
LTYPE
  2
PHANTOM2
 70
     0
  3
___ _ _ ___ _ _ ___ _ _ ___ _ _
 72
    65
 73
     6
 40
1.25
 49
0.625
 49
-0.125
 49
0.125
 49
-0.125
 49
0.125
 49
-0.125
  0
ENDTAB
  0
TABLE
  2
LAYER
 70
     4
  0
LAYER
  2
0
 70
     0
 62
     7
  6
CONTINUOUS
  0
LAYER
  2
1
 70
     0
 62
     1
  6
CENTER
  0
LAYER
  2
3
 70
     0
 62
     3
  6
CONTINUOUS
  0
LAYER
  2
2
 70
     0
 62
     2
  6
HIDDEN
  0
ENDTAB
  0
TABLE
  2
STYLE
 70
     2
  0
STYLE
  2
STANDARD
 70
     0
 40
0.0
 41
1.0
 50
0.0
 71
     0
 42
4.0
  3
ROMANS
  4
BIGFONT
  0
STYLE
  2
STANDARD1
 70
     0
 40
0.0
 41
1.0
 50
0.0
 71
     0
 42
3.0
  3
txt
  4

  0
ENDTAB
  0
TABLE
  2
VIEW
 70
     1
  0
VIEW
  2
ALL
 70
     0
 40
270.0
 10
220.59942000000001
 20
135.0
 41
441.19884000000002
 11
0.0
 21
0.0
 31
1.0
 12
0.0
 22
0.0
 32
0.0
 42
0.0
 43
0.0
 44
0.0
 50
0.0
 71
     0
  0
ENDTAB
  0
TABLE
  2
UCS
 70
     0
  0
ENDTAB
  0
TABLE
  2
APPID
 70
     3
  0
APPID
  2
ACAD
 70
     0
  0
APPID
  2
ACAD_MLEADERVER
 70
     0
  0
APPID
  2
ACAD_NAV_VCDISPLAY
 70
     0
  0
ENDTAB
  0
TABLE
  2
DIMSTYLE
 70
     1
  0
DIMSTYLE
  2
STANDARD
 70
     0
  3

  4

  5

  6

  7

 40
1.0
 41
0.18
 42
0.0625
 43
0.38
 44
0.18
 45
0.0
 46
0.0
 47
0.0
 48
0.0
140
0.18
141
0.09
142
0.0
143
25.399999999999999
144
1.0
145
0.0
146
1.0
147
0.09
 71
     0
 72
     0
 73
     1
 74
     1
 75
     0
 76
     0
 77
     0
 78
     0
170
     0
171
     2
172
     0
173
     0
174
     0
175
     0
176
     0
177
     0
178
     0
  0
ENDTAB
  0
ENDSEC
  0
SECTION
  2
BLOCKS
  0
BLOCK
  8
0
  2
$MODEL_SPACE
 70
     0
 10
0.0
 20
0.0
 30
0.0
  3
$MODEL_SPACE
  1

  0
ENDBLK
  5
10D
  8
0
  0
BLOCK
 67
     1
  8
0
  2
$PAPER_SPACE
 70
     0
 10
0.0
 20
0.0
 30
0.0
  3
$PAPER_SPACE
  1

  0
ENDBLK
  5
10B
 67
     1
  8
0
  0
ENDSEC
  0
SECTION
  2
ENTITIES
  0
CIRCLE
  5
37
  8
0
 10
34.558351999999999
 20
100.363125
 30
0.0
 40
17.0
  0
LINE
  5
38
  8
0
 10
52.558351999999992
 20
110.75543
 30
0.0
 11
52.558351999999992
 21
89.970819999999975
 31
0.0
  0
LINE
  5
39
  8
0
 10
52.558351999999992
 20
89.970819999999975
 30
0.0
 11
34.558351999999999
 21
79.578514999999996
 31
0.0
  0
LINE
  5
3A
  8
0
 10
34.558351999999999
 20
79.578514999999996
 30
0.0
 11
16.558351999999999
 21
89.970819999999975
 31
0.0
  0
LINE
  5
3B
  8
0
 10
16.558351999999999
 20
89.970819999999975
 30
0.0
 11
16.558351999999999
 21
110.75543
 31
0.0
  0
LINE
  5
3C
  8
0
 10
16.558351999999999
 20
110.75543
 30
0.0
 11
34.558351999999999
 21
121.147735
 31
0.0
  0
LINE
  5
3D
  8
0
 10
34.558351999999999
 20
121.147735
 30
0.0
 11
52.558351999999992
 21
110.75543
 31
0.0
  0
LINE
  5
3E
  8
0
 10
203.04879399999999
 20
207.364499
 30
0.0
 11
301.81733800000001
 21
207.364499
 31
0.0
  0
LINE
  5
3F
  8
3
 10
203.04879399999999
 20
205.740499
 30
0.0
 11
303.44133799999997
 21
205.740499
 31
0.0
  0
LINE
  5
40
  8
3
 10
203.04879399999999
 20
184.9884989999999
 30
0.0
 11
303.44133799999997
 21
184.9884989999999
 31
0.0
  0
LINE
  5
41
  8
0
 10
203.04879399999999
 20
183.364499
 30
0.0
 11
301.81733800000001
 21
183.364499
 31
0.0
  0
LINE
  5
42
  8
0
 10
203.04879399999999
 20
88.363124999999997
 30
0.0
 11
301.81733800000001
 21
88.363124999999997
 31
0.0
  0
LINE
  5
43
  8
3
 10
203.04879399999999
 20
89.987125000000006
 30
0.0
 11
303.44133799999997
 21
89.987125000000006
 31
0.0
  0
LINE
  5
44
  8
0
 10
203.04879399999999
 20
112.363125
 30
0.0
 11
301.81733800000001
 21
112.363125
 31
0.0
  0
LINE
  5
45
  8
3
 10
203.04879399999999
 20
110.739125
 30
0.0
 11
303.44133799999997
 21
110.739125
 31
0.0
  0
LINE
  5
46
  8
0
 10
184.62614400000001
 20
177.364499
 30
0.0
 11
203.04879399999999
 21
177.364499
 31
0.0
  0
LINE
  5
47
  8
0
 10
184.04879399999999
 20
178.364499
 30
0.0
 11
184.62614400000001
 21
177.364499
 31
0.0
  0
ARC
  5
48
  8
0
 10
210.62133499999999
 20
186.364499
 30
0.0
 40
25.995190999999998
 50
159.743842
 51
200.256158
  0
ARC
  5
49
  8
0
 10
210.62133499999999
 20
204.364499
 30
0.0
 40
25.995190999999998
 50
159.743842
 51
200.256158
  0
LINE
  5
4A
  8
0
 10
184.04879399999999
 20
212.364499
 30
0.0
 11
184.62614400000001
 21
213.364499
 31
0.0
  0
LINE
  5
4B
  8
0
 10
184.04879399999999
 20
178.364499
 30
0.0
 11
184.04879399999999
 21
212.364499
 31
0.0
  0
LINE
  5
4C
  8
0
 10
184.62614400000001
 20
213.364499
 30
0.0
 11
203.04879399999999
 21
213.364499
 31
0.0
  0
LINE
  5
4D
  8
0
 10
186.23383999999999
 20
195.364499
 30
0.0
 11
203.04879399999999
 21
195.364499
 31
0.0
  0
LINE
  5
4E
  8
0
 10
203.04879399999999
 20
177.364499
 30
0.0
 11
203.04879399999999
 21
213.364499
 31
0.0
  0
LINE
  5
4F
  8
0
 10
186.23383999999999
 20
121.147735
 30
0.0
 11
203.04879399999999
 21
121.147735
 31
0.0
  0
LINE
  5
50
  8
0
 10
184.04879399999999
 20
117.363125
 30
0.0
 11
186.23383999999999
 21
121.147735
 31
0.0
  0
ARC
  5
51
  8
0
 10
193.82710599999999
 20
115.951582
 30
0.0
 40
9.2009619999999988
 50
154.38424699999999
 51
214.38424699999999
  0
ARC
  5
52
  8
0
 10
193.82710599999999
 20
84.774668000000005
 30
0.0
 40
9.2009619999999988
 50
145.61575300000001
 51
205.61575300000001
  0
ARC
  5
53
  8
0
 10
219.018449
 20
100.363125
 30
0.0
 40
34.392305
 50
162.412046
 51
197.587954
  0
LINE
  5
54
  8
0
 10
186.23383999999999
 20
110.75543
 30
0.0
 11
203.04879399999999
 21
110.75543
 31
0.0
  0
LINE
  5
55
  8
0
 10
186.23383999999999
 20
89.970819999999975
 30
0.0
 11
203.04879399999999
 21
89.970819999999975
 31
0.0
  0
LINE
  5
56
  8
0
 10
184.04879399999999
 20
83.363124999999997
 30
0.0
 11
186.23383999999999
 21
79.578514999999996
 31
0.0
  0
LINE
  5
57
  8
0
 10
186.23383999999999
 20
79.578514999999996
 30
0.0
 11
203.04879399999999
 21
79.578514999999996
 31
0.0
  0
LINE
  5
58
  8
0
 10
184.04879399999999
 20
83.363124999999997
 30
0.0
 11
184.04879399999999
 21
117.363125
 31
0.0
  0
LINE
  5
59
  8
0
 10
203.04879399999999
 20
79.578514999999996
 30
0.0
 11
203.04879399999999
 21
121.147735
 31
0.0
  0
ARC
  5
5A
  8
0
 10
99.168191000000007
 20
100.363125
 30
0.0
 40
11.113993000000001
 50
124.84990500000001
 51
235.15009499999999
  0
LINE
  5
5B
  8
2
 10
93.017337999999995
 20
182.614499
 30
0.0
 11
102.617338
 21
182.614499
 31
0.0
  0
LINE
  5
5C
  8
2
 10
93.017337999999995
 20
208.114499
 30
0.0
 11
102.617338
 21
208.114499
 31
0.0
  0
LINE
  5
5D
  8
2
 10
102.617338
 20
208.114499
 30
0.0
 11
103.617338
 21
209.114499
 31
0.0
  0
LINE
  5
5E
  8
2
 10
102.617338
 20
182.614499
 30
0.0
 11
103.617338
 21
181.614499
 31
0.0
  0
LINE
  5
5F
  8
2
 10
93.017337999999995
 20
182.614499
 30
0.0
 11
92.017337999999995
 21
181.614499
 31
0.0
  0
LINE
  5
60
  8
2
 10
92.017337999999995
 20
209.114499
 30
0.0
 11
93.017337999999995
 21
208.114499
 31
0.0
  0
LINE
  5
61
  8
2
 10
102.617338
 20
208.114499
 30
0.0
 11
102.617338
 21
182.614499
 31
0.0
  0
LINE
  5
62
  8
2
 10
93.017337999999995
 20
208.114499
 30
0.0
 11
93.017337999999995
 21
182.614499
 31
0.0
  0
LINE
  5
63
  8
0
 10
88.054198000000014
 20
181.614499
 30
0.0
 11
114.81733800000001
 21
181.614499
 31
0.0
  0
LINE
  5
64
  8
0
 10
88.054198000000014
 20
209.114499
 30
0.0
 11
114.81733800000001
 21
209.114499
 31
0.0
  0
LINE
  5
65
  8
0
 10
92.817338000000007
 20
91.242406999999986
 30
0.0
 11
114.81733800000001
 21
91.242406999999986
 31
0.0
  0
LINE
  5
66
  8
0
 10
92.817338000000007
 20
109.48384299999999
 30
0.0
 11
114.81733800000001
 21
109.48384299999999
 31
0.0
  0
ARC
  5
67
  8
0
 10
137.31733800000001
 20
178.864499
 30
0.0
 40
4.5
 50
90.0
 51
179.99988300000001
  0
ARC
  5
68
  8
0
 10
137.31733800000001
 20
211.864499
 30
0.0
 40
4.5
 50
180.0001169999999
 51
270.0
  0
LINE
  5
69
  8
0
 10
304.81733800000001
 20
204.364499
 30
0.0
 11
304.81733800000001
 21
186.364499
 31
0.0
  0
LINE
  5
6A
  8
0
 10
137.31733800000001
 20
183.364499
 30
0.0
 11
184.04879399999999
 21
183.364499
 31
0.0
  0
LINE
  5
6B
  8
3
 10
141.81733799999989
 20
184.9884989999999
 30
0.0
 11
184.04879399999999
 21
184.9884989999999
 31
0.0
  0
LINE
  5
6C
  8
3
 10
141.81733799999989
 20
205.740499
 30
0.0
 11
184.04879399999999
 21
205.740499
 31
0.0
  0
LINE
  5
6D
  8
0
 10
137.31733800000001
 20
207.364499
 30
0.0
 11
184.04879399999999
 21
207.364499
 31
0.0
  0
LINE
  5
6E
  8
0
 10
301.81733800000001
 20
207.364499
 30
0.0
 11
304.81733800000001
 21
204.364499
 31
0.0
  0
LINE
  5
6F
  8
0
 10
304.81733800000001
 20
186.364499
 30
0.0
 11
301.81733800000001
 21
183.364499
 31
0.0
  0
LINE
  5
70
  8
0
 10
301.81733800000001
 20
207.364499
 30
0.0
 11
301.81733800000001
 21
183.364499
 31
0.0
  0
LINE
  5
71
  8
0
 10
141.81733799999989
 20
183.364499
 30
0.0
 11
141.81733799999989
 21
207.364499
 31
0.0
  0
LINE
  5
72
  8
3
 10
141.81733799999989
 20
205.740499
 30
0.0
 11
139.00448700000001
 21
207.364499
 31
0.0
  0
LINE
  5
73
  8
3
 10
141.81733799999989
 20
184.9884989999999
 30
0.0
 11
139.00448700000001
 21
183.364499
 31
0.0
  0
ARC
  5
74
  8
0
 10
137.31733800000001
 20
83.863124999999997
 30
0.0
 40
4.5
 50
90.0
 51
179.99988300000001
  0
ARC
  5
75
  8
0
 10
137.31733800000001
 20
116.863125
 30
0.0
 40
4.5
 50
180.0001169999999
 51
270.0
  0
LINE
  5
76
  8
0
 10
132.81733799999989
 20
178.864499
 30
0.0
 11
132.81733799999989
 21
211.864499
 31
0.0
  0
LINE
  5
77
  8
3
 10
141.81733799999989
 20
89.987125000000006
 30
0.0
 11
139.00448700000001
 21
88.363124999999997
 31
0.0
  0
LINE
  5
78
  8
3
 10
141.81733799999989
 20
110.739125
 30
0.0
 11
139.00448700000001
 21
112.363125
 31
0.0
  0
LINE
  5
79
  8
0
 10
141.81733799999989
 20
88.363124999999997
 30
0.0
 11
141.81733799999989
 21
112.363125
 31
0.0
  0
LINE
  5
7A
  8
0
 10
301.81733800000001
 20
112.363125
 30
0.0
 11
301.81733800000001
 21
88.363124999999997
 31
0.0
  0
LINE
  5
7B
  8
0
 10
304.81733800000001
 20
91.363124999999997
 30
0.0
 11
301.81733800000001
 21
88.363124999999997
 31
0.0
  0
LINE
  5
7C
  8
0
 10
301.81733800000001
 20
112.363125
 30
0.0
 11
304.81733800000001
 21
109.363125
 31
0.0
  0
LINE
  5
7D
  8
0
 10
137.31733800000001
 20
112.363125
 30
0.0
 11
184.04879399999999
 21
112.363125
 31
0.0
  0
LINE
  5
7E
  8
3
 10
141.81733799999989
 20
110.739125
 30
0.0
 11
184.04879399999999
 21
110.739125
 31
0.0
  0
LINE
  5
7F
  8
3
 10
141.81733799999989
 20
89.987125000000006
 30
0.0
 11
184.04879399999999
 21
89.987125000000006
 31
0.0
  0
LINE
  5
80
  8
0
 10
137.31733800000001
 20
88.363124999999997
 30
0.0
 11
184.04879399999999
 21
88.363124999999997
 31
0.0
  0
LINE
  5
81
  8
0
 10
304.81733800000001
 20
109.363125
 30
0.0
 11
304.81733800000001
 21
91.363124999999997
 31
0.0
  0
LINE
  5
82
  8
2
 10
21.808351999999999
 20
105.16312499999999
 30
0.0
 11
21.808351999999999
 21
95.563124999999999
 31
0.0
  0
LINE
  5
83
  8
2
 10
47.308351999999999
 20
105.16312499999999
 30
0.0
 11
47.308351999999999
 21
95.563124999999999
 31
0.0
  0
LINE
  5
84
  8
2
 10
47.308351999999999
 20
95.563124999999999
 30
0.0
 11
48.308351999999999
 21
94.563125000000014
 31
0.0
  0
LINE
  5
85
  8
2
 10
21.808351999999999
 20
95.563124999999999
 30
0.0
 11
20.808351999999999
 21
94.563125000000014
 31
0.0
  0
LINE
  5
86
  8
2
 10
21.808351999999999
 20
105.16312499999999
 30
0.0
 11
20.808351999999999
 21
106.16312499999999
 31
0.0
  0
LINE
  5
87
  8
2
 10
48.308351999999999
 20
106.16312499999999
 30
0.0
 11
47.308351999999999
 21
105.16312499999999
 31
0.0
  0
LINE
  5
88
  8
0
 10
20.808351999999999
 20
91.505499905994952
 30
0.0
 11
20.808351999999999
 21
109.2929901833711
 31
0.0
  0
LINE
  5
89
  8
0
 10
48.308351999999999
 20
91.50797537976041
 30
0.0
 11
48.308351999999999
 21
109.2699256745619
 31
0.0
  0
LINE
  5
8A
  8
2
 10
47.308351999999999
 20
95.563124999999999
 30
0.0
 11
21.808351999999999
 21
95.563124999999999
 31
0.0
  0
LINE
  5
8B
  8
2
 10
47.308351999999999
 20
105.16312499999999
 30
0.0
 11
21.808351999999999
 21
105.16312499999999
 31
0.0
  0
LINE
  5
8C
  8
1
 10
77.817338000000007
 20
195.364499
 30
0.0
 11
311.503376
 21
195.364499
 31
0.0
  0
LINE
  5
8D
  8
1
 10
97.817338000000007
 20
110.263125
 30
0.0
 11
97.817338000000007
 21
90.463125000000005
 31
0.0
  0
LINE
  5
8E
  8
0
 10
92.817338000000007
 20
109.48384299999999
 30
0.0
 11
92.817338000000007
 21
116.863125
 31
0.0
  0
LINE
  5
8F
  8
0
 10
92.817338000000007
 20
83.863124999999997
 30
0.0
 11
92.817338000000007
 21
91.242406999999986
 31
0.0
  0
LINE
  5
90
  8
0
 10
88.054198000000014
 20
181.614499
 30
0.0
 11
82.817338000000007
 21
184.638002
 31
0.0
  0
LINE
  5
91
  8
0
 10
88.054198000000014
 20
209.114499
 30
0.0
 11
82.817338000000007
 21
206.09099699999999
 31
0.0
  0
LINE
  5
92
  8
0
 10
82.817338000000007
 20
184.638002
 30
0.0
 11
82.817338000000007
 21
206.09099699999999
 31
0.0
  0
LINE
  5
93
  8
0
 10
92.817338000000007
 20
116.863125
 30
0.0
 11
82.817338000000007
 21
111.08962200000001
 31
0.0
  0
LINE
  5
94
  8
0
 10
92.817338000000007
 20
83.863124999999997
 30
0.0
 11
82.817338000000007
 21
89.636627999999988
 31
0.0
  0
LINE
  5
95
  8
0
 10
92.817338000000007
 20
181.614499
 30
0.0
 11
92.817338000000007
 21
209.114499
 31
0.0
  0
LINE
  5
96
  8
0
 10
132.81733799999989
 20
83.863124999999997
 30
0.0
 11
132.81733799999989
 21
116.863125
 31
0.0
  0
LINE
  5
97
  8
0
 10
114.81733800000001
 20
209.114499
 30
0.0
 11
116.405051
 21
211.864499
 31
0.0
  0
LINE
  5
98
  8
0
 10
114.81733800000001
 20
181.614499
 30
0.0
 11
116.405051
 21
178.864499
 31
0.0
  0
LINE
  5
99
  8
0
 10
92.817338000000007
 20
116.863125
 30
0.0
 11
132.81733799999989
 21
116.863125
 31
0.0
  0
LINE
  5
9A
  8
0
 10
92.817338000000007
 20
83.863124999999997
 30
0.0
 11
132.81733799999989
 21
83.863124999999997
 31
0.0
  0
LINE
  5
9B
  8
0
 10
116.405051
 20
211.864499
 30
0.0
 11
132.81733799999989
 21
211.864499
 31
0.0
  0
LINE
  5
9C
  8
0
 10
116.405051
 20
178.864499
 30
0.0
 11
132.81733799999989
 21
178.864499
 31
0.0
  0
CIRCLE
  5
9D
  8
0
 10
97.817338000000007
 20
100.363125
 30
0.0
 40
4.9000000000000004
  0
LINE
  5
9E
  8
0
 10
82.817338000000007
 20
89.636627999999988
 30
0.0
 11
82.817338000000007
 21
111.08962200000001
 31
0.0
  0
CIRCLE
  5
9F
  8
0
 10
34.558351999999999
 20
100.363125
 30
0.0
 40
16.5
  0
CIRCLE
  5
A0
  8
0
 10
34.558351999999999
 20
100.363125
 30
0.0
 40
10.726497
  0
LINE
  5
A1
  8
1
 10
56.058351999999999
 20
100.363125
 30
0.0
 11
13.058351999999999
 21
100.363125
 31
0.0
  0
LINE
  5
A2
  8
1
 10
77.817338000000007
 20
100.363125
 30
0.0
 11
310.560271
 21
100.363125
 31
0.0
  0
LINE
  5
A3
  8
0
 10
114.81733800000001
 20
109.48384299999999
 30
0.0
 11
114.81733800000001
 21
91.242406999999986
 31
0.0
  0
ARC
  5
A4
  8
0
 10
89.413926000000004
 20
100.363125
 30
0.0
 40
26.991125
 50
340.25007699999998
 51
19.749922999999999
  0
LINE
  5
A5
  8
1
 10
97.817338000000007
 20
214.114499
 30
0.0
 11
97.817338000000007
 21
176.614499
 31
0.0
  0
LINE
  5
A6
  8
1
 10
369.19165600000002
 20
100.363125
 30
0.0
 11
326.19165600000002
 21
100.363125
 31
0.0
  0
LINE
  5
A7
  8
0
 10
347.69165600000002
 20
121.147735
 30
0.0
 11
365.69165600000002
 21
110.75543
 31
0.0
  0
LINE
  5
A8
  8
0
 10
329.69165600000002
 20
110.75543
 30
0.0
 11
347.69165600000002
 21
121.147735
 31
0.0
  0
LINE
  5
A9
  8
0
 10
329.69165600000002
 20
89.970819999999975
 30
0.0
 11
329.69165600000002
 21
110.75543
 31
0.0
  0
LINE
  5
AA
  8
0
 10
347.69165600000002
 20
79.578514999999996
 30
0.0
 11
329.69165600000002
 21
89.970819999999975
 31
0.0
  0
LINE
  5
AB
  8
0
 10
365.69165600000002
 20
89.970819999999975
 30
0.0
 11
347.69165600000002
 21
79.578514999999996
 31
0.0
  0
LINE
  5
AC
  8
0
 10
365.69165600000002
 20
110.75543
 30
0.0
 11
365.69165600000002
 21
89.970819999999975
 31
0.0
  0
LINE
  5
AD
  8
1
 10
347.69165600000002
 20
77.078514999999996
 30
0.0
 11
347.69165600000002
 21
123.647735
 31
0.0
  0
CIRCLE
  5
AE
  8
3
 10
347.69165600000002
 20
100.363125
 30
0.0
 40
10.375999999999999
  0
CIRCLE
  5
AF
  8
0
 10
347.69165600000002
 20
100.363125
 30
0.0
 40
12.0
  0
LINE
  5
B0
  8
1
 10
34.558351999999999
 20
77.078514999999996
 30
0.0
 11
34.558351999999999
 21
123.647735
 31
0.0
  0
TEXT
  5
1ED
  8
0
 62
     3
 10
0.0
 20
0.0
 30
0.0
 40
10.0
  1
CBS2-100-SUS
  7
STANDARD1
  0
ENDSEC
  0
EOF
