  0
SECTION
  2
HEADER
  9
$ACADVER
  1
AC1009
  9
$INSBASE
 10
0.0
 20
0.0
 30
0.0
  9
$EXTMIN
 10
0.0
 20
-2.960436562073669
 30
0.0
  9
$EXTMAX
 10
176.28399200000001
 20
113.099002
 30
0.0
  9
$LIMMIN
 10
0.0
 20
0.0
  9
$LIMMAX
 10
187.5
 20
135.0
  9
$ORTHOMODE
 70
     1
  9
$REGENMODE
 70
     1
  9
$FILLMODE
 70
     1
  9
$QTEXTMODE
 70
     0
  9
$MIRRTEXT
 70
     0
  9
$DRAGMODE
 70
     2
  9
$LTSCALE
 40
5.0
  9
$OSMODE
 70
  3071
  9
$ATTMODE
 70
     1
  9
$TEXTSIZE
 40
4.0
  9
$TRACEWID
 40
0.05
  9
$TEXTSTYLE
  7
STANDARD
  9
$CLAYER
  8
0
  9
$CELTYPE
  6
BYLAYER
  9
$CECOLOR
 62
   256
  9
$DIMSCALE
 40
0.5
  9
$DIMASZ
 40
3.0
  9
$DIMEXO
 40
2.0
  9
$DIMDLI
 40
0.38
  9
$DIMRND
 40
0.0
  9
$DIMDLE
 40
0.0
  9
$DIMEXE
 40
2.0
  9
$DIMTP
 40
0.0
  9
$DIMTM
 40
0.0
  9
$DIMTXT
 40
3.2000000000000002
  9
$DIMCEN
 40
0.0
  9
$DIMTSZ
 40
0.0
  9
$DIMTOL
 70
     0
  9
$DIMLIM
 70
     0
  9
$DIMTIH
 70
     0
  9
$DIMTOH
 70
     0
  9
$DIMSE1
 70
     0
  9
$DIMSE2
 70
     0
  9
$DIMTAD
 70
     1
  9
$DIMZIN
 70
     0
  9
$DIMBLK
  1

  9
$DIMASO
 70
     0
  9
$DIMSHO
 70
     0
  9
$DIMPOST
  1

  9
$DIMAPOST
  1

  9
$DIMALT
 70
     0
  9
$DIMALTD
 70
     2
  9
$DIMALTF
 40
25.399999999999999
  9
$DIMLFAC
 40
1.0
  9
$DIMTOFL
 70
     0
  9
$DIMTVP
 40
1.6000000000000001
  9
$DIMTIX
 70
     1
  9
$DIMSOXD
 70
     0
  9
$DIMSAH
 70
     0
  9
$DIMBLK1
  1

  9
$DIMBLK2
  1

  9
$DIMSTYLE
  2
STANDARD
  9
$DIMCLRD
 70
     0
  9
$DIMCLRE
 70
     0
  9
$DIMCLRT
 70
     0
  9
$DIMTFAC
 40
1.0
  9
$DIMGAP
 40
0.09
  9
$LUNITS
 70
     2
  9
$LUPREC
 70
     1
  9
$SKETCHINC
 40
0.1
  9
$FILLETRAD
 40
0.0
  9
$AUNITS
 70
     0
  9
$AUPREC
 70
     0
  9
$MENU
  1
E:\r13\win\SUPPORT\ACAD
  9
$ELEVATION
 40
0.0
  9
$PELEVATION
 40
0.0
  9
$THICKNESS
 40
0.0
  9
$LIMCHECK
 70
     0
  9
$BLIPMODE
 70
     0
  9
$CHAMFERA
 40
0.0
  9
$CHAMFERB
 40
0.0
  9
$SKPOLY
 70
     0
  9
$TDCREATE
 40
2449839.7789120371
  9
$TDUPDATE
 40
2456598.5800235192
  9
$TDINDWG
 40
0.0000915509
  9
$TDUSRTIMER
 40
0.0000915509
  9
$USRTIMER
 70
     1
  9
$ANGBASE
 50
0.0
  9
$ANGDIR
 70
     0
  9
$PDMODE
 70
     0
  9
$PDSIZE
 40
0.0
  9
$PLINEWID
 40
0.0
  9
$COORDS
 70
     1
  9
$SPLFRAME
 70
     0
  9
$SPLINETYPE
 70
     6
  9
$SPLINESEGS
 70
     8
  9
$ATTDIA
 70
     0
  9
$ATTREQ
 70
     1
  9
$HANDLING
 70
     1
  9
$HANDSEED
  5
259
  9
$SURFTAB1
 70
     6
  9
$SURFTAB2
 70
     6
  9
$SURFTYPE
 70
     6
  9
$SURFU
 70
     6
  9
$SURFV
 70
     6
  9
$UCSNAME
  2

  9
$UCSORG
 10
0.0
 20
0.0
 30
0.0
  9
$UCSXDIR
 10
1.0
 20
0.0
 30
0.0
  9
$UCSYDIR
 10
0.0
 20
1.0
 30
0.0
  9
$PUCSNAME
  2

  9
$PUCSORG
 10
0.0
 20
0.0
 30
0.0
  9
$PUCSXDIR
 10
1.0
 20
0.0
 30
0.0
  9
$PUCSYDIR
 10
0.0
 20
1.0
 30
0.0
  9
$USERI1
 70
     0
  9
$USERI2
 70
     1
  9
$USERI3
 70
     0
  9
$USERI4
 70
     0
  9
$USERI5
 70
     0
  9
$USERR1
 40
0.0
  9
$USERR2
 40
0.0
  9
$USERR3
 40
0.0
  9
$USERR4
 40
0.0
  9
$USERR5
 40
0.0
  9
$WORLDVIEW
 70
     1
  9
$SHADEDGE
 70
     3
  9
$SHADEDIF
 70
    70
  9
$TILEMODE
 70
     1
  9
$MAXACTVP
 70
    16
  9
$PLIMCHECK
 70
     0
  9
$PEXTMIN
 10
1.0000000000000000E+020
 20
1.0000000000000000E+020
 30
1.0000000000000000E+020
  9
$PEXTMAX
 10
-1.0000000000000000E+020
 20
-1.0000000000000000E+020
 30
-1.0000000000000000E+020
  9
$PLIMMIN
 10
0.0
 20
0.0
  9
$PLIMMAX
 10
12.0
 20
9.0
  9
$UNITMODE
 70
     0
  9
$VISRETAIN
 70
     0
  9
$PLINEGEN
 70
     0
  9
$PSLTSCALE
 70
     0
  0
ENDSEC
  0
SECTION
  2
TABLES
  0
TABLE
  2
VPORT
 70
     1
  0
VPORT
  2
*ACTIVE
 70
     0
 10
0.0
 20
0.0
 11
1.0
 21
1.0
 12
97.570150770051072
 22
66.014785922033241
 13
0.0
 23
0.0
 14
5.0
 24
5.0
 15
5.0
 25
5.0
 16
0.0
 26
0.0
 36
1.0
 17
0.0
 27
0.0
 37
0.0
 40
139.20783109903601
 41
1.831871345029239
 42
50.0
 43
0.0
 44
0.0
 50
0.0
 51
0.0
 71
     0
 72
   100
 73
     1
 74
     0
 75
     0
 76
     0
 77
     0
 78
     2
  0
ENDTAB
  0
TABLE
  2
LTYPE
 70
     4
  0
LTYPE
  2
CONTINUOUS
 70
     0
  3
Solid Line
 72
    65
 73
     0
 40
0.0
  0
LTYPE
  2
CENTER
 70
     0
  3
____ _ ____ _ ____ _ ____ _ ____ _ ____ _ ____
 72
    65
 73
     4
 40
2.0
 49
1.25
 49
-0.25
 49
0.25
 49
-0.25
  0
LTYPE
  2
HIDDEN
 70
     0
  3
_ _ _ _ _ _ _ _ _ _ _ _ _ _ _ _ _ _ _ _ _ _ _
 72
    65
 73
     2
 40
0.375
 49
0.25
 49
-0.125
  0
LTYPE
  2
PHANTOM2
 70
     0
  3
___ _ _ ___ _ _ ___ _ _ ___ _ _
 72
    65
 73
     6
 40
1.25
 49
0.625
 49
-0.125
 49
0.125
 49
-0.125
 49
0.125
 49
-0.125
  0
ENDTAB
  0
TABLE
  2
LAYER
 70
     4
  0
LAYER
  2
0
 70
     0
 62
     7
  6
CONTINUOUS
  0
LAYER
  2
1
 70
     0
 62
     1
  6
CENTER
  0
LAYER
  2
3
 70
     0
 62
     3
  6
CONTINUOUS
  0
LAYER
  2
2
 70
     0
 62
     2
  6
HIDDEN
  0
ENDTAB
  0
TABLE
  2
STYLE
 70
     2
  0
STYLE
  2
STANDARD
 70
     0
 40
0.0
 41
1.0
 50
0.0
 71
     0
 42
4.0
  3
ROMANS
  4
BIGFONT
  0
STYLE
  2
STANDARD1
 70
     0
 40
0.0
 41
1.0
 50
0.0
 71
     0
 42
3.0
  3
txt
  4

  0
ENDTAB
  0
TABLE
  2
VIEW
 70
     1
  0
VIEW
  2
ALL
 70
     0
 40
175.0
 10
142.98110500000001
 20
87.5
 41
285.96221100000002
 11
0.0
 21
0.0
 31
1.0
 12
0.0
 22
0.0
 32
0.0
 42
0.0
 43
0.0
 44
0.0
 50
0.0
 71
     0
  0
ENDTAB
  0
TABLE
  2
UCS
 70
     0
  0
ENDTAB
  0
TABLE
  2
APPID
 70
     3
  0
APPID
  2
ACAD
 70
     0
  0
APPID
  2
ACAD_MLEADERVER
 70
     0
  0
APPID
  2
ACAD_NAV_VCDISPLAY
 70
     0
  0
ENDTAB
  0
TABLE
  2
DIMSTYLE
 70
     1
  0
DIMSTYLE
  2
STANDARD
 70
     0
  3

  4

  5

  6

  7

 40
1.0
 41
0.18
 42
0.0625
 43
0.38
 44
0.18
 45
0.0
 46
0.0
 47
0.0
 48
0.0
140
0.18
141
0.09
142
0.0
143
25.399999999999999
144
1.0
145
0.0
146
1.0
147
0.09
 71
     0
 72
     0
 73
     1
 74
     1
 75
     0
 76
     0
 77
     0
 78
     0
170
     0
171
     2
172
     0
173
     0
174
     0
175
     0
176
     0
177
     0
178
     0
  0
ENDTAB
  0
ENDSEC
  0
SECTION
  2
BLOCKS
  0
BLOCK
  8
0
  2
$MODEL_SPACE
 70
     0
 10
0.0
 20
0.0
 30
0.0
  3
$MODEL_SPACE
  1

  0
ENDBLK
  5
10D
  8
0
  0
BLOCK
 67
     1
  8
0
  2
$PAPER_SPACE
 70
     0
 10
0.0
 20
0.0
 30
0.0
  3
$PAPER_SPACE
  1

  0
ENDBLK
  5
10B
 67
     1
  8
0
  0
ENDSEC
  0
SECTION
  2
ENTITIES
  0
CIRCLE
  5
37
  8
0
 10
25.364122999999999
 20
50.958198000000003
 30
0.0
 40
8.25
  0
LINE
  5
38
  8
0
 10
25.364122999999999
 20
60.773153000000001
 30
0.0
 11
16.864122999999999
 21
55.865676000000001
 31
0.0
  0
LINE
  5
39
  8
0
 10
33.864122999999999
 20
55.865676000000001
 30
0.0
 11
25.364122999999999
 21
60.773153000000001
 31
0.0
  0
LINE
  5
3A
  8
0
 10
33.864122999999999
 20
46.050721000000003
 30
0.0
 11
33.864122999999999
 21
55.865676000000001
 31
0.0
  0
LINE
  5
3B
  8
0
 10
25.364122999999999
 20
41.143244000000003
 30
0.0
 11
33.864122999999999
 21
46.050721000000003
 31
0.0
  0
LINE
  5
3C
  8
0
 10
16.864122999999999
 20
46.050721000000003
 30
0.0
 11
25.364122999999999
 21
41.143244000000003
 31
0.0
  0
LINE
  5
3D
  8
0
 10
16.864122999999999
 20
55.865676000000001
 30
0.0
 11
16.864122999999999
 21
46.050721000000003
 31
0.0
  0
LINE
  5
3E
  8
0
 10
102.65995700000001
 20
107.599002
 30
0.0
 11
139.91269700000001
 21
107.599002
 31
0.0
  0
LINE
  5
3F
  8
3
 10
102.65995700000001
 20
106.787002
 30
0.0
 11
140.72469699999999
 21
106.787002
 31
0.0
  0
LINE
  5
40
  8
3
 10
102.65995700000001
 20
98.411001999999996
 30
0.0
 11
140.72469699999999
 21
98.411001999999996
 31
0.0
  0
LINE
  5
41
  8
0
 10
102.65995700000001
 20
97.599001999999999
 30
0.0
 11
139.91269700000001
 21
97.599001999999999
 31
0.0
  0
LINE
  5
42
  8
0
 10
102.65995700000001
 20
45.958198000000003
 30
0.0
 11
139.91269700000001
 21
45.958198000000003
 31
0.0
  0
LINE
  5
43
  8
3
 10
102.65995700000001
 20
46.770198000000001
 30
0.0
 11
140.72469699999999
 21
46.770198000000001
 31
0.0
  0
LINE
  5
44
  8
0
 10
102.65995700000001
 20
55.958198000000003
 30
0.0
 11
139.91269700000001
 21
55.958198000000003
 31
0.0
  0
LINE
  5
45
  8
3
 10
102.65995700000001
 20
55.146197999999998
 30
0.0
 11
140.72469699999999
 21
55.146197999999998
 31
0.0
  0
ARC
  5
46
  8
0
 10
107.079802
 20
106.849002
 30
0.0
 40
12.275506999999999
 50
159.743842
 51
200.256158
  0
LINE
  5
47
  8
0
 10
94.804294999999996
 20
111.099002
 30
0.0
 11
94.659956999999977
 21
110.849002
 31
0.0
  0
LINE
  5
48
  8
0
 10
94.804294999999996
 20
111.099002
 30
0.0
 11
102.65995700000001
 21
111.099002
 31
0.0
  0
LINE
  5
49
  8
0
 10
95.563484000000003
 20
102.599002
 30
0.0
 11
102.65995700000001
 21
102.599002
 31
0.0
  0
LINE
  5
4A
  8
0
 10
94.804294999999996
 20
94.099001999999999
 30
0.0
 11
102.65995700000001
 21
94.099001999999999
 31
0.0
  0
LINE
  5
4B
  8
0
 10
94.804294999999996
 20
94.099001999999999
 30
0.0
 11
94.659956999999977
 21
94.349001999999984
 31
0.0
  0
ARC
  5
4C
  8
0
 10
107.079802
 20
98.349001999999984
 30
0.0
 40
12.275506999999999
 50
159.743842
 51
200.256158
  0
LINE
  5
4D
  8
0
 10
94.659956999999977
 20
110.849002
 30
0.0
 11
94.659956999999977
 21
94.349001999999984
 31
0.0
  0
LINE
  5
4E
  8
0
 10
102.65995700000001
 20
111.099002
 30
0.0
 11
102.65995700000001
 21
94.099001999999999
 31
0.0
  0
ARC
  5
4F
  8
0
 10
99.149193999999994
 20
43.596981999999997
 30
0.0
 40
4.344898999999999
 50
145.61575300000001
 51
205.61575300000001
  0
ARC
  5
50
  8
0
 10
111.04510500000001
 20
50.958198000000003
 30
0.0
 40
16.24081099999999
 50
162.412046
 51
197.587954
  0
LINE
  5
51
  8
0
 10
95.563484000000003
 20
41.143244000000003
 30
0.0
 11
94.659956999999977
 21
42.708197999999989
 31
0.0
  0
LINE
  5
52
  8
0
 10
95.563484000000003
 20
41.143244000000003
 30
0.0
 11
102.65995700000001
 21
41.143244000000003
 31
0.0
  0
LINE
  5
53
  8
0
 10
95.563484000000003
 20
46.050721000000003
 30
0.0
 11
102.65995700000001
 21
46.050721000000003
 31
0.0
  0
LINE
  5
54
  8
0
 10
95.563484000000003
 20
55.865676000000001
 30
0.0
 11
102.65995700000001
 21
55.865676000000001
 31
0.0
  0
LINE
  5
55
  8
0
 10
95.563484000000003
 20
60.773153000000001
 30
0.0
 11
102.65995700000001
 21
60.773153000000001
 31
0.0
  0
LINE
  5
56
  8
0
 10
95.563484000000003
 20
60.773153000000001
 30
0.0
 11
94.659956999999977
 21
59.208198000000003
 31
0.0
  0
ARC
  5
57
  8
0
 10
99.149193999999994
 20
58.319414000000002
 30
0.0
 40
4.344898999999999
 50
154.38424699999999
 51
214.38424699999999
  0
LINE
  5
58
  8
0
 10
94.659956999999977
 20
42.708197999999989
 30
0.0
 11
94.659956999999977
 21
59.208198000000003
 31
0.0
  0
LINE
  5
59
  8
0
 10
102.65995700000001
 20
41.143244000000003
 30
0.0
 11
102.65995700000001
 21
60.773153000000001
 31
0.0
  0
LINE
  5
5A
  8
0
 10
141.41269700000001
 20
106.099002
 30
0.0
 11
141.41269700000001
 21
99.099001999999999
 31
0.0
  0
LINE
  5
5B
  8
0
 10
73.412696999999994
 20
97.599001999999999
 30
0.0
 11
94.659956999999977
 21
97.599001999999999
 31
0.0
  0
LINE
  5
5C
  8
3
 10
76.412696999999994
 20
98.411001999999996
 30
0.0
 11
94.659956999999977
 21
98.411001999999996
 31
0.0
  0
LINE
  5
5D
  8
3
 10
76.412696999999994
 20
106.787002
 30
0.0
 11
94.659956999999977
 21
106.787002
 31
0.0
  0
LINE
  5
5E
  8
0
 10
73.412696999999994
 20
107.599002
 30
0.0
 11
94.659956999999977
 21
107.599002
 31
0.0
  0
LINE
  5
5F
  8
0
 10
139.91269700000001
 20
107.599002
 30
0.0
 11
141.41269700000001
 21
106.099002
 31
0.0
  0
LINE
  5
60
  8
0
 10
141.41269700000001
 20
99.099001999999999
 30
0.0
 11
139.91269700000001
 21
97.599001999999999
 31
0.0
  0
LINE
  5
61
  8
0
 10
76.412696999999994
 20
107.599002
 30
0.0
 11
76.412696999999994
 21
97.599001999999999
 31
0.0
  0
LINE
  5
62
  8
3
 10
76.412696999999994
 20
106.787002
 30
0.0
 11
75.006271999999996
 21
107.599002
 31
0.0
  0
LINE
  5
63
  8
3
 10
76.412696999999994
 20
98.411001999999996
 30
0.0
 11
75.006271999999996
 21
97.599001999999999
 31
0.0
  0
LINE
  5
64
  8
0
 10
139.91269700000001
 20
107.599002
 30
0.0
 11
139.91269700000001
 21
97.599001999999999
 31
0.0
  0
ARC
  5
65
  8
0
 10
73.412696999999994
 20
95.599001999999984
 30
0.0
 40
2.0
 50
90.0
 51
180.0
  0
ARC
  5
66
  8
0
 10
73.412696999999994
 20
109.599002
 30
0.0
 40
2.0
 50
180.0
 51
270.0
  0
ARC
  5
67
  8
0
 10
58.333554000000007
 20
50.958198000000003
 30
0.0
 40
4.851748999999999
 50
119.93159900000001
 51
240.06840099999999
  0
LINE
  5
68
  8
2
 10
55.412696999999987
 20
107.695526
 30
0.0
 11
59.412696999999987
 21
107.695526
 31
0.0
  0
LINE
  5
69
  8
2
 10
55.412696999999987
 20
97.502479000000008
 30
0.0
 11
59.412696999999987
 21
97.502479000000008
 31
0.0
  0
LINE
  5
6A
  8
2
 10
54.912697000000001
 20
97.002478999999994
 30
0.0
 11
55.412696999999987
 21
97.502479000000008
 31
0.0
  0
LINE
  5
6B
  8
2
 10
59.412696999999987
 20
97.502479000000008
 30
0.0
 11
59.912697000000001
 21
97.002478999999994
 31
0.0
  0
LINE
  5
6C
  8
2
 10
59.412696999999987
 20
107.695526
 30
0.0
 11
59.912697000000001
 21
108.195526
 31
0.0
  0
LINE
  5
6D
  8
2
 10
55.412696999999987
 20
107.695526
 30
0.0
 11
54.912697000000001
 21
108.195526
 31
0.0
  0
LINE
  5
6E
  8
2
 10
59.412696999999987
 20
107.695526
 30
0.0
 11
59.412696999999987
 21
97.502479000000008
 31
0.0
  0
LINE
  5
6F
  8
2
 10
55.412696999999987
 20
107.695526
 30
0.0
 11
55.412696999999987
 21
97.502479000000008
 31
0.0
  0
LINE
  5
70
  8
0
 10
53.481803999999997
 20
97.002478999999994
 30
0.0
 11
64.412696999999994
 21
97.002478999999994
 31
0.0
  0
LINE
  5
71
  8
0
 10
53.481803999999997
 20
108.195526
 30
0.0
 11
64.412696999999994
 21
108.195526
 31
0.0
  0
LINE
  5
72
  8
0
 10
55.912696999999987
 20
46.753566999999997
 30
0.0
 11
64.412696999999994
 21
46.753566999999997
 31
0.0
  0
LINE
  5
73
  8
0
 10
55.912696999999987
 20
55.162830000000007
 30
0.0
 11
64.412696999999994
 21
55.162830000000007
 31
0.0
  0
LINE
  5
74
  8
2
 10
30.460647000000002
 20
52.958198000000003
 30
0.0
 11
30.460647000000002
 21
48.958197999999989
 31
0.0
  0
LINE
  5
75
  8
2
 10
20.267600000000002
 20
52.958198000000003
 30
0.0
 11
20.267600000000002
 21
48.958197999999989
 31
0.0
  0
LINE
  5
76
  8
2
 10
19.767600000000002
 20
53.458198000000003
 30
0.0
 11
20.267600000000002
 21
52.958198000000003
 31
0.0
  0
LINE
  5
77
  8
2
 10
20.267600000000002
 20
48.958197999999989
 30
0.0
 11
19.767600000000002
 21
48.458198000000003
 31
0.0
  0
LINE
  5
78
  8
2
 10
30.460647000000002
 20
48.958197999999989
 30
0.0
 11
30.960647000000002
 21
48.458198000000003
 31
0.0
  0
LINE
  5
79
  8
2
 10
30.460647000000002
 20
52.958198000000003
 30
0.0
 11
30.960647000000002
 21
53.458198000000003
 31
0.0
  0
LINE
  5
7A
  8
2
 10
30.460647000000002
 20
48.958197999999989
 30
0.0
 11
20.267600000000002
 21
48.958197999999989
 31
0.0
  0
LINE
  5
7B
  8
2
 10
30.460647000000002
 20
52.958198000000003
 30
0.0
 11
20.267600000000002
 21
52.958198000000003
 31
0.0
  0
ARC
  5
7C
  8
0
 10
73.412696999999994
 20
43.958197999999989
 30
0.0
 40
2.0
 50
90.0
 51
180.0
  0
ARC
  5
7D
  8
0
 10
73.412696999999994
 20
57.958198000000003
 30
0.0
 40
2.0
 50
180.0
 51
270.0
  0
LINE
  5
7E
  8
0
 10
71.412696999999994
 20
57.958198000000003
 30
0.0
 11
71.412696999999994
 21
43.958197999999989
 31
0.0
  0
LINE
  5
7F
  8
0
 10
139.91269700000001
 20
55.958198000000003
 30
0.0
 11
139.91269700000001
 21
45.958198000000003
 31
0.0
  0
LINE
  5
80
  8
3
 10
76.412696999999994
 20
46.770198000000001
 30
0.0
 11
75.006271999999996
 21
45.958198000000003
 31
0.0
  0
LINE
  5
81
  8
3
 10
76.412696999999994
 20
55.146197999999998
 30
0.0
 11
75.006271999999996
 21
55.958198000000003
 31
0.0
  0
LINE
  5
82
  8
0
 10
76.412696999999994
 20
55.958198000000003
 30
0.0
 11
76.412696999999994
 21
45.958198000000003
 31
0.0
  0
LINE
  5
83
  8
0
 10
141.41269700000001
 20
47.458197999999989
 30
0.0
 11
139.91269700000001
 21
45.958198000000003
 31
0.0
  0
LINE
  5
84
  8
0
 10
139.91269700000001
 20
55.958198000000003
 30
0.0
 11
141.41269700000001
 21
54.458197999999989
 31
0.0
  0
LINE
  5
85
  8
0
 10
73.412696999999994
 20
55.958198000000003
 30
0.0
 11
94.659956999999977
 21
55.958198000000003
 31
0.0
  0
LINE
  5
86
  8
3
 10
76.412696999999994
 20
55.146197999999998
 30
0.0
 11
94.659956999999977
 21
55.146197999999998
 31
0.0
  0
LINE
  5
87
  8
3
 10
76.412696999999994
 20
46.770198000000001
 30
0.0
 11
94.659956999999977
 21
46.770198000000001
 31
0.0
  0
LINE
  5
88
  8
0
 10
73.412696999999994
 20
45.958198000000003
 30
0.0
 11
94.659956999999977
 21
45.958198000000003
 31
0.0
  0
LINE
  5
89
  8
0
 10
141.41269700000001
 20
54.458197999999989
 30
0.0
 11
141.41269700000001
 21
47.458197999999989
 31
0.0
  0
LINE
  5
8A
  8
1
 10
48.912696999999987
 20
102.599002
 30
0.0
 11
143.75868600000001
 21
102.599002
 31
0.0
  0
LINE
  5
8B
  8
1
 10
57.412697000000001
 20
113.099002
 30
0.0
 11
57.412697000000001
 21
92.099001999999984
 31
0.0
  0
LINE
  5
8C
  8
0
 10
53.481803999999997
 20
108.195526
 30
0.0
 11
51.412696999999987
 21
107.00092600000001
 31
0.0
  0
LINE
  5
8D
  8
0
 10
51.412696999999987
 20
107.00092600000001
 30
0.0
 11
51.412696999999987
 21
98.197078000000005
 31
0.0
  0
LINE
  5
8E
  8
0
 10
65.222994
 20
109.599002
 30
0.0
 11
71.412696999999994
 21
109.599002
 31
0.0
  0
LINE
  5
8F
  8
0
 10
64.412696999999994
 20
108.195526
 30
0.0
 11
65.222994
 21
109.599002
 31
0.0
  0
LINE
  5
90
  8
0
 10
64.412696999999994
 20
97.002478999999994
 30
0.0
 11
65.222994
 21
95.599001999999984
 31
0.0
  0
LINE
  5
91
  8
0
 10
65.222994
 20
95.599001999999984
 30
0.0
 11
71.412696999999994
 21
95.599001999999984
 31
0.0
  0
LINE
  5
92
  8
0
 10
53.481803999999997
 20
97.002478999999994
 30
0.0
 11
51.412696999999987
 21
98.197078000000005
 31
0.0
  0
LINE
  5
93
  8
0
 10
71.412696999999994
 20
109.599002
 30
0.0
 11
71.412696999999994
 21
95.599001999999984
 31
0.0
  0
LINE
  5
94
  8
0
 10
55.912696999999987
 20
97.002478999999994
 30
0.0
 11
55.912696999999987
 21
108.195526
 31
0.0
  0
LINE
  5
95
  8
0
 10
51.412696999999987
 20
55.360121999999997
 30
0.0
 11
51.412696999999987
 21
46.556274999999999
 31
0.0
  0
LINE
  5
96
  8
0
 10
55.912696999999987
 20
57.958198000000003
 30
0.0
 11
71.412696999999994
 21
57.958198000000003
 31
0.0
  0
LINE
  5
97
  8
0
 10
55.912696999999987
 20
57.958198000000003
 30
0.0
 11
55.912696999999987
 21
55.162830000000007
 31
0.0
  0
LINE
  5
98
  8
1
 10
57.412697000000001
 20
58.058197999999997
 30
0.0
 11
57.412697000000001
 21
43.858198000000002
 31
0.0
  0
LINE
  5
99
  8
0
 10
55.912696999999987
 20
57.958198000000003
 30
0.0
 11
51.412696999999987
 21
55.360121999999997
 31
0.0
  0
CIRCLE
  5
9A
  8
0
 10
57.412697000000001
 20
50.958198000000003
 30
0.0
 40
2.1000000000000001
  0
LINE
  5
9B
  8
0
 10
55.912696999999987
 20
43.958197999999989
 30
0.0
 11
51.412696999999987
 21
46.556274999999999
 31
0.0
  0
LINE
  5
9C
  8
0
 10
55.912696999999987
 20
43.958197999999989
 30
0.0
 11
55.912696999999987
 21
46.753566999999997
 31
0.0
  0
LINE
  5
9D
  8
0
 10
55.912696999999987
 20
43.958197999999989
 30
0.0
 11
71.412696999999994
 21
43.958197999999989
 31
0.0
  0
CIRCLE
  5
9E
  8
0
 10
25.364122999999999
 20
50.958198000000003
 30
0.0
 40
4.4019240000000002
  0
CIRCLE
  5
9F
  8
0
 10
25.364122999999999
 20
50.958198000000003
 30
0.0
 40
7.0
  0
LINE
  5
A0
  8
1
 10
48.912696999999987
 20
50.958198000000003
 30
0.0
 11
143.91269700000001
 21
50.958198000000003
 31
0.0
  0
LINE
  5
A1
  8
1
 10
37.364122999999999
 20
50.958198000000003
 30
0.0
 11
13.364122999999999
 21
50.958198000000003
 31
0.0
  0
LINE
  5
A2
  8
1
 10
25.364122999999999
 20
62.958198000000003
 30
0.0
 11
25.364122999999999
 21
38.958198000000003
 31
0.0
  0
LINE
  5
A3
  8
0
 10
64.412696999999994
 20
55.162830000000007
 30
0.0
 11
64.412696999999994
 21
46.753566999999997
 31
0.0
  0
ARC
  5
A4
  8
0
 10
53.908935999999997
 20
50.958198000000003
 30
0.0
 40
11.314057999999999
 50
338.18388700000003
 51
21.816113000000001
  0
LINE
  5
A5
  8
0
 10
30.964123000000001
 20
46.758198
 30
0.0
 11
30.964123000000001
 21
55.158197999999999
 31
0.0
  0
LINE
  5
A6
  8
0
 10
19.764123000000001
 20
46.758198
 30
0.0
 11
19.764123000000001
 21
55.158197999999999
 31
0.0
  0
LINE
  5
A7
  8
1
 10
164.28399200000001
 20
62.958198000000003
 30
0.0
 11
164.28399200000001
 21
38.958198000000003
 31
0.0
  0
LINE
  5
A8
  8
1
 10
176.28399200000001
 20
50.958198000000003
 30
0.0
 11
152.28399200000001
 21
50.958198000000003
 31
0.0
  0
LINE
  5
A9
  8
0
 10
155.78399200000001
 20
55.865676000000001
 30
0.0
 11
155.78399200000001
 21
46.050721000000003
 31
0.0
  0
LINE
  5
AA
  8
0
 10
155.78399200000001
 20
46.050721000000003
 30
0.0
 11
164.28399200000001
 21
41.143244000000003
 31
0.0
  0
LINE
  5
AB
  8
0
 10
164.28399200000001
 20
41.143244000000003
 30
0.0
 11
172.78399200000001
 21
46.050721000000003
 31
0.0
  0
LINE
  5
AC
  8
0
 10
172.78399200000001
 20
46.050721000000003
 30
0.0
 11
172.78399200000001
 21
55.865676000000001
 31
0.0
  0
LINE
  5
AD
  8
0
 10
172.78399200000001
 20
55.865676000000001
 30
0.0
 11
164.28399200000001
 21
60.773153000000001
 31
0.0
  0
LINE
  5
AE
  8
0
 10
164.28399200000001
 20
60.773153000000001
 30
0.0
 11
155.78399200000001
 21
55.865676000000001
 31
0.0
  0
CIRCLE
  5
AF
  8
0
 10
164.28399200000001
 20
50.958198000000003
 30
0.0
 40
5.0
  0
CIRCLE
  5
B0
  8
3
 10
164.28399200000001
 20
50.958198000000003
 30
0.0
 40
4.1879999999999988
  0
TEXT
  5
1C8
  8
0
 62
     3
 10
0.0
 20
0.0
 30
0.0
 40
10.0
  1
CBS2-40
  7
STANDARD1
  0
ENDSEC
  0
EOF
