  0
SECTION
  2
HEADER
  9
$ACADVER
  1
AC1009
  9
$INSBASE
 10
0.0
 20
0.0
 30
0.0
  9
$EXTMIN
 10
0.0
 20
-2.960436562073669
 30
0.0
  9
$EXTMAX
 10
306.43229700000001
 20
196.152897
 30
0.0
  9
$LIMMIN
 10
0.0
 20
0.0
  9
$LIMMAX
 10
375.0
 20
270.0
  9
$ORTHOMODE
 70
     1
  9
$REGENMODE
 70
     1
  9
$FILLMODE
 70
     1
  9
$QTEXTMODE
 70
     0
  9
$MIRRTEXT
 70
     0
  9
$DRAGMODE
 70
     2
  9
$LTSCALE
 40
10.0
  9
$OSMODE
 70
  3071
  9
$ATTMODE
 70
     1
  9
$TEXTSIZE
 40
4.0
  9
$TRACEWID
 40
0.05
  9
$TEXTSTYLE
  7
STANDARD
  9
$CLAYER
  8
0
  9
$CELTYPE
  6
BYLAYER
  9
$CECOLOR
 62
   256
  9
$DIMSCALE
 40
1.0
  9
$DIMASZ
 40
3.0
  9
$DIMEXO
 40
2.0
  9
$DIMDLI
 40
0.38
  9
$DIMRND
 40
0.0
  9
$DIMDLE
 40
0.0
  9
$DIMEXE
 40
2.0
  9
$DIMTP
 40
0.0
  9
$DIMTM
 40
0.0
  9
$DIMTXT
 40
3.2000000000000002
  9
$DIMCEN
 40
0.0
  9
$DIMTSZ
 40
0.0
  9
$DIMTOL
 70
     0
  9
$DIMLIM
 70
     0
  9
$DIMTIH
 70
     0
  9
$DIMTOH
 70
     0
  9
$DIMSE1
 70
     0
  9
$DIMSE2
 70
     0
  9
$DIMTAD
 70
     1
  9
$DIMZIN
 70
     0
  9
$DIMBLK
  1

  9
$DIMASO
 70
     0
  9
$DIMSHO
 70
     0
  9
$DIMPOST
  1

  9
$DIMAPOST
  1

  9
$DIMALT
 70
     0
  9
$DIMALTD
 70
     2
  9
$DIMALTF
 40
25.399999999999999
  9
$DIMLFAC
 40
1.0
  9
$DIMTOFL
 70
     0
  9
$DIMTVP
 40
1.6000000000000001
  9
$DIMTIX
 70
     1
  9
$DIMSOXD
 70
     0
  9
$DIMSAH
 70
     0
  9
$DIMBLK1
  1

  9
$DIMBLK2
  1

  9
$DIMSTYLE
  2
STANDARD
  9
$DIMCLRD
 70
     0
  9
$DIMCLRE
 70
     0
  9
$DIMCLRT
 70
     0
  9
$DIMTFAC
 40
1.0
  9
$DIMGAP
 40
0.09
  9
$LUNITS
 70
     2
  9
$LUPREC
 70
     1
  9
$SKETCHINC
 40
0.1
  9
$FILLETRAD
 40
0.0
  9
$AUNITS
 70
     0
  9
$AUPREC
 70
     0
  9
$MENU
  1
E:\r13\win\SUPPORT\ACAD
  9
$ELEVATION
 40
0.0
  9
$PELEVATION
 40
0.0
  9
$THICKNESS
 40
0.0
  9
$LIMCHECK
 70
     0
  9
$BLIPMODE
 70
     0
  9
$CHAMFERA
 40
0.0
  9
$CHAMFERB
 40
0.0
  9
$SKPOLY
 70
     0
  9
$TDCREATE
 40
2449839.7789351852
  9
$TDUPDATE
 40
2456598.580154282
  9
$TDINDWG
 40
0.0026366898
  9
$TDUSRTIMER
 40
0.0026366898
  9
$USRTIMER
 70
     1
  9
$ANGBASE
 50
0.0
  9
$ANGDIR
 70
     0
  9
$PDMODE
 70
     0
  9
$PDSIZE
 40
0.0
  9
$PLINEWID
 40
0.0
  9
$COORDS
 70
     1
  9
$SPLFRAME
 70
     0
  9
$SPLINETYPE
 70
     6
  9
$SPLINESEGS
 70
     8
  9
$ATTDIA
 70
     0
  9
$ATTREQ
 70
     1
  9
$HANDLING
 70
     1
  9
$HANDSEED
  5
272
  9
$SURFTAB1
 70
     6
  9
$SURFTAB2
 70
     6
  9
$SURFTYPE
 70
     6
  9
$SURFU
 70
     6
  9
$SURFV
 70
     6
  9
$UCSNAME
  2

  9
$UCSORG
 10
0.0
 20
0.0
 30
0.0
  9
$UCSXDIR
 10
1.0
 20
0.0
 30
0.0
  9
$UCSYDIR
 10
0.0
 20
1.0
 30
0.0
  9
$PUCSNAME
  2

  9
$PUCSORG
 10
0.0
 20
0.0
 30
0.0
  9
$PUCSXDIR
 10
1.0
 20
0.0
 30
0.0
  9
$PUCSYDIR
 10
0.0
 20
1.0
 30
0.0
  9
$USERI1
 70
     0
  9
$USERI2
 70
     1
  9
$USERI3
 70
     0
  9
$USERI4
 70
     0
  9
$USERI5
 70
     0
  9
$USERR1
 40
0.0
  9
$USERR2
 40
0.0
  9
$USERR3
 40
0.0
  9
$USERR4
 40
0.0
  9
$USERR5
 40
0.0
  9
$WORLDVIEW
 70
     1
  9
$SHADEDGE
 70
     3
  9
$SHADEDIF
 70
    70
  9
$TILEMODE
 70
     1
  9
$MAXACTVP
 70
    16
  9
$PLIMCHECK
 70
     0
  9
$PEXTMIN
 10
1.0000000000000000E+020
 20
1.0000000000000000E+020
 30
1.0000000000000000E+020
  9
$PEXTMAX
 10
-1.0000000000000000E+020
 20
-1.0000000000000000E+020
 30
-1.0000000000000000E+020
  9
$PLIMMIN
 10
0.0
 20
0.0
  9
$PLIMMAX
 10
12.0
 20
9.0
  9
$UNITMODE
 70
     0
  9
$VISRETAIN
 70
     0
  9
$PLINEGEN
 70
     0
  9
$PSLTSCALE
 70
     0
  0
ENDSEC
  0
SECTION
  2
TABLES
  0
TABLE
  2
VPORT
 70
     1
  0
VPORT
  2
*ACTIVE
 70
     0
 10
0.0
 20
0.0
 11
1.0
 21
1.0
 12
195.0581083320873
 22
133.5127261426681
 13
0.0
 23
0.0
 14
10.0
 24
10.0
 15
10.0
 25
10.0
 16
0.0
 26
0.0
 36
1.0
 17
0.0
 27
0.0
 37
0.0
 40
275.42274993631997
 41
1.831871345029239
 42
50.0
 43
0.0
 44
0.0
 50
0.0
 51
0.0
 71
     0
 72
   100
 73
     1
 74
     0
 75
     0
 76
     0
 77
     0
 78
     2
  0
ENDTAB
  0
TABLE
  2
LTYPE
 70
     4
  0
LTYPE
  2
CONTINUOUS
 70
     0
  3
Solid Line
 72
    65
 73
     0
 40
0.0
  0
LTYPE
  2
CENTER
 70
     0
  3
____ _ ____ _ ____ _ ____ _ ____ _ ____ _ ____
 72
    65
 73
     4
 40
2.0
 49
1.25
 49
-0.25
 49
0.25
 49
-0.25
  0
LTYPE
  2
HIDDEN
 70
     0
  3
_ _ _ _ _ _ _ _ _ _ _ _ _ _ _ _ _ _ _ _ _ _ _
 72
    65
 73
     2
 40
0.375
 49
0.25
 49
-0.125
  0
LTYPE
  2
PHANTOM2
 70
     0
  3
___ _ _ ___ _ _ ___ _ _ ___ _ _
 72
    65
 73
     6
 40
1.25
 49
0.625
 49
-0.125
 49
0.125
 49
-0.125
 49
0.125
 49
-0.125
  0
ENDTAB
  0
TABLE
  2
LAYER
 70
     4
  0
LAYER
  2
0
 70
     0
 62
     7
  6
CONTINUOUS
  0
LAYER
  2
1
 70
     0
 62
     1
  6
CENTER
  0
LAYER
  2
3
 70
     0
 62
     3
  6
CONTINUOUS
  0
LAYER
  2
2
 70
     0
 62
     2
  6
HIDDEN
  0
ENDTAB
  0
TABLE
  2
STYLE
 70
     2
  0
STYLE
  2
STANDARD
 70
     0
 40
0.0
 41
1.0
 50
0.0
 71
     0
 42
4.0
  3
ROMANS
  4
BIGFONT
  0
STYLE
  2
STANDARD1
 70
     0
 40
0.0
 41
1.0
 50
0.0
 71
     0
 42
3.0
  3
txt
  4

  0
ENDTAB
  0
TABLE
  2
VIEW
 70
     1
  0
VIEW
  2
ALL
 70
     0
 40
270.0
 10
220.59942000000001
 20
135.0
 41
441.19884000000002
 11
0.0
 21
0.0
 31
1.0
 12
0.0
 22
0.0
 32
0.0
 42
0.0
 43
0.0
 44
0.0
 50
0.0
 71
     0
  0
ENDTAB
  0
TABLE
  2
UCS
 70
     0
  0
ENDTAB
  0
TABLE
  2
APPID
 70
     3
  0
APPID
  2
ACAD
 70
     0
  0
APPID
  2
ACAD_MLEADERVER
 70
     0
  0
APPID
  2
ACAD_NAV_VCDISPLAY
 70
     0
  0
ENDTAB
  0
TABLE
  2
DIMSTYLE
 70
     1
  0
DIMSTYLE
  2
STANDARD
 70
     0
  3

  4

  5

  6

  7

 40
1.0
 41
0.18
 42
0.0625
 43
0.38
 44
0.18
 45
0.0
 46
0.0
 47
0.0
 48
0.0
140
0.18
141
0.09
142
0.0
143
25.399999999999999
144
1.0
145
0.0
146
1.0
147
0.09
 71
     0
 72
     0
 73
     1
 74
     1
 75
     0
 76
     0
 77
     0
 78
     0
170
     0
171
     2
172
     0
173
     0
174
     0
175
     0
176
     0
177
     0
178
     0
  0
ENDTAB
  0
ENDSEC
  0
SECTION
  2
BLOCKS
  0
BLOCK
  8
0
  2
$MODEL_SPACE
 70
     0
 10
0.0
 20
0.0
 30
0.0
  3
$MODEL_SPACE
  1

  0
ENDBLK
  5
10D
  8
0
  0
BLOCK
 67
     1
  8
0
  2
$PAPER_SPACE
 70
     0
 10
0.0
 20
0.0
 30
0.0
  3
$PAPER_SPACE
  1

  0
ENDBLK
  5
10B
 67
     1
  8
0
  0
ENDSEC
  0
SECTION
  2
ENTITIES
  0
LINE
  5
37
  8
0
 10
83.697569999999985
 20
120.50511
 30
0.0
 11
74.197569999999999
 21
115.02028300000001
 31
0.0
  0
LINE
  5
38
  8
0
 10
93.197569999999999
 20
115.02028300000001
 30
0.0
 11
83.697569999999985
 21
120.50511
 31
0.0
  0
LINE
  5
39
  8
0
 10
93.197569999999999
 20
104.050628
 30
0.0
 11
93.197569999999999
 21
115.02028300000001
 31
0.0
  0
LINE
  5
3A
  8
0
 10
83.697569999999985
 20
98.56580000000001
 30
0.0
 11
93.197569999999999
 21
104.050628
 31
0.0
  0
LINE
  5
3B
  8
0
 10
74.197569999999999
 20
104.050628
 30
0.0
 11
83.697569999999985
 21
98.56580000000001
 31
0.0
  0
CIRCLE
  5
3C
  8
0
 10
83.697569999999985
 20
109.535455
 30
0.0
 40
9.0
  0
LINE
  5
3D
  8
0
 10
74.197569999999999
 20
115.02028300000001
 30
0.0
 11
74.197569999999999
 21
104.050628
 31
0.0
  0
LINE
  5
3E
  8
0
 10
197.846778
 20
190.552897
 30
0.0
 11
245.548
 21
190.552897
 31
0.0
  0
LINE
  5
3F
  8
3
 10
197.846778
 20
189.605897
 30
0.0
 11
246.495
 21
189.605897
 31
0.0
  0
LINE
  5
40
  8
3
 10
197.846778
 20
179.499897
 30
0.0
 11
246.495
 21
179.499897
 31
0.0
  0
LINE
  5
41
  8
0
 10
197.846778
 20
178.552897
 30
0.0
 11
245.548
 21
178.552897
 31
0.0
  0
LINE
  5
42
  8
0
 10
197.846778
 20
103.535455
 30
0.0
 11
245.548
 21
103.535455
 31
0.0
  0
LINE
  5
43
  8
3
 10
197.846778
 20
104.482455
 30
0.0
 11
246.495
 21
104.482455
 31
0.0
  0
LINE
  5
44
  8
3
 10
197.846778
 20
114.588455
 30
0.0
 11
246.495
 21
114.588455
 31
0.0
  0
LINE
  5
45
  8
0
 10
197.846778
 20
115.535455
 30
0.0
 11
245.548
 21
115.535455
 31
0.0
  0
LINE
  5
46
  8
0
 10
188.13545300000001
 20
194.052897
 30
0.0
 11
187.846778
 21
193.552897
 31
0.0
  0
ARC
  5
47
  8
0
 10
201.85513700000001
 20
189.302897
 30
0.0
 40
13.719684000000001
 50
159.743842
 51
200.256158
  0
LINE
  5
48
  8
0
 10
197.846778
 20
194.052897
 30
0.0
 11
188.13545300000001
 21
194.052897
 31
0.0
  0
LINE
  5
49
  8
0
 10
197.846778
 20
175.052897
 30
0.0
 11
188.13545300000001
 21
175.052897
 31
0.0
  0
ARC
  5
4A
  8
0
 10
201.85513700000001
 20
179.802897
 30
0.0
 40
13.719684000000001
 50
159.743842
 51
200.256158
  0
LINE
  5
4B
  8
0
 10
188.13545300000001
 20
175.052897
 30
0.0
 11
187.846778
 21
175.552897
 31
0.0
  0
LINE
  5
4C
  8
0
 10
187.846778
 20
175.552897
 30
0.0
 11
187.846778
 21
193.552897
 31
0.0
  0
LINE
  5
4D
  8
0
 10
188.983959
 20
184.552897
 30
0.0
 11
197.846778
 21
184.552897
 31
0.0
  0
LINE
  5
4E
  8
0
 10
197.846778
 20
175.052897
 30
0.0
 11
197.846778
 21
194.052897
 31
0.0
  0
LINE
  5
4F
  8
0
 10
188.983959
 20
98.56580000000001
 30
0.0
 11
187.846778
 21
100.535455
 31
0.0
  0
ARC
  5
50
  8
0
 10
192.99151599999999
 20
101.30821400000001
 30
0.0
 40
4.8560629999999989
 50
145.61575300000001
 51
205.61575300000001
  0
ARC
  5
51
  8
0
 10
206.286947
 20
109.535455
 30
0.0
 40
18.151494
 50
162.412046
 51
197.587954
  0
ARC
  5
52
  8
0
 10
192.99151599999999
 20
117.76269600000001
 30
0.0
 40
4.8560629999999989
 50
154.38424699999999
 51
214.38424699999999
  0
LINE
  5
53
  8
0
 10
188.983959
 20
120.50511
 30
0.0
 11
187.846778
 21
118.535455
 31
0.0
  0
LINE
  5
54
  8
0
 10
187.846778
 20
100.535455
 30
0.0
 11
187.846778
 21
118.535455
 31
0.0
  0
LINE
  5
55
  8
0
 10
188.983959
 20
98.56580000000001
 30
0.0
 11
197.846778
 21
98.56580000000001
 31
0.0
  0
LINE
  5
56
  8
0
 10
188.983959
 20
104.050628
 30
0.0
 11
197.846778
 21
104.050628
 31
0.0
  0
LINE
  5
57
  8
0
 10
188.983959
 20
120.50511
 30
0.0
 11
197.846778
 21
120.50511
 31
0.0
  0
LINE
  5
58
  8
0
 10
188.983959
 20
115.02028300000001
 30
0.0
 11
197.846778
 21
115.02028300000001
 31
0.0
  0
LINE
  5
59
  8
0
 10
197.846778
 20
98.56580000000001
 30
0.0
 11
197.846778
 21
120.50511
 31
0.0
  0
ARC
  5
5A
  8
0
 10
144.107956
 20
109.535455
 30
0.0
 40
5.831237999999999
 50
121.651582
 51
238.34841800000001
  0
LINE
  5
5B
  8
0
 10
141.048
 20
104.571586
 30
0.0
 11
152.048
 21
104.571586
 31
0.0
  0
LINE
  5
5C
  8
0
 10
141.048
 20
114.499325
 30
0.0
 11
152.048
 21
114.499325
 31
0.0
  0
LINE
  5
5D
  8
2
 10
140.44799999999989
 20
178.152897
 30
0.0
 11
145.648
 21
178.152897
 31
0.0
  0
LINE
  5
5E
  8
2
 10
140.44799999999989
 20
190.95289700000001
 30
0.0
 11
145.648
 21
190.95289700000001
 31
0.0
  0
LINE
  5
5F
  8
2
 10
145.648
 20
178.152897
 30
0.0
 11
146.148
 21
177.652897
 31
0.0
  0
LINE
  5
60
  8
2
 10
139.94800000000001
 20
177.652897
 30
0.0
 11
140.44799999999989
 21
178.152897
 31
0.0
  0
LINE
  5
61
  8
2
 10
145.648
 20
190.95289700000001
 30
0.0
 11
146.148
 21
191.45289700000001
 31
0.0
  0
LINE
  5
62
  8
2
 10
139.94800000000001
 20
191.45289700000001
 30
0.0
 11
140.44799999999989
 21
190.95289700000001
 31
0.0
  0
LINE
  5
63
  8
2
 10
145.648
 20
190.95289700000001
 30
0.0
 11
145.648
 21
178.152897
 31
0.0
  0
LINE
  5
64
  8
2
 10
140.44799999999989
 20
190.95289700000001
 30
0.0
 11
140.44799999999989
 21
178.152897
 31
0.0
  0
LINE
  5
65
  8
0
 10
138.27671799999999
 20
177.652897
 30
0.0
 11
152.048
 21
177.652897
 31
0.0
  0
LINE
  5
66
  8
0
 10
138.27671799999999
 20
191.45289700000001
 30
0.0
 11
152.048
 21
191.45289700000001
 31
0.0
  0
LINE
  5
67
  8
2
 10
77.297569999999993
 20
112.13545499999999
 30
0.0
 11
77.297569999999993
 21
106.935455
 31
0.0
  0
LINE
  5
68
  8
2
 10
90.097569999999976
 20
112.13545499999999
 30
0.0
 11
90.097569999999976
 21
106.935455
 31
0.0
  0
LINE
  5
69
  8
2
 10
77.297569999999993
 20
106.935455
 30
0.0
 11
76.797569999999993
 21
106.435455
 31
0.0
  0
LINE
  5
6A
  8
2
 10
76.797569999999993
 20
112.63545499999999
 30
0.0
 11
77.297569999999993
 21
112.13545499999999
 31
0.0
  0
LINE
  5
6B
  8
2
 10
90.097569999999976
 20
106.935455
 30
0.0
 11
90.59756999999999
 21
106.435455
 31
0.0
  0
LINE
  5
6C
  8
2
 10
90.59756999999999
 20
112.63545499999999
 30
0.0
 11
90.097569999999976
 21
112.13545499999999
 31
0.0
  0
LINE
  5
6D
  8
0
 10
76.797569999999993
 20
104.8557916572026
 30
0.0
 11
76.797569999999993
 21
114.2178872653475
 31
0.0
  0
LINE
  5
6E
  8
0
 10
90.59756999999999
 20
104.8300576756556
 30
0.0
 11
90.59892363849751
 21
114.24166387296169
 31
0.0
  0
LINE
  5
6F
  8
2
 10
90.097569999999976
 20
106.935455
 30
0.0
 11
77.297569999999993
 21
106.935455
 31
0.0
  0
LINE
  5
70
  8
2
 10
90.097569999999976
 20
112.13545499999999
 30
0.0
 11
77.297569999999993
 21
112.13545499999999
 31
0.0
  0
ARC
  5
71
  8
0
 10
163.048
 20
176.052897
 30
0.0
 40
2.5
 50
90.0
 51
180.0
  0
ARC
  5
72
  8
0
 10
163.048
 20
193.052897
 30
0.0
 40
2.5
 50
180.0
 51
270.0
  0
LINE
  5
73
  8
0
 10
247.548
 20
188.552897
 30
0.0
 11
247.548
 21
180.552897
 31
0.0
  0
LINE
  5
74
  8
0
 10
163.048
 20
178.552897
 30
0.0
 11
187.846778
 21
178.552897
 31
0.0
  0
LINE
  5
75
  8
3
 10
166.548
 20
179.499897
 30
0.0
 11
187.846778
 21
179.499897
 31
0.0
  0
LINE
  5
76
  8
3
 10
166.548
 20
189.605897
 30
0.0
 11
187.846778
 21
189.605897
 31
0.0
  0
LINE
  5
77
  8
0
 10
163.048
 20
190.552897
 30
0.0
 11
187.846778
 21
190.552897
 31
0.0
  0
LINE
  5
78
  8
0
 10
247.548
 20
188.552897
 30
0.0
 11
245.548
 21
190.552897
 31
0.0
  0
LINE
  5
79
  8
0
 10
247.548
 20
180.552897
 30
0.0
 11
245.548
 21
178.552897
 31
0.0
  0
LINE
  5
7A
  8
0
 10
245.548
 20
190.552897
 30
0.0
 11
245.548
 21
178.552897
 31
0.0
  0
LINE
  5
7B
  8
0
 10
166.548
 20
178.552897
 30
0.0
 11
166.548
 21
190.552897
 31
0.0
  0
LINE
  5
7C
  8
3
 10
166.548
 20
189.605897
 30
0.0
 11
164.907748
 21
190.552897
 31
0.0
  0
LINE
  5
7D
  8
3
 10
166.548
 20
179.499897
 30
0.0
 11
164.907748
 21
178.552897
 31
0.0
  0
ARC
  5
7E
  8
0
 10
163.048
 20
101.035455
 30
0.0
 40
2.5
 50
90.0
 51
180.0
  0
ARC
  5
7F
  8
0
 10
163.048
 20
118.035455
 30
0.0
 40
2.5
 50
180.0
 51
270.0
  0
LINE
  5
80
  8
3
 10
166.548
 20
104.482455
 30
0.0
 11
164.907748
 21
103.535455
 31
0.0
  0
LINE
  5
81
  8
3
 10
166.548
 20
114.588455
 30
0.0
 11
164.907748
 21
115.535455
 31
0.0
  0
LINE
  5
82
  8
0
 10
166.548
 20
103.535455
 30
0.0
 11
166.548
 21
115.535455
 31
0.0
  0
LINE
  5
83
  8
0
 10
245.548
 20
115.535455
 30
0.0
 11
245.548
 21
103.535455
 31
0.0
  0
LINE
  5
84
  8
0
 10
247.548
 20
105.535455
 30
0.0
 11
245.548
 21
103.535455
 31
0.0
  0
LINE
  5
85
  8
0
 10
247.548
 20
113.535455
 30
0.0
 11
245.548
 21
115.535455
 31
0.0
  0
LINE
  5
86
  8
0
 10
163.048
 20
115.535455
 30
0.0
 11
187.846778
 21
115.535455
 31
0.0
  0
LINE
  5
87
  8
3
 10
166.548
 20
114.588455
 30
0.0
 11
187.846778
 21
114.588455
 31
0.0
  0
LINE
  5
88
  8
3
 10
166.548
 20
104.482455
 30
0.0
 11
187.846778
 21
104.482455
 31
0.0
  0
LINE
  5
89
  8
0
 10
163.048
 20
103.535455
 30
0.0
 11
187.846778
 21
103.535455
 31
0.0
  0
LINE
  5
8A
  8
0
 10
247.548
 20
113.535455
 30
0.0
 11
247.548
 21
105.535455
 31
0.0
  0
LINE
  5
8B
  8
1
 10
143.048
 20
196.152897
 30
0.0
 11
143.048
 21
172.95289700000001
 31
0.0
  0
LINE
  5
8C
  8
0
 10
138.27671799999999
 20
191.45289700000001
 30
0.0
 11
135.548
 21
189.8774709999999
 31
0.0
  0
LINE
  5
8D
  8
0
 10
141.048
 20
191.45289700000001
 30
0.0
 11
141.048
 21
177.652897
 31
0.0
  0
LINE
  5
8E
  8
0
 10
152.97175999999999
 20
193.052897
 30
0.0
 11
160.548
 21
193.052897
 31
0.0
  0
LINE
  5
8F
  8
0
 10
160.548
 20
193.052897
 30
0.0
 11
160.548
 21
176.052897
 31
0.0
  0
LINE
  5
90
  8
1
 10
133.048
 20
184.552897
 30
0.0
 11
249.82151099999999
 21
184.552897
 31
0.0
  0
LINE
  5
91
  8
0
 10
135.548
 20
189.8774709999999
 30
0.0
 11
135.548
 21
179.22832399999999
 31
0.0
  0
LINE
  5
92
  8
0
 10
152.97175999999999
 20
193.052897
 30
0.0
 11
152.048
 21
191.45289700000001
 31
0.0
  0
LINE
  5
93
  8
0
 10
152.97175999999999
 20
176.052897
 30
0.0
 11
152.048
 21
177.652897
 31
0.0
  0
LINE
  5
94
  8
0
 10
152.97175999999999
 20
176.052897
 30
0.0
 11
160.548
 21
176.052897
 31
0.0
  0
LINE
  5
95
  8
0
 10
138.27671799999999
 20
177.652897
 30
0.0
 11
135.548
 21
179.22832399999999
 31
0.0
  0
LINE
  5
96
  8
0
 10
135.548
 20
114.860029
 30
0.0
 11
135.548
 21
104.210882
 31
0.0
  0
LINE
  5
97
  8
1
 10
83.697569999999985
 20
121.85041
 30
0.0
 11
83.697569999999985
 21
97.220500999999999
 31
0.0
  0
LINE
  5
98
  8
1
 10
96.012525000000011
 20
109.535455
 30
0.0
 11
71.382615000000001
 21
109.535455
 31
0.0
  0
LINE
  5
99
  8
1
 10
133.048
 20
109.535455
 30
0.0
 11
250.048
 21
109.535455
 31
0.0
  0
CIRCLE
  5
9A
  8
0
 10
83.697569999999985
 20
109.535455
 30
0.0
 40
8.5
  0
LINE
  5
9B
  8
0
 10
160.548
 20
118.035455
 30
0.0
 11
160.548
 21
101.035455
 31
0.0
  0
LINE
  5
9C
  8
0
 10
141.048
 20
118.035455
 30
0.0
 11
160.548
 21
118.035455
 31
0.0
  0
LINE
  5
9D
  8
0
 10
141.048
 20
118.035455
 30
0.0
 11
141.048
 21
114.499325
 31
0.0
  0
LINE
  5
9E
  8
0
 10
141.048
 20
118.035455
 30
0.0
 11
135.548
 21
114.860029
 31
0.0
  0
CIRCLE
  5
9F
  8
0
 10
143.048
 20
109.535455
 30
0.0
 40
2.649999999999999
  0
LINE
  5
A0
  8
1
 10
143.048
 20
117.185455
 30
0.0
 11
143.048
 21
101.88545499999999
 31
0.0
  0
LINE
  5
A1
  8
0
 10
141.048
 20
101.035455
 30
0.0
 11
160.548
 21
101.035455
 31
0.0
  0
LINE
  5
A2
  8
0
 10
141.048
 20
101.035455
 30
0.0
 11
135.548
 21
104.210882
 31
0.0
  0
LINE
  5
A3
  8
0
 10
141.048
 20
104.571586
 30
0.0
 11
141.048
 21
101.035455
 31
0.0
  0
CIRCLE
  5
A4
  8
0
 10
83.697569999999985
 20
109.535455
 30
0.0
 40
5.3245740000000001
  0
LINE
  5
A5
  8
0
 10
152.048
 20
114.499325
 30
0.0
 11
152.048
 21
104.571586
 31
0.0
  0
ARC
  5
A6
  8
0
 10
139.173089
 20
109.535455
 30
0.0
 40
13.798671000000001
 50
338.91605800000002
 51
21.083942
  0
LINE
  5
A7
  8
1
 10
306.43229700000001
 20
109.535455
 30
0.0
 11
281.80238800000001
 21
109.535455
 31
0.0
  0
LINE
  5
A8
  8
1
 10
294.11734300000001
 20
121.85041
 30
0.0
 11
294.11734300000001
 21
97.220500999999999
 31
0.0
  0
LINE
  5
A9
  8
0
 10
284.61734300000001
 20
115.02028300000001
 30
0.0
 11
284.61734300000001
 21
104.050628
 31
0.0
  0
LINE
  5
AA
  8
0
 10
284.61734300000001
 20
104.050628
 30
0.0
 11
294.11734300000001
 21
98.56580000000001
 31
0.0
  0
LINE
  5
AB
  8
0
 10
294.11734300000001
 20
98.56580000000001
 30
0.0
 11
303.61734300000001
 21
104.050628
 31
0.0
  0
LINE
  5
AC
  8
0
 10
303.61734300000001
 20
104.050628
 30
0.0
 11
303.61734300000001
 21
115.02028300000001
 31
0.0
  0
LINE
  5
AD
  8
0
 10
303.61734300000001
 20
115.02028300000001
 30
0.0
 11
294.11734300000001
 21
120.50511
 31
0.0
  0
LINE
  5
AE
  8
0
 10
294.11734300000001
 20
120.50511
 30
0.0
 11
284.61734300000001
 21
115.02028300000001
 31
0.0
  0
CIRCLE
  5
AF
  8
0
 10
294.11734300000001
 20
109.535455
 30
0.0
 40
6.0
  0
CIRCLE
  5
B0
  8
3
 10
294.11734300000001
 20
109.535455
 30
0.0
 40
5.052999999999999
  0
TEXT
  5
1E1
  8
0
 62
     3
 10
0.0
 20
0.0
 30
0.0
 40
10.0
  1
CBS2-50-L
  7
STANDARD1
  0
ENDSEC
  0
EOF
