  0
SECTION
  2
HEADER
  9
$ACADVER
  1
AC1009
  9
$INSBASE
 10
0.0
 20
0.0
 30
0.0
  9
$EXTMIN
 10
0.0
 20
-2.960436562073669
 30
0.0
  9
$EXTMAX
 10
357.44234999999998
 20
198.88931299999999
 30
0.0
  9
$LIMMIN
 10
0.0
 20
0.0
  9
$LIMMAX
 10
375.0
 20
270.0
  9
$ORTHOMODE
 70
     1
  9
$REGENMODE
 70
     1
  9
$FILLMODE
 70
     1
  9
$QTEXTMODE
 70
     0
  9
$MIRRTEXT
 70
     0
  9
$DRAGMODE
 70
     2
  9
$LTSCALE
 40
10.0
  9
$OSMODE
 70
  3071
  9
$ATTMODE
 70
     1
  9
$TEXTSIZE
 40
4.0
  9
$TRACEWID
 40
0.05
  9
$TEXTSTYLE
  7
STANDARD
  9
$CLAYER
  8
0
  9
$CELTYPE
  6
BYLAYER
  9
$CECOLOR
 62
   256
  9
$DIMSCALE
 40
1.0
  9
$DIMASZ
 40
3.0
  9
$DIMEXO
 40
2.0
  9
$DIMDLI
 40
0.38
  9
$DIMRND
 40
0.0
  9
$DIMDLE
 40
0.0
  9
$DIMEXE
 40
2.0
  9
$DIMTP
 40
0.0
  9
$DIMTM
 40
0.0
  9
$DIMTXT
 40
3.2000000000000002
  9
$DIMCEN
 40
0.0
  9
$DIMTSZ
 40
0.0
  9
$DIMTOL
 70
     0
  9
$DIMLIM
 70
     0
  9
$DIMTIH
 70
     0
  9
$DIMTOH
 70
     0
  9
$DIMSE1
 70
     0
  9
$DIMSE2
 70
     0
  9
$DIMTAD
 70
     1
  9
$DIMZIN
 70
     0
  9
$DIMBLK
  1

  9
$DIMASO
 70
     0
  9
$DIMSHO
 70
     0
  9
$DIMPOST
  1

  9
$DIMAPOST
  1

  9
$DIMALT
 70
     0
  9
$DIMALTD
 70
     2
  9
$DIMALTF
 40
25.399999999999999
  9
$DIMLFAC
 40
1.0
  9
$DIMTOFL
 70
     0
  9
$DIMTVP
 40
1.6000000000000001
  9
$DIMTIX
 70
     1
  9
$DIMSOXD
 70
     0
  9
$DIMSAH
 70
     0
  9
$DIMBLK1
  1

  9
$DIMBLK2
  1

  9
$DIMSTYLE
  2
STANDARD
  9
$DIMCLRD
 70
     0
  9
$DIMCLRE
 70
     0
  9
$DIMCLRT
 70
     0
  9
$DIMTFAC
 40
1.0
  9
$DIMGAP
 40
0.09
  9
$LUNITS
 70
     2
  9
$LUPREC
 70
     1
  9
$SKETCHINC
 40
0.1
  9
$FILLETRAD
 40
0.0
  9
$AUNITS
 70
     0
  9
$AUPREC
 70
     0
  9
$MENU
  1
E:\r13\win\SUPPORT\ACAD
  9
$ELEVATION
 40
0.0
  9
$PELEVATION
 40
0.0
  9
$THICKNESS
 40
0.0
  9
$LIMCHECK
 70
     0
  9
$BLIPMODE
 70
     0
  9
$CHAMFERA
 40
0.0
  9
$CHAMFERB
 40
0.0
  9
$SKPOLY
 70
     0
  9
$TDCREATE
 40
2449839.7789699072
  9
$TDUPDATE
 40
2456598.5804079399
  9
$TDINDWG
 40
0.0019799884
  9
$TDUSRTIMER
 40
0.0019799884
  9
$USRTIMER
 70
     1
  9
$ANGBASE
 50
0.0
  9
$ANGDIR
 70
     0
  9
$PDMODE
 70
     0
  9
$PDSIZE
 40
0.0
  9
$PLINEWID
 40
0.0
  9
$COORDS
 70
     1
  9
$SPLFRAME
 70
     0
  9
$SPLINETYPE
 70
     6
  9
$SPLINESEGS
 70
     8
  9
$ATTDIA
 70
     0
  9
$ATTREQ
 70
     1
  9
$HANDLING
 70
     1
  9
$HANDSEED
  5
274
  9
$SURFTAB1
 70
     6
  9
$SURFTAB2
 70
     6
  9
$SURFTYPE
 70
     6
  9
$SURFU
 70
     6
  9
$SURFV
 70
     6
  9
$UCSNAME
  2

  9
$UCSORG
 10
0.0
 20
0.0
 30
0.0
  9
$UCSXDIR
 10
1.0
 20
0.0
 30
0.0
  9
$UCSYDIR
 10
0.0
 20
1.0
 30
0.0
  9
$PUCSNAME
  2

  9
$PUCSORG
 10
0.0
 20
0.0
 30
0.0
  9
$PUCSXDIR
 10
1.0
 20
0.0
 30
0.0
  9
$PUCSYDIR
 10
0.0
 20
1.0
 30
0.0
  9
$USERI1
 70
     0
  9
$USERI2
 70
     1
  9
$USERI3
 70
     0
  9
$USERI4
 70
     0
  9
$USERI5
 70
     0
  9
$USERR1
 40
0.0
  9
$USERR2
 40
0.0
  9
$USERR3
 40
0.0
  9
$USERR4
 40
0.0
  9
$USERR5
 40
0.0
  9
$WORLDVIEW
 70
     1
  9
$SHADEDGE
 70
     3
  9
$SHADEDIF
 70
    70
  9
$TILEMODE
 70
     1
  9
$MAXACTVP
 70
    16
  9
$PLIMCHECK
 70
     0
  9
$PEXTMIN
 10
1.0000000000000000E+020
 20
1.0000000000000000E+020
 30
1.0000000000000000E+020
  9
$PEXTMAX
 10
-1.0000000000000000E+020
 20
-1.0000000000000000E+020
 30
-1.0000000000000000E+020
  9
$PLIMMIN
 10
0.0
 20
0.0
  9
$PLIMMAX
 10
12.0
 20
9.0
  9
$UNITMODE
 70
     0
  9
$VISRETAIN
 70
     0
  9
$PLINEGEN
 70
     0
  9
$PSLTSCALE
 70
     0
  0
ENDSEC
  0
SECTION
  2
TABLES
  0
TABLE
  2
VPORT
 70
     1
  0
VPORT
  2
*ACTIVE
 70
     0
 10
0.0
 20
0.0
 11
1.0
 21
1.0
 12
195.0581083320873
 22
133.5127261426681
 13
0.0
 23
0.0
 14
10.0
 24
10.0
 15
10.0
 25
10.0
 16
0.0
 26
0.0
 36
1.0
 17
0.0
 27
0.0
 37
0.0
 40
275.42274993631997
 41
1.831871345029239
 42
50.0
 43
0.0
 44
0.0
 50
0.0
 51
0.0
 71
     0
 72
   100
 73
     1
 74
     0
 75
     0
 76
     0
 77
     0
 78
     2
  0
ENDTAB
  0
TABLE
  2
LTYPE
 70
     4
  0
LTYPE
  2
CONTINUOUS
 70
     0
  3
Solid Line
 72
    65
 73
     0
 40
0.0
  0
LTYPE
  2
CENTER
 70
     0
  3
____ _ ____ _ ____ _ ____ _ ____ _ ____ _ ____
 72
    65
 73
     4
 40
2.0
 49
1.25
 49
-0.25
 49
0.25
 49
-0.25
  0
LTYPE
  2
HIDDEN
 70
     0
  3
_ _ _ _ _ _ _ _ _ _ _ _ _ _ _ _ _ _ _ _ _ _ _
 72
    65
 73
     2
 40
0.375
 49
0.25
 49
-0.125
  0
LTYPE
  2
PHANTOM2
 70
     0
  3
___ _ _ ___ _ _ ___ _ _ ___ _ _
 72
    65
 73
     6
 40
1.25
 49
0.625
 49
-0.125
 49
0.125
 49
-0.125
 49
0.125
 49
-0.125
  0
ENDTAB
  0
TABLE
  2
LAYER
 70
     4
  0
LAYER
  2
0
 70
     0
 62
     7
  6
CONTINUOUS
  0
LAYER
  2
1
 70
     0
 62
     1
  6
CENTER
  0
LAYER
  2
3
 70
     0
 62
     3
  6
CONTINUOUS
  0
LAYER
  2
2
 70
     0
 62
     2
  6
HIDDEN
  0
ENDTAB
  0
TABLE
  2
STYLE
 70
     2
  0
STYLE
  2
STANDARD
 70
     0
 40
0.0
 41
1.0
 50
0.0
 71
     0
 42
4.0
  3
ROMANS
  4
BIGFONT
  0
STYLE
  2
STANDARD1
 70
     0
 40
0.0
 41
1.0
 50
0.0
 71
     0
 42
3.0
  3
txt
  4

  0
ENDTAB
  0
TABLE
  2
VIEW
 70
     1
  0
VIEW
  2
ALL
 70
     0
 40
270.0
 10
220.59942000000001
 20
135.0
 41
441.19884000000002
 11
0.0
 21
0.0
 31
1.0
 12
0.0
 22
0.0
 32
0.0
 42
0.0
 43
0.0
 44
0.0
 50
0.0
 71
     0
  0
ENDTAB
  0
TABLE
  2
UCS
 70
     0
  0
ENDTAB
  0
TABLE
  2
APPID
 70
     3
  0
APPID
  2
ACAD
 70
     0
  0
APPID
  2
ACAD_MLEADERVER
 70
     0
  0
APPID
  2
ACAD_NAV_VCDISPLAY
 70
     0
  0
ENDTAB
  0
TABLE
  2
DIMSTYLE
 70
     1
  0
DIMSTYLE
  2
STANDARD
 70
     0
  3

  4

  5

  6

  7

 40
1.0
 41
0.18
 42
0.0625
 43
0.38
 44
0.18
 45
0.0
 46
0.0
 47
0.0
 48
0.0
140
0.18
141
0.09
142
0.0
143
25.399999999999999
144
1.0
145
0.0
146
1.0
147
0.09
 71
     0
 72
     0
 73
     1
 74
     1
 75
     0
 76
     0
 77
     0
 78
     0
170
     0
171
     2
172
     0
173
     0
174
     0
175
     0
176
     0
177
     0
178
     0
  0
ENDTAB
  0
ENDSEC
  0
SECTION
  2
BLOCKS
  0
BLOCK
  8
0
  2
$MODEL_SPACE
 70
     0
 10
0.0
 20
0.0
 30
0.0
  3
$MODEL_SPACE
  1

  0
ENDBLK
  5
10F
  8
0
  0
BLOCK
 67
     1
  8
0
  2
$PAPER_SPACE
 70
     0
 10
0.0
 20
0.0
 30
0.0
  3
$PAPER_SPACE
  1

  0
ENDBLK
  5
10D
 67
     1
  8
0
  0
ENDSEC
  0
SECTION
  2
ENTITIES
  0
CIRCLE
  5
37
  8
0
 10
55.211993000000007
 20
103.43080500000001
 30
0.0
 40
14.5
  0
LINE
  5
38
  8
0
 10
55.211993000000007
 20
120.751313
 30
0.0
 11
40.211993
 21
112.091059
 31
0.0
  0
LINE
  5
39
  8
0
 10
70.211993000000007
 20
112.091059
 30
0.0
 11
55.211993000000007
 21
120.751313
 31
0.0
  0
LINE
  5
3A
  8
0
 10
70.211993000000007
 20
94.770550999999983
 30
0.0
 11
70.211993000000007
 21
112.091059
 31
0.0
  0
LINE
  5
3B
  8
0
 10
55.211993000000007
 20
86.110297000000017
 30
0.0
 11
70.211993000000007
 21
94.770550999999983
 31
0.0
  0
LINE
  5
3C
  8
0
 10
40.211993
 20
94.770550999999983
 30
0.0
 11
55.211993000000007
 21
86.110297000000017
 31
0.0
  0
LINE
  5
3D
  8
0
 10
40.211993
 20
112.091059
 30
0.0
 11
40.211993
 21
94.770550999999983
 31
0.0
  0
LINE
  5
3E
  8
0
 10
217.08922200000001
 20
192.88931299999999
 30
0.0
 11
288.09464500000001
 21
192.88931299999999
 31
0.0
  0
LINE
  5
3F
  8
3
 10
217.08922200000001
 20
191.53631300000001
 30
0.0
 11
289.44764500000002
 21
191.53631300000001
 31
0.0
  0
LINE
  5
40
  8
3
 10
217.08922200000001
 20
174.242313
 30
0.0
 11
289.44764500000002
 21
174.242313
 31
0.0
  0
LINE
  5
41
  8
0
 10
217.08922200000001
 20
172.88931299999999
 30
0.0
 11
288.09464500000001
 21
172.88931299999999
 31
0.0
  0
LINE
  5
42
  8
0
 10
217.08922200000001
 20
93.430805000000007
 30
0.0
 11
288.09464500000001
 21
93.430805000000007
 31
0.0
  0
LINE
  5
43
  8
3
 10
217.08922200000001
 20
94.783805000000001
 30
0.0
 11
289.44764500000002
 21
94.783805000000001
 31
0.0
  0
LINE
  5
44
  8
3
 10
217.08922200000001
 20
112.077805
 30
0.0
 11
289.44764500000002
 21
112.077805
 31
0.0
  0
LINE
  5
45
  8
0
 10
217.08922200000001
 20
113.43080500000001
 30
0.0
 11
288.09464500000001
 21
113.43080500000001
 31
0.0
  0
LINE
  5
46
  8
0
 10
202.71764300000001
 20
182.88931299999999
 30
0.0
 11
217.08922200000001
 21
182.88931299999999
 31
0.0
  0
LINE
  5
47
  8
0
 10
201.08922200000001
 20
168.38931299999999
 30
0.0
 11
201.08922200000001
 21
197.38931299999999
 31
0.0
  0
ARC
  5
48
  8
0
 10
223.04055600000001
 20
175.3893129999999
 30
0.0
 40
21.662659000000001
 50
159.743842
 51
200.256158
  0
LINE
  5
49
  8
0
 10
201.08922200000001
 20
168.38931299999999
 30
0.0
 11
201.37789699999999
 21
167.88931299999999
 31
0.0
  0
LINE
  5
4A
  8
0
 10
201.37789699999999
 20
167.88931299999999
 30
0.0
 11
217.08922200000001
 21
167.88931299999999
 31
0.0
  0
LINE
  5
4B
  8
0
 10
201.37789699999999
 20
197.88931299999999
 30
0.0
 11
217.08922200000001
 21
197.88931299999999
 31
0.0
  0
LINE
  5
4C
  8
0
 10
201.08922200000001
 20
197.38931299999999
 30
0.0
 11
201.37789699999999
 21
197.88931299999999
 31
0.0
  0
ARC
  5
4D
  8
0
 10
223.04055600000001
 20
190.38931299999999
 30
0.0
 40
21.662659000000001
 50
159.743842
 51
200.256158
  0
LINE
  5
4E
  8
0
 10
217.08922200000001
 20
167.88931299999999
 30
0.0
 11
217.08922200000001
 21
197.88931299999999
 31
0.0
  0
LINE
  5
4F
  8
0
 10
201.08922200000001
 20
88.930805000000007
 30
0.0
 11
201.08922200000001
 21
117.93080500000001
 31
0.0
  0
LINE
  5
50
  8
0
 10
201.08922200000001
 20
117.93080500000001
 30
0.0
 11
202.71764300000001
 21
120.751313
 31
0.0
  0
ARC
  5
51
  8
0
 10
209.045365
 20
116.42118600000001
 30
0.0
 40
7.6674679999999986
 50
154.38424699999999
 51
214.38424699999999
  0
ARC
  5
52
  8
0
 10
209.045365
 20
116.42118600000001
 30
0.0
 40
7.6674679999999986
 50
145.61575300000001
 51
145.61575300000001
  0
LINE
  5
53
  8
0
 10
202.71764300000001
 20
120.751313
 30
0.0
 11
217.08922200000001
 21
120.751313
 31
0.0
  0
LINE
  5
54
  8
0
 10
217.08922200000001
 20
112.091059
 30
0.0
 11
202.71764300000001
 21
112.091059
 31
0.0
  0
LINE
  5
55
  8
0
 10
217.08922200000001
 20
94.770550999999983
 30
0.0
 11
202.71764300000001
 21
94.770550999999983
 31
0.0
  0
LINE
  5
56
  8
0
 10
202.71764300000001
 20
86.110297000000017
 30
0.0
 11
217.08922200000001
 21
86.110297000000017
 31
0.0
  0
ARC
  5
57
  8
0
 10
230.038151
 20
103.43080500000001
 30
0.0
 40
28.660253999999998
 50
162.412046
 51
197.587954
  0
ARC
  5
58
  8
0
 10
209.045365
 20
90.440423999999993
 30
0.0
 40
7.6674679999999986
 50
214.38424699999999
 51
214.38424699999999
  0
ARC
  5
59
  8
0
 10
209.045365
 20
90.440423999999993
 30
0.0
 40
7.6674679999999986
 50
145.61575300000001
 51
205.61575300000001
  0
LINE
  5
5A
  8
0
 10
201.08922200000001
 20
88.930805000000007
 30
0.0
 11
202.71764300000001
 21
86.110297000000017
 31
0.0
  0
LINE
  5
5B
  8
0
 10
217.08922200000001
 20
86.110297000000017
 30
0.0
 11
217.08922200000001
 21
120.751313
 31
0.0
  0
LINE
  5
5C
  8
2
 10
118.594645
 20
172.589313
 30
0.0
 11
126.594645
 21
172.589313
 31
0.0
  0
LINE
  5
5D
  8
2
 10
118.594645
 20
193.189313
 30
0.0
 11
126.594645
 21
193.189313
 31
0.0
  0
LINE
  5
5E
  8
2
 10
126.594645
 20
172.589313
 30
0.0
 11
127.594645
 21
171.58931299999989
 31
0.0
  0
LINE
  5
5F
  8
2
 10
126.594645
 20
193.189313
 30
0.0
 11
127.594645
 21
194.189313
 31
0.0
  0
LINE
  5
60
  8
2
 10
118.594645
 20
193.189313
 30
0.0
 11
117.594645
 21
194.189313
 31
0.0
  0
LINE
  5
61
  8
2
 10
117.594645
 20
171.58931299999989
 30
0.0
 11
118.594645
 21
172.589313
 31
0.0
  0
LINE
  5
62
  8
2
 10
126.594645
 20
193.189313
 30
0.0
 11
126.594645
 21
172.589313
 31
0.0
  0
LINE
  5
63
  8
2
 10
118.594645
 20
193.189313
 30
0.0
 11
118.594645
 21
172.589313
 31
0.0
  0
ARC
  5
64
  8
0
 10
123.84853200000001
 20
103.43080500000001
 30
0.0
 40
9.0643989999999999
 50
125.42366799999991
 51
234.57633200000001
  0
LINE
  5
65
  8
0
 10
114.784133
 20
171.58931299999989
 30
0.0
 11
136.59464500000001
 21
171.58931299999989
 31
0.0
  0
LINE
  5
66
  8
0
 10
114.784133
 20
194.189313
 30
0.0
 11
136.59464500000001
 21
194.189313
 31
0.0
  0
LINE
  5
67
  8
0
 10
118.594645
 20
96.044331000000014
 30
0.0
 11
136.59464500000001
 21
96.044331000000014
 31
0.0
  0
LINE
  5
68
  8
0
 10
118.594645
 20
110.817279
 30
0.0
 11
136.59464500000001
 21
110.817279
 31
0.0
  0
ARC
  5
69
  8
0
 10
154.09464500000001
 20
169.38931299999999
 30
0.0
 40
3.5
 50
90.0
 51
180.0
  0
ARC
  5
6A
  8
0
 10
154.09464500000001
 20
196.38931299999999
 30
0.0
 40
3.5
 50
180.0
 51
270.0
  0
LINE
  5
6B
  8
0
 10
290.59464500000001
 20
190.38931299999999
 30
0.0
 11
290.59464500000001
 21
175.3893129999999
 31
0.0
  0
LINE
  5
6C
  8
0
 10
154.09464500000001
 20
172.88931299999999
 30
0.0
 11
201.08922200000001
 21
172.88931299999999
 31
0.0
  0
LINE
  5
6D
  8
3
 10
158.5946449999999
 20
174.242313
 30
0.0
 11
201.08922200000001
 21
174.242313
 31
0.0
  0
LINE
  5
6E
  8
3
 10
158.5946449999999
 20
191.53631300000001
 30
0.0
 11
201.08922200000001
 21
191.53631300000001
 31
0.0
  0
LINE
  5
6F
  8
0
 10
154.09464500000001
 20
192.88931299999999
 30
0.0
 11
201.08922200000001
 21
192.88931299999999
 31
0.0
  0
LINE
  5
70
  8
0
 10
288.09464500000001
 20
192.88931299999999
 30
0.0
 11
290.59464500000001
 21
190.38931299999999
 31
0.0
  0
LINE
  5
71
  8
0
 10
290.59464500000001
 20
175.3893129999999
 30
0.0
 11
288.09464500000001
 21
172.88931299999999
 31
0.0
  0
LINE
  5
72
  8
0
 10
288.09464500000001
 20
192.88931299999999
 30
0.0
 11
288.09464500000001
 21
172.88931299999999
 31
0.0
  0
LINE
  5
73
  8
0
 10
158.5946449999999
 20
172.88931299999999
 30
0.0
 11
158.5946449999999
 21
192.88931299999999
 31
0.0
  0
LINE
  5
74
  8
3
 10
158.5946449999999
 20
191.53631300000001
 30
0.0
 11
156.25118000000001
 21
192.88931299999999
 31
0.0
  0
LINE
  5
75
  8
3
 10
158.5946449999999
 20
174.242313
 30
0.0
 11
156.25118000000001
 21
172.88931299999999
 31
0.0
  0
ARC
  5
76
  8
0
 10
154.09464500000001
 20
89.930805000000007
 30
0.0
 40
3.5
 50
90.0
 51
180.0
  0
ARC
  5
77
  8
0
 10
154.09464500000001
 20
116.93080500000001
 30
0.0
 40
3.5
 50
180.0
 51
270.0
  0
LINE
  5
78
  8
0
 10
150.59464500000001
 20
169.38931299999999
 30
0.0
 11
150.59464500000001
 21
196.38931299999999
 31
0.0
  0
LINE
  5
79
  8
3
 10
158.5946449999999
 20
94.783805000000001
 30
0.0
 11
156.25118000000001
 21
93.430805000000007
 31
0.0
  0
LINE
  5
7A
  8
3
 10
158.5946449999999
 20
112.077805
 30
0.0
 11
156.25118000000001
 21
113.43080500000001
 31
0.0
  0
LINE
  5
7B
  8
0
 10
158.5946449999999
 20
93.430805000000007
 30
0.0
 11
158.5946449999999
 21
113.43080500000001
 31
0.0
  0
LINE
  5
7C
  8
0
 10
288.09464500000001
 20
113.43080500000001
 30
0.0
 11
288.09464500000001
 21
93.430805000000007
 31
0.0
  0
LINE
  5
7D
  8
0
 10
290.59464500000001
 20
95.930805000000007
 30
0.0
 11
288.09464500000001
 21
93.430805000000007
 31
0.0
  0
LINE
  5
7E
  8
0
 10
288.09464500000001
 20
113.43080500000001
 30
0.0
 11
290.59464500000001
 21
110.93080500000001
 31
0.0
  0
LINE
  5
7F
  8
0
 10
154.09464500000001
 20
113.43080500000001
 30
0.0
 11
201.08922200000001
 21
113.43080500000001
 31
0.0
  0
LINE
  5
80
  8
3
 10
158.5946449999999
 20
112.077805
 30
0.0
 11
201.08922200000001
 21
112.077805
 31
0.0
  0
LINE
  5
81
  8
3
 10
158.5946449999999
 20
94.783805000000001
 30
0.0
 11
201.08922200000001
 21
94.783805000000001
 31
0.0
  0
LINE
  5
82
  8
0
 10
154.09464500000001
 20
93.430805000000007
 30
0.0
 11
201.08922200000001
 21
93.430805000000007
 31
0.0
  0
LINE
  5
83
  8
0
 10
290.59464500000001
 20
110.93080500000001
 30
0.0
 11
290.59464500000001
 21
95.930805000000007
 31
0.0
  0
LINE
  5
84
  8
2
 10
44.911993000000002
 20
107.43080500000001
 30
0.0
 11
44.911993000000002
 21
99.430805000000007
 31
0.0
  0
LINE
  5
85
  8
2
 10
65.511993000000004
 20
107.43080500000001
 30
0.0
 11
65.511993000000004
 21
99.430805000000007
 31
0.0
  0
LINE
  5
86
  8
2
 10
44.911993000000002
 20
99.430805000000007
 30
0.0
 11
43.911993000000002
 21
98.430805000000007
 31
0.0
  0
LINE
  5
87
  8
2
 10
65.511993000000004
 20
99.430805000000007
 30
0.0
 11
66.511993000000004
 21
98.430805000000007
 31
0.0
  0
LINE
  5
88
  8
2
 10
65.511993000000004
 20
107.43080500000001
 30
0.0
 11
66.511993000000004
 21
108.43080500000001
 31
0.0
  0
LINE
  5
89
  8
2
 10
43.911993000000002
 20
108.43080500000001
 30
0.0
 11
44.911993000000002
 21
107.43080500000001
 31
0.0
  0
LINE
  5
8A
  8
0
 10
43.911993000000002
 20
96.519762900384421
 30
0.0
 11
43.911993000000002
 21
110.3534379012878
 31
0.0
  0
LINE
  5
8B
  8
0
 10
66.511993000000004
 20
96.525997309632672
 30
0.0
 11
66.511993000000004
 21
110.4027499165547
 31
0.0
  0
LINE
  5
8C
  8
2
 10
65.511993000000004
 20
99.430805000000007
 30
0.0
 11
44.911993000000002
 21
99.430805000000007
 31
0.0
  0
LINE
  5
8D
  8
2
 10
65.511993000000004
 20
107.43080500000001
 30
0.0
 11
44.911993000000002
 21
107.43080500000001
 31
0.0
  0
LINE
  5
8E
  8
1
 10
105.594645
 20
182.88931299999999
 30
0.0
 11
295.93091900000002
 21
182.88931299999999
 31
0.0
  0
LINE
  5
8F
  8
0
 10
118.594645
 20
171.88931299999999
 30
0.0
 11
118.594645
 21
193.88931299999999
 31
0.0
  0
LINE
  5
90
  8
0
 10
114.784133
 20
194.189313
 30
0.0
 11
110.594645
 21
191.770511
 31
0.0
  0
LINE
  5
91
  8
1
 10
122.594645
 20
166.88931299999999
 30
0.0
 11
122.594645
 21
198.88931299999999
 31
0.0
  0
LINE
  5
92
  8
0
 10
110.594645
 20
174.008115
 30
0.0
 11
110.594645
 21
191.770511
 31
0.0
  0
LINE
  5
93
  8
0
 10
137.86481499999999
 20
196.38931299999999
 30
0.0
 11
150.59464500000001
 21
196.38931299999999
 31
0.0
  0
LINE
  5
94
  8
0
 10
136.59464500000001
 20
194.189313
 30
0.0
 11
137.86481499999999
 21
196.38931299999999
 31
0.0
  0
LINE
  5
95
  8
0
 10
136.59464500000001
 20
171.58931299999989
 30
0.0
 11
137.86481499999999
 21
169.38931299999999
 31
0.0
  0
LINE
  5
96
  8
0
 10
137.86481499999999
 20
169.38931299999999
 30
0.0
 11
150.59464500000001
 21
169.38931299999999
 31
0.0
  0
LINE
  5
97
  8
0
 10
114.784133
 20
171.58931299999989
 30
0.0
 11
110.594645
 21
174.008115
 31
0.0
  0
LINE
  5
98
  8
1
 10
295.59464500000001
 20
103.43080500000001
 30
0.0
 11
105.594645
 21
103.43080500000001
 31
0.0
  0
CIRCLE
  5
99
  8
0
 10
55.211993000000007
 20
103.43080500000001
 30
0.0
 40
13.5
  0
LINE
  5
9A
  8
0
 10
118.594645
 20
116.93080500000001
 30
0.0
 11
150.59464500000001
 21
116.93080500000001
 31
0.0
  0
LINE
  5
9B
  8
0
 10
118.594645
 20
89.930805000000007
 30
0.0
 11
150.59464500000001
 21
89.930805000000007
 31
0.0
  0
LINE
  5
9C
  8
0
 10
150.59464500000001
 20
89.930805000000007
 30
0.0
 11
150.59464500000001
 21
116.93080500000001
 31
0.0
  0
LINE
  5
9D
  8
0
 10
110.594645
 20
94.549606999999995
 30
0.0
 11
110.594645
 21
112.312003
 31
0.0
  0
LINE
  5
9E
  8
0
 10
118.594645
 20
89.930805000000007
 30
0.0
 11
118.594645
 21
96.044331000000014
 31
0.0
  0
LINE
  5
9F
  8
1
 10
122.594645
 20
94.330804999999998
 30
0.0
 11
122.594645
 21
112.530805
 31
0.0
  0
LINE
  5
A0
  8
0
 10
118.594645
 20
116.93080500000001
 30
0.0
 11
110.594645
 21
112.312003
 31
0.0
  0
LINE
  5
A1
  8
0
 10
118.594645
 20
110.817279
 30
0.0
 11
118.594645
 21
116.93080500000001
 31
0.0
  0
CIRCLE
  5
A2
  8
0
 10
122.594645
 20
103.43080500000001
 30
0.0
 40
4.0999999999999988
  0
LINE
  5
A3
  8
0
 10
118.594645
 20
89.930805000000007
 30
0.0
 11
110.594645
 21
94.549606999999995
 31
0.0
  0
CIRCLE
  5
A4
  8
0
 10
55.211993000000007
 20
103.43080500000001
 30
0.0
 40
8.8811979999999995
  0
LINE
  5
A5
  8
1
 10
73.711993000000007
 20
103.43080500000001
 30
0.0
 11
36.711993
 21
103.43080500000001
 31
0.0
  0
LINE
  5
A6
  8
1
 10
55.211993000000007
 20
121.93080500000001
 30
0.0
 11
55.211993000000007
 21
84.930805000000007
 31
0.0
  0
LINE
  5
A7
  8
0
 10
136.59464500000001
 20
110.817279
 30
0.0
 11
136.59464500000001
 21
96.044331000000014
 31
0.0
  0
ARC
  5
A8
  8
0
 10
115.75230000000001
 20
103.43080500000001
 30
0.0
 40
22.112514999999998
 50
340.48580199999998
 51
19.514198
  0
LINE
  5
A9
  8
1
 10
338.94234999999998
 20
121.93080500000001
 30
0.0
 11
338.94234999999998
 21
84.930805000000007
 31
0.0
  0
LINE
  5
AA
  8
1
 10
357.44234999999998
 20
103.43080500000001
 30
0.0
 11
320.44234999999998
 21
103.43080500000001
 31
0.0
  0
LINE
  5
AB
  8
0
 10
323.94234999999998
 20
112.091059
 30
0.0
 11
323.94234999999998
 21
94.770550999999983
 31
0.0
  0
LINE
  5
AC
  8
0
 10
323.94234999999998
 20
94.770550999999983
 30
0.0
 11
338.94234999999998
 21
86.110297000000017
 31
0.0
  0
LINE
  5
AD
  8
0
 10
338.94234999999998
 20
86.110297000000017
 30
0.0
 11
353.94234999999998
 21
94.770550999999983
 31
0.0
  0
LINE
  5
AE
  8
0
 10
353.94234999999998
 20
94.770550999999983
 30
0.0
 11
353.94234999999998
 21
112.091059
 31
0.0
  0
LINE
  5
AF
  8
0
 10
353.94234999999998
 20
112.091059
 30
0.0
 11
338.94234999999998
 21
120.751313
 31
0.0
  0
LINE
  5
B0
  8
0
 10
338.94234999999998
 20
120.751313
 30
0.0
 11
323.94234999999998
 21
112.091059
 31
0.0
  0
CIRCLE
  5
B1
  8
3
 10
338.94234999999998
 20
103.43080500000001
 30
0.0
 40
8.6470000000000002
  0
CIRCLE
  5
B2
  8
0
 10
338.94234999999998
 20
103.43080500000001
 30
0.0
 40
10.0
  0
TEXT
  5
1E3
  8
0
 62
     3
 10
0.0
 20
0.0
 30
0.0
 40
10.0
  1
CBS2-80-SUS
  7
STANDARD1
  0
ENDSEC
  0
EOF
