  0
SECTION
  2
HEADER
  9
$ACADVER
  1
AC1009
  9
$INSBASE
 10
0.0
 20
0.0
 30
0.0
  9
$EXTMIN
 10
0.0
 20
-2.960436562073669
 30
0.0
  9
$EXTMAX
 10
153.5
 20
116.0008493205434
 30
0.0
  9
$LIMMIN
 10
0.0
 20
0.0
  9
$LIMMAX
 10
187.5
 20
135.0
  9
$ORTHOMODE
 70
     0
  9
$REGENMODE
 70
     1
  9
$FILLMODE
 70
     1
  9
$QTEXTMODE
 70
     0
  9
$MIRRTEXT
 70
     0
  9
$DRAGMODE
 70
     2
  9
$LTSCALE
 40
5.0
  9
$OSMODE
 70
  3071
  9
$ATTMODE
 70
     1
  9
$TEXTSIZE
 40
0.2
  9
$TRACEWID
 40
0.05
  9
$TEXTSTYLE
  7
STANDARD
  9
$CLAYER
  8
0
  9
$CELTYPE
  6
BYLAYER
  9
$CECOLOR
 62
   256
  9
$DIMSCALE
 40
0.5
  9
$DIMASZ
 40
3.0
  9
$DIMEXO
 40
2.0
  9
$DIMDLI
 40
0.38
  9
$DIMRND
 40
0.0
  9
$DIMDLE
 40
0.0
  9
$DIMEXE
 40
2.0
  9
$DIMTP
 40
0.0
  9
$DIMTM
 40
0.0
  9
$DIMTXT
 40
3.0
  9
$DIMCEN
 40
0.0
  9
$DIMTSZ
 40
0.0
  9
$DIMTOL
 70
     0
  9
$DIMLIM
 70
     0
  9
$DIMTIH
 70
     0
  9
$DIMTOH
 70
     0
  9
$DIMSE1
 70
     0
  9
$DIMSE2
 70
     0
  9
$DIMTAD
 70
     1
  9
$DIMZIN
 70
     0
  9
$DIMBLK
  1

  9
$DIMASO
 70
     1
  9
$DIMSHO
 70
     0
  9
$DIMPOST
  1

  9
$DIMAPOST
  1

  9
$DIMALT
 70
     0
  9
$DIMALTD
 70
     2
  9
$DIMALTF
 40
25.399999999999999
  9
$DIMLFAC
 40
1.0
  9
$DIMTOFL
 70
     1
  9
$DIMTVP
 40
1.6000000000000001
  9
$DIMTIX
 70
     1
  9
$DIMSOXD
 70
     0
  9
$DIMSAH
 70
     0
  9
$DIMBLK1
  1

  9
$DIMBLK2
  1

  9
$DIMSTYLE
  2
STANDARD
  9
$DIMCLRD
 70
     0
  9
$DIMCLRE
 70
     0
  9
$DIMCLRT
 70
     0
  9
$DIMTFAC
 40
1.0
  9
$DIMGAP
 40
0.09
  9
$LUNITS
 70
     2
  9
$LUPREC
 70
     4
  9
$SKETCHINC
 40
0.1
  9
$FILLETRAD
 40
0.0
  9
$AUNITS
 70
     0
  9
$AUPREC
 70
     4
  9
$MENU
  1
E:\r13\win\SUPPORT\ACAD
  9
$ELEVATION
 40
0.0
  9
$PELEVATION
 40
0.0
  9
$THICKNESS
 40
0.0
  9
$LIMCHECK
 70
     0
  9
$BLIPMODE
 70
     0
  9
$CHAMFERA
 40
0.0
  9
$CHAMFERB
 40
0.0
  9
$SKPOLY
 70
     0
  9
$TDCREATE
 40
2449839.7946180562
  9
$TDUPDATE
 40
2456598.5875091902
  9
$TDINDWG
 40
0.0614940856
  9
$TDUSRTIMER
 40
0.0614940856
  9
$USRTIMER
 70
     1
  9
$ANGBASE
 50
0.0
  9
$ANGDIR
 70
     0
  9
$PDMODE
 70
     0
  9
$PDSIZE
 40
0.0
  9
$PLINEWID
 40
0.0
  9
$COORDS
 70
     1
  9
$SPLFRAME
 70
     0
  9
$SPLINETYPE
 70
     6
  9
$SPLINESEGS
 70
     8
  9
$ATTDIA
 70
     0
  9
$ATTREQ
 70
     1
  9
$HANDLING
 70
     1
  9
$HANDSEED
  5
2C3
  9
$SURFTAB1
 70
     6
  9
$SURFTAB2
 70
     6
  9
$SURFTYPE
 70
     6
  9
$SURFU
 70
     6
  9
$SURFV
 70
     6
  9
$UCSNAME
  2

  9
$UCSORG
 10
0.0
 20
0.0
 30
0.0
  9
$UCSXDIR
 10
1.0
 20
0.0
 30
0.0
  9
$UCSYDIR
 10
0.0
 20
1.0
 30
0.0
  9
$PUCSNAME
  2

  9
$PUCSORG
 10
0.0
 20
0.0
 30
0.0
  9
$PUCSXDIR
 10
1.0
 20
0.0
 30
0.0
  9
$PUCSYDIR
 10
0.0
 20
1.0
 30
0.0
  9
$USERI1
 70
     0
  9
$USERI2
 70
     1
  9
$USERI3
 70
     1
  9
$USERI4
 70
     0
  9
$USERI5
 70
     0
  9
$USERR1
 40
0.0
  9
$USERR2
 40
0.0
  9
$USERR3
 40
0.0
  9
$USERR4
 40
0.0
  9
$USERR5
 40
0.0
  9
$WORLDVIEW
 70
     1
  9
$SHADEDGE
 70
     3
  9
$SHADEDIF
 70
    70
  9
$TILEMODE
 70
     1
  9
$MAXACTVP
 70
    16
  9
$PLIMCHECK
 70
     0
  9
$PEXTMIN
 10
1.0000000000000000E+020
 20
1.0000000000000000E+020
 30
1.0000000000000000E+020
  9
$PEXTMAX
 10
-1.0000000000000000E+020
 20
-1.0000000000000000E+020
 30
-1.0000000000000000E+020
  9
$PLIMMIN
 10
0.0
 20
0.0
  9
$PLIMMAX
 10
12.0
 20
9.0
  9
$UNITMODE
 70
     0
  9
$VISRETAIN
 70
     0
  9
$PLINEGEN
 70
     0
  9
$PSLTSCALE
 70
     0
  0
ENDSEC
  0
SECTION
  2
TABLES
  0
TABLE
  2
VPORT
 70
     1
  0
VPORT
  2
*ACTIVE
 70
     0
 10
0.0
 20
0.0
 11
1.0
 21
1.0
 12
97.570150770051072
 22
66.014785922033241
 13
0.0
 23
0.0
 14
5.0
 24
5.0
 15
5.0
 25
5.0
 16
0.0
 26
0.0
 36
1.0
 17
0.0
 27
0.0
 37
0.0
 40
139.20783109903601
 41
1.831871345029239
 42
50.0
 43
0.0
 44
0.0
 50
0.0
 51
0.0
 71
     0
 72
   500
 73
     1
 74
     0
 75
     0
 76
     0
 77
     0
 78
     2
  0
ENDTAB
  0
TABLE
  2
LTYPE
 70
     4
  0
LTYPE
  2
CONTINUOUS
 70
     0
  3
Solid Line
 72
    65
 73
     0
 40
0.0
  0
LTYPE
  2
CENTER
 70
     0
  3
____ _ ____ _ ____ _ ____ _ ____ _ ____ _ ____
 72
    65
 73
     4
 40
2.0
 49
1.25
 49
-0.25
 49
0.25
 49
-0.25
  0
LTYPE
  2
HIDDEN
 70
     0
  3
_ _ _ _ _ _ _ _ _ _ _ _ _ _ _ _ _ _ _ _ _ _ _
 72
    65
 73
     2
 40
0.375
 49
0.25
 49
-0.125
  0
LTYPE
  2
PHANTOM2
 70
     0
  3
___ _ _ ___ _ _ ___ _ _ ___ _ _
 72
    65
 73
     6
 40
1.25
 49
0.625
 49
-0.125
 49
0.125
 49
-0.125
 49
0.125
 49
-0.125
  0
ENDTAB
  0
TABLE
  2
LAYER
 70
     4
  0
LAYER
  2
0
 70
     0
 62
     7
  6
CONTINUOUS
  0
LAYER
  2
1
 70
     0
 62
     1
  6
CENTER
  0
LAYER
  2
2
 70
     0
 62
     2
  6
HIDDEN
  0
LAYER
  2
3
 70
     0
 62
     3
  6
CONTINUOUS
  0
ENDTAB
  0
TABLE
  2
STYLE
 70
     2
  0
STYLE
  2
STANDARD
 70
     0
 40
0.0
 41
1.0
 50
0.0
 71
     0
 42
0.2
  3
TXT
  4
BIGFONT
  0
STYLE
  2
STANDARD1
 70
     0
 40
0.0
 41
1.0
 50
0.0
 71
     0
 42
3.0
  3
txt
  4

  0
ENDTAB
  0
TABLE
  2
VIEW
 70
     1
  0
VIEW
  2
ALL
 70
     0
 40
135.0
 10
110.4957983193277
 20
67.5
 41
0.0
 11
0.0
 21
0.0
 31
1.0
 12
0.0
 22
0.0
 32
0.0
 42
0.0
 43
0.0
 44
0.0
 50
0.0
 71
     0
  0
ENDTAB
  0
TABLE
  2
UCS
 70
     0
  0
ENDTAB
  0
TABLE
  2
APPID
 70
     3
  0
APPID
  2
ACAD
 70
     0
  0
APPID
  2
ACAD_MLEADERVER
 70
     0
  0
APPID
  2
ACAD_NAV_VCDISPLAY
 70
     0
  0
ENDTAB
  0
TABLE
  2
DIMSTYLE
 70
     1
  0
DIMSTYLE
  2
STANDARD
 70
     0
  3

  4

  5

  6

  7

 40
1.0
 41
0.18
 42
0.0625
 43
0.38
 44
0.18
 45
0.0
 46
0.0
 47
0.0
 48
0.0
140
0.18
141
0.09
142
0.0
143
25.399999999999999
144
1.0
145
0.0
146
1.0
147
0.09
 71
     0
 72
     0
 73
     1
 74
     1
 75
     0
 76
     0
 77
     0
 78
     0
170
     0
171
     2
172
     0
173
     0
174
     0
175
     0
176
     0
177
     0
178
     0
  0
ENDTAB
  0
ENDSEC
  0
SECTION
  2
BLOCKS
  0
BLOCK
  8
0
  2
$MODEL_SPACE
 70
     0
 10
0.0
 20
0.0
 30
0.0
  3
$MODEL_SPACE
  1

  0
ENDBLK
  5
106
  8
0
  0
BLOCK
 67
     1
  8
0
  2
$PAPER_SPACE
 70
     0
 10
0.0
 20
0.0
 30
0.0
  3
$PAPER_SPACE
  1

  0
ENDBLK
  5
104
 67
     1
  8
0
  0
ENDSEC
  0
SECTION
  2
ENTITIES
  0
CIRCLE
  5
3F
  8
0
 10
140.0
 20
70.0
 30
0.0
 40
5.5
  0
CIRCLE
  5
40
  8
0
 10
140.0
 20
70.0
 30
0.0
 40
6.2500000000000284
  0
CIRCLE
  5
41
  8
3
 10
140.0
 20
70.0
 30
0.0
 40
7.4750000000000218
  0
CIRCLE
  5
42
  8
0
 10
140.0
 20
70.0
 30
0.0
 40
8.3310000000000315
  0
CIRCLE
  5
43
  8
0
 10
140.0
 20
70.0
 30
0.0
 40
10.74999999999998
  0
LINE
  5
45
  8
0
 10
99.750000000000028
 20
59.249999999999972
 30
0.0
 11
98.250000000000014
 21
59.249999999999972
 31
0.0
  0
LINE
  5
46
  8
0
 10
99.750000000000028
 20
80.749999999999972
 30
0.0
 11
99.750000000000028
 21
59.249999999999972
 31
0.0
  0
LINE
  5
47
  8
0
 10
99.750000000000028
 20
80.749999999999972
 30
0.0
 11
98.250000000000014
 21
80.749999999999972
 31
0.0
  0
LINE
  5
48
  8
0
 10
98.249999999999972
 20
45.500849320543487
 30
0.0
 11
99.750000000000028
 21
45.500849320543487
 31
0.0
  0
LINE
  5
49
  8
0
 10
98.249999999999943
 20
24.000849320543502
 30
0.0
 11
99.749999999999943
 21
24.000849320543502
 31
0.0
  0
LINE
  5
4A
  8
0
 10
99.749999999999943
 20
24.000849320543519
 30
0.0
 11
99.750000000000014
 21
45.500849320543523
 31
0.0
  0
LINE
  5
4B
  8
0
 10
104.7499999999999
 20
77.475000000000023
 30
0.0
 11
105.7499999999999
 21
77.475000000000023
 31
0.0
  0
LINE
  5
4C
  8
0
 10
104.75
 20
62.524999999999949
 30
0.0
 11
105.7499999999999
 21
62.524999999999949
 31
0.0
  0
LINE
  5
4D
  8
0
 10
104.7499999999999
 20
61.668999999999947
 30
0.0
 11
104.7499999999999
 21
78.331000000000003
 31
0.0
  0
LINE
  5
4E
  8
0
 10
96.750000000000043
 20
81.250000000000014
 30
0.0
 11
98.249999999999972
 21
81.25
 31
0.0
  0
LINE
  5
4F
  8
0
 10
96.750000000000014
 20
58.75
 30
0.0
 11
98.249999999999972
 21
58.75
 31
0.0
  0
LINE
  5
50
  8
0
 10
96.750000000000014
 20
58.75
 30
0.0
 11
96.750000000000043
 21
81.25
 31
0.0
  0
LINE
  5
51
  8
0
 10
98.249999999999972
 20
58.75
 30
0.0
 11
98.249999999999986
 21
81.25
 31
0.0
  0
LINE
  5
52
  8
0
 10
99.750000000000028
 20
61.668999999999983
 30
0.0
 11
104.7499999999999
 21
61.668999999999947
 31
0.0
  0
LINE
  5
53
  8
3
 10
99.750000000000085
 20
62.52499999999997
 30
0.0
 11
104.75
 21
62.524999999999949
 31
0.0
  0
LINE
  5
54
  8
3
 10
99.750000000000028
 20
77.475000000000051
 30
0.0
 11
104.7499999999999
 21
77.475000000000023
 31
0.0
  0
LINE
  5
55
  8
0
 10
99.750000000000028
 20
78.330999999999989
 30
0.0
 11
104.7499999999999
 21
78.331000000000003
 31
0.0
  0
LINE
  5
56
  8
0
 10
105.7499999999999
 20
62.524999999999949
 30
0.0
 11
105.7499999999999
 21
77.475000000000023
 31
0.0
  0
LINE
  5
57
  8
0
 10
93.719655110141346
 20
59.030344889858661
 30
0.0
 11
96.750000000000043
 21
59.030344889858661
 31
0.0
  0
LINE
  5
58
  8
0
 10
93.719655110140508
 20
64.515172447161461
 30
0.0
 11
96.750000000000043
 21
64.515172447161433
 31
0.0
  0
LINE
  5
59
  8
0
 10
93.719655110141346
 20
75.484827552840557
 30
0.0
 11
96.750000000000043
 21
75.484827552840557
 31
0.0
  0
LINE
  5
5A
  8
0
 10
93.719655110141375
 20
80.969655110141261
 30
0.0
 11
96.750000000000043
 21
80.969655110141275
 31
0.0
  0
LINE
  5
5B
  8
0
 10
92.750000000000028
 20
59.999999999999943
 30
0.0
 11
92.750000000000028
 21
80.0
 31
0.0
  0
LINE
  5
5C
  8
0
 10
92.750000000000028
 20
80.0
 30
0.0
 11
93.719655110141375
 21
80.969655110141275
 31
0.0
  0
LINE
  5
5D
  8
0
 10
92.750000000000028
 20
76.665991817903631
 30
0.0
 11
93.719655110141375
 21
75.484827552840557
 31
0.0
  0
LINE
  5
5E
  8
0
 10
92.750000000000028
 20
73.122499022714123
 30
0.0
 11
93.719655110141375
 21
75.484827552840585
 31
0.0
  0
LINE
  5
5F
  8
0
 10
92.750000000000028
 20
66.877500977285806
 30
0.0
 11
93.719655110141375
 21
64.515172447159387
 31
0.0
  0
LINE
  5
60
  8
0
 10
92.750000000000028
 20
63.334008182096312
 30
0.0
 11
93.719655110141375
 21
64.515172447159387
 31
0.0
  0
LINE
  5
61
  8
0
 10
92.750000000000028
 20
59.999999999999943
 30
0.0
 11
93.719655110141375
 21
59.030344889858661
 31
0.0
  0
ARC
  5
62
  8
0
 10
92.750000000000028
 20
70.0
 30
0.0
 40
7.5
 50
89.999999999999986
 51
270.0
  0
LINE
  5
63
  8
1
 10
81.749999999999972
 20
70.0
 30
0.0
 11
108.25
 21
70.0
 31
0.0
  0
LINE
  5
64
  8
0
 10
104.7499999999999
 20
27.275849320543468
 30
0.0
 11
105.7499999999999
 21
27.275849320543468
 31
0.0
  0
LINE
  5
65
  8
0
 10
104.75
 20
42.225849320543539
 30
0.0
 11
105.7499999999999
 21
42.225849320543539
 31
0.0
  0
LINE
  5
66
  8
0
 10
104.7499999999999
 20
43.08184932054354
 30
0.0
 11
104.7499999999999
 21
26.419849320543481
 31
0.0
  0
LINE
  5
67
  8
0
 10
99.750000000000014
 20
43.081849320543512
 30
0.0
 11
104.7499999999999
 21
43.08184932054354
 31
0.0
  0
LINE
  5
68
  8
3
 10
99.750000000000014
 20
42.225849320543517
 30
0.0
 11
104.75
 21
42.225849320543539
 31
0.0
  0
LINE
  5
69
  8
3
 10
99.749999999999943
 20
27.27584932054345
 30
0.0
 11
104.7499999999999
 21
27.275849320543468
 31
0.0
  0
LINE
  5
6A
  8
0
 10
99.749999999999943
 20
26.419849320543481
 30
0.0
 11
104.7499999999999
 21
26.419849320543481
 31
0.0
  0
LINE
  5
6B
  8
0
 10
105.7499999999999
 20
42.225849320543539
 30
0.0
 11
105.7499999999999
 21
27.275849320543468
 31
0.0
  0
LINE
  5
6C
  8
1
 10
81.75
 20
34.750849320543487
 30
0.0
 11
108.25
 21
34.750849320543487
 31
0.0
  0
CIRCLE
  5
6D
  8
2
 10
48.249031810822167
 20
70.000000000000028
 30
0.0
 40
5.5
  0
ARC
  5
6E
  8
0
 10
92.75
 20
34.750849320543487
 30
0.0
 40
7.5
 50
90.0
 51
270.0
  0
LINE
  5
6F
  8
0
 10
92.750000000000028
 20
42.205012793648649
 30
0.0
 11
93.719655105670057
 21
44.250849312814353
 31
0.0
  0
LINE
  5
70
  8
0
 10
92.75
 20
36.796685839702462
 30
0.0
 11
93.719655105670029
 21
34.750849320543473
 31
0.0
  0
LINE
  5
71
  8
0
 10
92.75
 20
32.705012801384441
 30
0.0
 11
93.719655105670029
 21
34.750849320543473
 31
0.0
  0
LINE
  5
72
  8
0
 10
92.75
 20
27.29668584743829
 30
0.0
 11
93.719655105670029
 21
25.250849328272579
 31
0.0
  0
ARC
  5
73
  8
0
 10
48.249031810822167
 20
70.000000000000028
 30
0.0
 40
10.0
 50
198.1948724806698
 51
221.8051275193281
  0
ARC
  5
74
  8
0
 10
48.249031810822139
 20
70.000000000000028
 30
0.0
 40
10.0
 50
138.19487248066969
 51
161.80512751932801
  0
ARC
  5
75
  8
0
 10
48.249031810822167
 20
70.000000000000028
 30
0.0
 40
10.0
 50
78.194872480669787
 51
101.805127519328
  0
ARC
  5
76
  8
0
 10
48.249031810822167
 20
70.000000000000028
 30
0.0
 40
10.0
 50
18.194872480669801
 51
41.80512751932806
  0
ARC
  5
77
  8
0
 10
48.249031810822167
 20
70.000000000000028
 30
0.0
 40
10.0
 50
318.1948724806698
 51
341.80512751932798
  0
ARC
  5
78
  8
0
 10
48.249031810822167
 20
70.000000000000028
 30
0.0
 40
10.0
 50
258.19487248066969
 51
281.80512751932798
  0
LINE
  5
79
  8
0
 10
92.75
 20
25.250849328272579
 30
0.0
 11
92.750000000000028
 21
44.250849312806587
 31
0.0
  0
LINE
  5
7A
  8
0
 10
96.75
 20
23.500849320543441
 30
0.0
 11
98.249999999999943
 21
23.500849320543441
 31
0.0
  0
LINE
  5
7B
  8
0
 10
96.750000000000043
 20
46.000849320543431
 30
0.0
 11
98.249999999999972
 21
46.000849320543431
 31
0.0
  0
LINE
  5
7C
  8
0
 10
98.249999999999986
 20
46.000849320543431
 30
0.0
 11
98.249999999999929
 21
23.500849320543441
 31
0.0
  0
LINE
  5
7D
  8
0
 10
93.719655105670029
 20
34.750849320543473
 30
0.0
 11
96.75
 21
34.750849320543473
 31
0.0
  0
LINE
  5
7E
  8
0
 10
92.750000000000014
 20
44.250849312806601
 30
0.0
 11
96.750000000000043
 21
44.250849312806622
 31
0.0
  0
LINE
  5
7F
  8
0
 10
96.75
 20
25.250849328272579
 30
0.0
 11
92.75
 21
25.250849328272579
 31
0.0
  0
LINE
  5
80
  8
0
 10
96.75
 20
23.500849320543441
 30
0.0
 11
96.750000000000043
 21
46.000849320543431
 31
0.0
  0
CIRCLE
  5
81
  8
0
 10
48.249031810822167
 20
70.000000000000028
 30
0.0
 40
7.5
  0
LINE
  5
82
  8
0
 10
48.249031810818309
 20
80.969655105670967
 30
0.0
 11
57.749031810818309
 21
75.484827548371413
 31
0.0
  0
LINE
  5
83
  8
0
 10
38.749031818551288
 20
75.484827552839505
 30
0.0
 11
48.249031818551288
 21
80.96965511014227
 31
0.0
  0
LINE
  5
84
  8
0
 10
38.749031818551281
 20
64.515172447166862
 30
0.0
 11
38.749031818551288
 21
75.484827561769151
 31
0.0
  0
LINE
  5
85
  8
0
 10
48.249031810818288
 20
59.03034489433
 30
0.0
 11
38.749031810818302
 21
64.515172451629525
 31
0.0
  0
LINE
  5
86
  8
0
 10
57.749031803076669
 20
64.515172447161433
 30
0.0
 11
48.249031803085309
 21
59.030344889858704
 31
0.0
  0
LINE
  5
87
  8
0
 10
57.74903180308533
 20
75.484827552840557
 30
0.0
 11
57.749031803085309
 21
64.515172438238267
 31
0.0
  0
LINE
  5
89
  8
1
 10
61.749031810822181
 20
70.000000000000028
 30
0.0
 11
34.749031810822167
 21
70.000000000000028
 31
0.0
  0
LINE
  5
8A
  8
1
 10
48.249031810822167
 20
83.500000000000028
 30
0.0
 11
48.249031810822167
 21
56.500000000000028
 31
0.0
  0
LINE
  5
8B
  8
1
 10
153.5
 20
70.0
 30
0.0
 11
126.5
 21
70.0
 31
0.0
  0
LINE
  5
8C
  8
1
 10
140.0
 20
83.499999999999986
 30
0.0
 11
140.0
 21
56.5
 31
0.0
  0
LINE
  5
8D
  8
0
 10
96.750000000000014
 20
93.500849320543423
 30
0.0
 11
96.750000000000043
 21
116.0008493205434
 31
0.0
  0
LINE
  5
8E
  8
0
 10
96.75
 20
95.250849328272579
 30
0.0
 11
92.749999999999986
 21
95.250849328272579
 31
0.0
  0
LINE
  5
8F
  8
0
 10
92.750000000000014
 20
114.25084931280659
 30
0.0
 11
96.750000000000043
 21
114.25084931280659
 31
0.0
  0
LINE
  5
90
  8
0
 10
93.719655105670043
 20
104.7508493205434
 30
0.0
 11
96.75
 21
104.7508493205434
 31
0.0
  0
LINE
  5
91
  8
0
 10
98.249999999999972
 20
116.0008493205434
 30
0.0
 11
98.249999999999943
 21
93.500849320543423
 31
0.0
  0
LINE
  5
92
  8
0
 10
96.750000000000043
 20
116.0008493205434
 30
0.0
 11
98.249999999999972
 21
116.0008493205434
 31
0.0
  0
LINE
  5
93
  8
0
 10
96.750000000000043
 20
93.500849320543409
 30
0.0
 11
98.249999999999943
 21
93.500849320543423
 31
0.0
  0
LINE
  5
94
  8
0
 10
92.75
 20
95.250849328272579
 30
0.0
 11
92.750000000000028
 21
114.25084931280659
 31
0.0
  0
LINE
  5
95
  8
0
 10
92.75
 20
97.296685847438283
 30
0.0
 11
93.719655105670029
 21
95.250849328272579
 31
0.0
  0
LINE
  5
96
  8
0
 10
92.75
 20
102.7050128013844
 30
0.0
 11
93.719655105670029
 21
104.7508493205434
 31
0.0
  0
LINE
  5
97
  8
0
 10
92.75
 20
106.79668583970241
 30
0.0
 11
93.719655105670029
 21
104.7508493205434
 31
0.0
  0
LINE
  5
98
  8
0
 10
92.750000000000028
 20
112.20501279364861
 30
0.0
 11
93.719655105670057
 21
114.2508493128143
 31
0.0
  0
ARC
  5
99
  8
0
 10
92.75
 20
104.75084932054349
 30
0.0
 40
7.5
 50
90.0
 51
270.0
  0
LINE
  5
9A
  8
1
 10
81.75
 20
104.75084932054349
 30
0.0
 11
108.25
 21
104.75084932054349
 31
0.0
  0
LINE
  5
9B
  8
0
 10
105.7499999999999
 20
112.2258493205435
 30
0.0
 11
105.7499999999999
 21
97.275849320543486
 31
0.0
  0
LINE
  5
9C
  8
0
 10
99.749999999999943
 20
96.419849320543491
 30
0.0
 11
104.7499999999999
 21
96.419849320543491
 31
0.0
  0
LINE
  5
9D
  8
3
 10
99.749999999999943
 20
97.275849320543443
 30
0.0
 11
104.7499999999999
 21
97.275849320543486
 31
0.0
  0
LINE
  5
9E
  8
3
 10
99.750000000000014
 20
112.2258493205435
 30
0.0
 11
104.75
 21
112.2258493205435
 31
0.0
  0
LINE
  5
9F
  8
0
 10
99.750000000000014
 20
113.0818493205435
 30
0.0
 11
104.7499999999999
 21
113.0818493205435
 31
0.0
  0
LINE
  5
A0
  8
0
 10
104.7499999999999
 20
113.0818493205435
 30
0.0
 11
104.7499999999999
 21
96.419849320543491
 31
0.0
  0
LINE
  5
A1
  8
0
 10
104.75
 20
112.2258493205435
 30
0.0
 11
105.7499999999999
 21
112.2258493205435
 31
0.0
  0
LINE
  5
A2
  8
0
 10
104.7499999999999
 20
97.275849320543486
 30
0.0
 11
105.7499999999999
 21
97.275849320543486
 31
0.0
  0
LINE
  5
A3
  8
0
 10
99.749999999999943
 20
94.000849320543523
 30
0.0
 11
99.750000000000014
 21
115.50084932054349
 31
0.0
  0
LINE
  5
A4
  8
0
 10
98.249999999999943
 20
94.000849320543495
 30
0.0
 11
99.749999999999943
 21
94.000849320543495
 31
0.0
  0
LINE
  5
A5
  8
0
 10
98.249999999999972
 20
115.50084932054349
 30
0.0
 11
99.750000000000028
 21
115.50084932054349
 31
0.0
  0
CIRCLE
  5
118
  8
0
 10
140.0
 20
70.0
 30
0.0
 40
11.25
  0
CIRCLE
  5
119
  8
0
 10
48.249031810822167
 20
70.000000000000028
 30
0.0
 40
11.25
  0
TEXT
  5
234
  8
0
 62
     3
 10
0.0
 20
0.0
 30
0.0
 40
10.0
  1
CD-12
  7
STANDARD1
  0
ENDSEC
  0
EOF
