  0
SECTION
  2
HEADER
  9
$ACADVER
  1
AC1009
  9
$INSBASE
 10
0.0
 20
0.0
 30
0.0
  9
$EXTMIN
 10
-0.0005
 20
-2.960436562073669
 30
0.0
  9
$EXTMAX
 10
290.75
 20
225.92251199040749
 30
0.0
  9
$LIMMIN
 10
0.0
 20
0.0
  9
$LIMMAX
 10
375.0
 20
270.0
  9
$ORTHOMODE
 70
     0
  9
$REGENMODE
 70
     1
  9
$FILLMODE
 70
     1
  9
$QTEXTMODE
 70
     0
  9
$MIRRTEXT
 70
     0
  9
$DRAGMODE
 70
     2
  9
$LTSCALE
 40
10.0
  9
$OSMODE
 70
  3071
  9
$ATTMODE
 70
     1
  9
$TEXTSIZE
 40
0.2
  9
$TRACEWID
 40
0.05
  9
$TEXTSTYLE
  7
STANDARD
  9
$CLAYER
  8
0
  9
$CELTYPE
  6
BYLAYER
  9
$CECOLOR
 62
   256
  9
$DIMSCALE
 40
1.0
  9
$DIMASZ
 40
3.0
  9
$DIMEXO
 40
2.0
  9
$DIMDLI
 40
0.38
  9
$DIMRND
 40
0.0
  9
$DIMDLE
 40
0.0
  9
$DIMEXE
 40
2.0
  9
$DIMTP
 40
0.0
  9
$DIMTM
 40
0.0
  9
$DIMTXT
 40
3.0
  9
$DIMCEN
 40
0.0
  9
$DIMTSZ
 40
0.0
  9
$DIMTOL
 70
     0
  9
$DIMLIM
 70
     0
  9
$DIMTIH
 70
     0
  9
$DIMTOH
 70
     0
  9
$DIMSE1
 70
     0
  9
$DIMSE2
 70
     0
  9
$DIMTAD
 70
     1
  9
$DIMZIN
 70
     0
  9
$DIMBLK
  1

  9
$DIMASO
 70
     1
  9
$DIMSHO
 70
     0
  9
$DIMPOST
  1

  9
$DIMAPOST
  1

  9
$DIMALT
 70
     0
  9
$DIMALTD
 70
     2
  9
$DIMALTF
 40
25.399999999999999
  9
$DIMLFAC
 40
1.0
  9
$DIMTOFL
 70
     1
  9
$DIMTVP
 40
1.6000000000000001
  9
$DIMTIX
 70
     1
  9
$DIMSOXD
 70
     0
  9
$DIMSAH
 70
     0
  9
$DIMBLK1
  1

  9
$DIMBLK2
  1

  9
$DIMSTYLE
  2
STANDARD
  9
$DIMCLRD
 70
     0
  9
$DIMCLRE
 70
     0
  9
$DIMCLRT
 70
     0
  9
$DIMTFAC
 40
1.0
  9
$DIMGAP
 40
0.09
  9
$LUNITS
 70
     2
  9
$LUPREC
 70
     4
  9
$SKETCHINC
 40
0.1
  9
$FILLETRAD
 40
0.0
  9
$AUNITS
 70
     0
  9
$AUPREC
 70
     4
  9
$MENU
  1
E:\r13\win\SUPPORT\ACAD
  9
$ELEVATION
 40
0.0
  9
$PELEVATION
 40
0.0
  9
$THICKNESS
 40
0.0
  9
$LIMCHECK
 70
     0
  9
$BLIPMODE
 70
     0
  9
$CHAMFERA
 40
0.0
  9
$CHAMFERB
 40
0.0
  9
$SKPOLY
 70
     0
  9
$TDCREATE
 40
2449839.7946527782
  9
$TDUPDATE
 40
2456598.5876569101
  9
$TDINDWG
 40
0.0699651157
  9
$TDUSRTIMER
 40
0.0699651157
  9
$USRTIMER
 70
     1
  9
$ANGBASE
 50
0.0
  9
$ANGDIR
 70
     0
  9
$PDMODE
 70
     0
  9
$PDSIZE
 40
0.0
  9
$PLINEWID
 40
0.0
  9
$COORDS
 70
     1
  9
$SPLFRAME
 70
     0
  9
$SPLINETYPE
 70
     6
  9
$SPLINESEGS
 70
     8
  9
$ATTDIA
 70
     0
  9
$ATTREQ
 70
     1
  9
$HANDLING
 70
     1
  9
$HANDSEED
  5
2B0
  9
$SURFTAB1
 70
     6
  9
$SURFTAB2
 70
     6
  9
$SURFTYPE
 70
     6
  9
$SURFU
 70
     6
  9
$SURFV
 70
     6
  9
$UCSNAME
  2

  9
$UCSORG
 10
0.0
 20
0.0
 30
0.0
  9
$UCSXDIR
 10
1.0
 20
0.0
 30
0.0
  9
$UCSYDIR
 10
0.0
 20
1.0
 30
0.0
  9
$PUCSNAME
  2

  9
$PUCSORG
 10
0.0
 20
0.0
 30
0.0
  9
$PUCSXDIR
 10
1.0
 20
0.0
 30
0.0
  9
$PUCSYDIR
 10
0.0
 20
1.0
 30
0.0
  9
$USERI1
 70
     0
  9
$USERI2
 70
     1
  9
$USERI3
 70
     1
  9
$USERI4
 70
     0
  9
$USERI5
 70
     0
  9
$USERR1
 40
0.0
  9
$USERR2
 40
0.0
  9
$USERR3
 40
0.0
  9
$USERR4
 40
0.0
  9
$USERR5
 40
0.0
  9
$WORLDVIEW
 70
     1
  9
$SHADEDGE
 70
     3
  9
$SHADEDIF
 70
    70
  9
$TILEMODE
 70
     1
  9
$MAXACTVP
 70
    16
  9
$PLIMCHECK
 70
     0
  9
$PEXTMIN
 10
1.0000000000000000E+020
 20
1.0000000000000000E+020
 30
1.0000000000000000E+020
  9
$PEXTMAX
 10
-1.0000000000000000E+020
 20
-1.0000000000000000E+020
 30
-1.0000000000000000E+020
  9
$PLIMMIN
 10
0.0
 20
0.0
  9
$PLIMMAX
 10
12.0
 20
9.0
  9
$UNITMODE
 70
     0
  9
$VISRETAIN
 70
     0
  9
$PLINEGEN
 70
     0
  9
$PSLTSCALE
 70
     0
  0
ENDSEC
  0
SECTION
  2
TABLES
  0
TABLE
  2
VPORT
 70
     1
  0
VPORT
  2
*ACTIVE
 70
     0
 10
0.0
 20
0.0
 11
1.0
 21
1.0
 12
195.0578723315511
 22
133.51247338845729
 13
0.0
 23
0.0
 14
10.0
 24
10.0
 15
10.0
 25
10.0
 16
0.0
 26
0.0
 36
1.0
 17
0.0
 27
0.0
 37
0.0
 40
275.42325997844938
 41
1.831871345029239
 42
50.0
 43
0.0
 44
0.0
 50
0.0
 51
0.0
 71
     0
 72
   500
 73
     1
 74
     0
 75
     0
 76
     0
 77
     0
 78
     2
  0
ENDTAB
  0
TABLE
  2
LTYPE
 70
     4
  0
LTYPE
  2
CONTINUOUS
 70
     0
  3
Solid Line
 72
    65
 73
     0
 40
0.0
  0
LTYPE
  2
CENTER
 70
     0
  3
____ _ ____ _ ____ _ ____ _ ____ _ ____ _ ____
 72
    65
 73
     4
 40
2.0
 49
1.25
 49
-0.25
 49
0.25
 49
-0.25
  0
LTYPE
  2
HIDDEN
 70
     0
  3
_ _ _ _ _ _ _ _ _ _ _ _ _ _ _ _ _ _ _ _ _ _ _
 72
    65
 73
     2
 40
0.375
 49
0.25
 49
-0.125
  0
LTYPE
  2
PHANTOM2
 70
     0
  3
___ _ _ ___ _ _ ___ _ _ ___ _ _
 72
    65
 73
     6
 40
1.25
 49
0.625
 49
-0.125
 49
0.125
 49
-0.125
 49
0.125
 49
-0.125
  0
ENDTAB
  0
TABLE
  2
LAYER
 70
     5
  0
LAYER
  2
0
 70
     0
 62
     7
  6
CONTINUOUS
  0
LAYER
  2
1
 70
     0
 62
     1
  6
CENTER
  0
LAYER
  2
2
 70
     0
 62
     2
  6
HIDDEN
  0
LAYER
  2
3
 70
     0
 62
     3
  6
CONTINUOUS
  0
LAYER
  2
ITTEN
 70
     0
 62
     1
  6
CENTER
  0
ENDTAB
  0
TABLE
  2
STYLE
 70
     2
  0
STYLE
  2
STANDARD
 70
     0
 40
0.0
 41
1.0
 50
0.0
 71
     0
 42
0.2
  3
TXT
  4
BIGFONT
  0
STYLE
  2
STANDARD1
 70
     0
 40
0.0
 41
1.0
 50
0.0
 71
     0
 42
3.0
  3
txt
  4

  0
ENDTAB
  0
TABLE
  2
VIEW
 70
     1
  0
VIEW
  2
ALL
 70
     0
 40
270.0
 10
220.99159663865549
 20
135.0
 41
0.0
 11
0.0
 21
0.0
 31
1.0
 12
0.0
 22
0.0
 32
0.0
 42
0.0
 43
0.0
 44
0.0
 50
0.0
 71
     0
  0
ENDTAB
  0
TABLE
  2
UCS
 70
     0
  0
ENDTAB
  0
TABLE
  2
APPID
 70
     3
  0
APPID
  2
ACAD
 70
     0
  0
APPID
  2
ACAD_MLEADERVER
 70
     0
  0
APPID
  2
ACAD_NAV_VCDISPLAY
 70
     0
  0
ENDTAB
  0
TABLE
  2
DIMSTYLE
 70
     1
  0
DIMSTYLE
  2
STANDARD
 70
     0
  3

  4

  5

  6

  7

 40
1.0
 41
0.18
 42
0.0625
 43
0.38
 44
0.18
 45
0.0
 46
0.0
 47
0.0
 48
0.0
140
0.18
141
0.09
142
0.0
143
25.399999999999999
144
1.0
145
0.0
146
1.0
147
0.09
 71
     0
 72
     0
 73
     1
 74
     1
 75
     0
 76
     0
 77
     0
 78
     0
170
     0
171
     2
172
     0
173
     0
174
     0
175
     0
176
     0
177
     0
178
     0
  0
ENDTAB
  0
ENDSEC
  0
SECTION
  2
BLOCKS
  0
BLOCK
  8
0
  2
$MODEL_SPACE
 70
     0
 10
0.0
 20
0.0
 30
0.0
  3
$MODEL_SPACE
  1

  0
ENDBLK
  5
FF
  8
0
  0
BLOCK
 67
     1
  8
0
  2
$PAPER_SPACE
 70
     0
 10
0.0
 20
0.0
 30
0.0
  3
$PAPER_SPACE
  1

  0
ENDBLK
  5
FD
 67
     1
  8
0
  0
BLOCK
  8
0
  2
BATU
 70
     0
 10
0.0
 20
0.0
 30
0.0
  3
BATU
  1

  0
LINE
  5
10A
  8
ITTEN
 10
0.5
 20
0.0
 30
0.0
 11
-0.5
 21
0.0
 31
0.0
  0
LINE
  5
10B
  8
ITTEN
 10
0.0
 20
0.5
 30
0.0
 11
0.0
 21
-0.5
 31
0.0
  0
ENDBLK
  5
10D
  8
0
  0
ENDSEC
  0
SECTION
  2
ENTITIES
  0
CIRCLE
  5
3F
  8
0
 10
270.0
 20
139.99999999999989
 30
0.0
 40
13.220499999999991
  0
CIRCLE
  5
40
  8
3
 10
270.0
 20
139.99999999999989
 30
0.0
 40
12.058499999999921
  0
CIRCLE
  5
41
  8
0
 10
270.0
 20
139.99999999999989
 30
0.0
 40
10.00000000000003
  0
CIRCLE
  5
42
  8
0
 10
270.0
 20
139.99999999999989
 30
0.0
 40
9.5000000000000284
  0
LINE
  5
43
  8
1
 10
270.0
 20
160.74999999999989
 30
0.0
 11
270.0
 21
119.25
 31
0.0
  0
LINE
  5
44
  8
1
 10
290.75
 20
140.0
 30
0.0
 11
249.25
 21
140.0
 31
0.0
  0
CIRCLE
  5
45
  8
0
 10
270.0
 20
140.0
 30
0.0
 40
15.75
  0
LINE
  5
46
  8
0
 10
197.0
 20
155.74999999999989
 30
0.0
 11
197.0
 21
124.2500000000001
 31
0.0
  0
LINE
  5
47
  8
0
 10
196.99999999999989
 20
54.422511990407628
 30
0.0
 11
197.0
 21
85.922511990407401
 31
0.0
  0
LINE
  5
48
  8
0
 10
205.0
 20
152.0584999999999
 30
0.0
 11
206.0
 21
152.0584999999999
 31
0.0
  0
LINE
  5
49
  8
0
 10
205.0
 20
127.94149999999991
 30
0.0
 11
206.0
 21
127.94149999999991
 31
0.0
  0
LINE
  5
4A
  8
0
 10
205.0
 20
126.7794999999999
 30
0.0
 11
205.0
 21
153.22049999999999
 31
0.0
  0
LINE
  5
4B
  8
0
 10
193.5
 20
155.74999999999969
 30
0.0
 11
197.0
 21
155.74999999999969
 31
0.0
  0
LINE
  5
4C
  8
0
 10
193.5
 20
124.2499999999999
 30
0.0
 11
197.0
 21
124.2499999999999
 31
0.0
  0
LINE
  5
4D
  8
0
 10
193.5
 20
124.2499999999999
 30
0.0
 11
193.5
 21
155.74999999999969
 31
0.0
  0
LINE
  5
4E
  8
0
 10
195.5
 20
124.2499999999999
 30
0.0
 11
195.5
 21
155.74999999999969
 31
0.0
  0
LINE
  5
4F
  8
0
 10
197.0
 20
126.7794999999999
 30
0.0
 11
205.0
 21
126.7795
 31
0.0
  0
LINE
  5
50
  8
3
 10
197.0
 20
127.94149999999991
 30
0.0
 11
205.0
 21
127.94149999999991
 31
0.0
  0
LINE
  5
51
  8
0
 10
197.0
 20
153.22049999999999
 30
0.0
 11
205.0
 21
153.22049999999999
 31
0.0
  0
LINE
  5
52
  8
3
 10
197.0
 20
152.0584999999999
 30
0.0
 11
205.0
 21
152.0584999999999
 31
0.0
  0
LINE
  5
53
  8
0
 10
206.0
 20
127.9415
 30
0.0
 11
206.0
 21
152.0584999999999
 31
0.0
  0
LINE
  5
54
  8
0
 10
190.08845726178001
 20
124.41154273821989
 30
0.0
 11
193.5
 21
124.41154273821989
 31
0.0
  0
LINE
  5
55
  8
0
 10
190.08845726178009
 20
132.20577137228179
 30
0.0
 11
193.5
 21
132.20577137228179
 31
0.0
  0
LINE
  5
56
  8
0
 10
190.08845726178009
 20
147.79422862771801
 30
0.0
 11
193.5
 21
147.79422862771801
 31
0.0
  0
LINE
  5
57
  8
0
 10
190.08845726178009
 20
155.58845726178001
 30
0.0
 11
193.5
 21
155.58845726178001
 31
0.0
  0
LINE
  5
58
  8
0
 10
188.5
 20
125.9999999999999
 30
0.0
 11
188.5
 21
153.99999999999989
 31
0.0
  0
LINE
  5
59
  8
0
 10
188.5
 20
153.99999999999989
 30
0.0
 11
190.08845726178009
 21
155.58845726178001
 31
0.0
  0
LINE
  5
5A
  8
0
 10
188.5
 20
149.8372932998127
 30
0.0
 11
190.08845726178009
 21
147.79422862771801
 31
0.0
  0
LINE
  5
5B
  8
0
 10
188.5
 20
143.70809928353199
 30
0.0
 11
190.08845726178009
 21
147.79422862771801
 31
0.0
  0
LINE
  5
5C
  8
0
 10
188.5
 20
136.29190071646781
 30
0.0
 11
190.08845726178009
 21
132.2057713722817
 31
0.0
  0
LINE
  5
5D
  8
0
 10
188.5
 20
130.1627067001871
 30
0.0
 11
190.08845726178009
 21
132.2057713722817
 31
0.0
  0
LINE
  5
5E
  8
0
 10
188.5
 20
125.9999999999999
 30
0.0
 11
190.08845726178009
 21
124.41154273821979
 31
0.0
  0
ARC
  5
5F
  8
0
 10
188.5
 20
140.0
 30
0.0
 40
12.5
 50
89.999999999999986
 51
270.0
  0
LINE
  5
60
  8
1
 10
171.0
 20
140.0
 30
0.0
 11
211.0
 21
140.0
 31
0.0
  0
LINE
  5
61
  8
0
 10
205.0
 20
58.114011990407562
 30
0.0
 11
206.0
 21
58.114011990407562
 31
0.0
  0
LINE
  5
62
  8
0
 10
205.0
 20
82.231011990407637
 30
0.0
 11
206.0
 21
82.231011990407637
 31
0.0
  0
LINE
  5
63
  8
0
 10
205.0
 20
83.393011990407558
 30
0.0
 11
205.0
 21
56.95201199040752
 31
0.0
  0
LINE
  5
64
  8
0
 10
197.0
 20
83.393011990407587
 30
0.0
 11
205.0
 21
83.393011990407558
 31
0.0
  0
LINE
  5
65
  8
3
 10
197.0
 20
82.231011990407637
 30
0.0
 11
205.0
 21
82.231011990407637
 31
0.0
  0
LINE
  5
66
  8
0
 10
196.99999999999989
 20
56.95201199040752
 30
0.0
 11
205.0
 21
56.95201199040752
 31
0.0
  0
LINE
  5
67
  8
3
 10
196.99999999999989
 20
58.11401199040759
 30
0.0
 11
205.0
 21
58.114011990407541
 31
0.0
  0
LINE
  5
68
  8
0
 10
206.0
 20
82.231011990407524
 30
0.0
 11
206.0
 21
58.114011990407562
 31
0.0
  0
LINE
  5
69
  8
1
 10
171.0
 20
70.172511990407514
 30
0.0
 11
211.0
 21
70.172511990407514
 31
0.0
  0
CIRCLE
  5
6A
  8
2
 10
110.0
 20
139.99999999999989
 30
0.0
 40
9.5
  0
ARC
  5
6B
  8
0
 10
188.5
 20
70.172511990407514
 30
0.0
 40
12.5
 50
90.0
 51
270.0
  0
LINE
  5
6C
  8
0
 10
188.5
 20
80.133820164225853
 30
0.0
 11
190.08845725542611
 21
83.672511979425565
 31
0.0
  0
LINE
  5
6D
  8
0
 10
188.5
 20
73.711203805597293
 30
0.0
 11
190.08845725542611
 21
70.172511990407571
 31
0.0
  0
LINE
  5
6E
  8
0
 10
188.5
 20
66.633820175217778
 30
0.0
 11
190.08845725542611
 21
70.172511990407514
 31
0.0
  0
LINE
  5
6F
  8
0
 10
188.5
 20
60.211203816589233
 30
0.0
 11
190.08845725542611
 21
56.672512001389521
 31
0.0
  0
ARC
  5
70
  8
0
 10
110.0
 20
139.99999999999989
 30
0.0
 40
14.0
 50
195.35888575062879
 51
224.6411142493574
  0
ARC
  5
71
  8
0
 10
110.0
 20
139.99999999999989
 30
0.0
 40
14.0
 50
135.35888575062879
 51
164.6411142493574
  0
ARC
  5
72
  8
0
 10
110.0
 20
139.99999999999989
 30
0.0
 40
14.0
 50
75.358885750628843
 51
104.6411142493574
  0
ARC
  5
73
  8
0
 10
110.0
 20
139.99999999999989
 30
0.0
 40
14.0
 50
15.35888575062881
 51
44.641114249357457
  0
ARC
  5
74
  8
0
 10
110.0
 20
139.99999999999989
 30
0.0
 40
14.0
 50
315.35888575062882
 51
344.64111424935737
  0
ARC
  5
75
  8
0
 10
110.0
 20
139.99999999999989
 30
0.0
 40
14.0
 50
255.3588857506289
 51
284.64111424935737
  0
LINE
  5
76
  8
0
 10
188.5
 20
56.672512001389578
 30
0.0
 11
188.5
 21
83.672511979411581
 31
0.0
  0
LINE
  5
77
  8
0
 10
193.49999999999989
 20
54.422511990407742
 30
0.0
 11
196.99999999999989
 21
54.422511990407742
 31
0.0
  0
LINE
  5
78
  8
0
 10
193.49999999999989
 20
85.922511990407486
 30
0.0
 11
197.0
 21
85.922511990407486
 31
0.0
  0
LINE
  5
79
  8
0
 10
195.49999999999989
 20
85.922511990407486
 30
0.0
 11
195.49999999999989
 21
54.422511990407742
 31
0.0
  0
LINE
  5
7A
  8
0
 10
193.49999999999989
 20
70.172511990407514
 30
0.0
 11
190.08845725542611
 21
70.172511990407514
 31
0.0
  0
LINE
  5
7B
  8
0
 10
188.5
 20
83.672511979411581
 30
0.0
 11
193.5
 21
83.67251197941161
 31
0.0
  0
LINE
  5
7C
  8
0
 10
193.49999999999989
 20
56.672512001389549
 30
0.0
 11
188.5
 21
56.672512001389578
 31
0.0
  0
LINE
  5
7D
  8
0
 10
193.49999999999989
 20
54.422511990407507
 30
0.0
 11
193.5
 21
85.922511990407287
 31
0.0
  0
CIRCLE
  5
7E
  8
0
 10
110.0
 20
139.99999999999989
 30
0.0
 40
12.5
  0
LINE
  5
7F
  8
0
 10
109.99999999999299
 20
155.58845725542679
 30
0.0
 11
123.49999999999299
 21
147.7942286213696
 31
0.0
  0
LINE
  5
80
  8
0
 10
96.500000010982035
 20
147.79422862771889
 30
0.0
 11
110.00000001098201
 21
155.5884572617808
 31
0.0
  0
LINE
  5
81
  8
0
 10
96.500000010982035
 20
132.20577137228941
 30
0.0
 11
96.500000010982035
 21
147.79422864040839
 31
0.0
  0
LINE
  5
82
  8
0
 10
109.99999999999299
 20
124.41154274457379
 30
0.0
 11
96.499999999993065
 21
132.205771378631
 31
0.0
  0
LINE
  5
83
  8
0
 10
123.4999999889918
 20
132.2057713722817
 30
0.0
 11
109.9999999890041
 21
124.41154273821989
 31
0.0
  0
LINE
  5
84
  8
0
 10
123.4999999890041
 20
147.79422862772051
 30
0.0
 11
123.4999999890041
 21
132.20577135960141
 31
0.0
  0
LINE
  5
85
  8
1
 10
110.0
 20
160.74999999999989
 30
0.0
 11
109.9999999999999
 21
119.2499999999999
 31
0.0
  0
LINE
  5
86
  8
1
 10
130.75
 20
139.99999999999989
 30
0.0
 11
89.25
 21
139.99999999999989
 31
0.0
  0
CIRCLE
  5
87
  8
0
 10
110.0
 20
139.99999999999989
 30
0.0
 40
15.75
  0
LINE
  5
88
  8
0
 10
193.49999999999989
 20
194.42251199040749
 30
0.0
 11
193.5
 21
225.92251199040729
 31
0.0
  0
LINE
  5
89
  8
0
 10
193.49999999999989
 20
196.67251200138949
 30
0.0
 11
188.5
 21
196.67251200138949
 31
0.0
  0
LINE
  5
8A
  8
0
 10
188.5
 20
223.67251197941161
 30
0.0
 11
193.5
 21
223.67251197941161
 31
0.0
  0
LINE
  5
8B
  8
0
 10
193.49999999999989
 20
210.17251199040749
 30
0.0
 11
190.08845725542611
 21
210.17251199040749
 31
0.0
  0
LINE
  5
8C
  8
0
 10
195.49999999999989
 20
225.92251199040749
 30
0.0
 11
195.49999999999989
 21
194.42251199040771
 31
0.0
  0
LINE
  5
8D
  8
0
 10
193.49999999999989
 20
225.92251199040749
 30
0.0
 11
197.0
 21
225.92251199040749
 31
0.0
  0
LINE
  5
8E
  8
0
 10
193.49999999999989
 20
194.42251199040771
 30
0.0
 11
196.99999999999989
 21
194.42251199040771
 31
0.0
  0
LINE
  5
8F
  8
0
 10
188.5
 20
196.67251200138949
 30
0.0
 11
188.5
 21
223.67251197941161
 31
0.0
  0
LINE
  5
90
  8
0
 10
188.5
 20
200.21120381658929
 30
0.0
 11
190.08845725542611
 21
196.67251200138949
 31
0.0
  0
LINE
  5
91
  8
0
 10
188.5
 20
206.63382017521781
 30
0.0
 11
190.08845725542611
 21
210.17251199040749
 31
0.0
  0
LINE
  5
92
  8
0
 10
188.5
 20
213.71120380559731
 30
0.0
 11
190.08845725542611
 21
210.1725119904076
 31
0.0
  0
LINE
  5
93
  8
0
 10
188.5
 20
220.13382016422591
 30
0.0
 11
190.08845725542611
 21
223.67251197942559
 31
0.0
  0
ARC
  5
94
  8
0
 10
188.5
 20
210.17251199040749
 30
0.0
 40
12.5
 50
90.0
 51
270.0
  0
LINE
  5
95
  8
1
 10
171.0
 20
210.17251199040749
 30
0.0
 11
211.0
 21
210.17251199040749
 31
0.0
  0
LINE
  5
96
  8
0
 10
206.0
 20
222.2310119904075
 30
0.0
 11
206.0
 21
198.1140119904075
 31
0.0
  0
LINE
  5
97
  8
3
 10
196.99999999999989
 20
198.11401199040759
 30
0.0
 11
205.0
 21
198.1140119904075
 31
0.0
  0
LINE
  5
98
  8
0
 10
196.99999999999989
 20
196.9520119904075
 30
0.0
 11
205.0
 21
196.9520119904075
 31
0.0
  0
LINE
  5
99
  8
3
 10
197.0
 20
222.23101199040761
 30
0.0
 11
205.0
 21
222.23101199040761
 31
0.0
  0
LINE
  5
9A
  8
0
 10
197.0
 20
223.39301199040759
 30
0.0
 11
205.0
 21
223.39301199040759
 31
0.0
  0
LINE
  5
9B
  8
0
 10
205.0
 20
223.3930119904075
 30
0.0
 11
205.0
 21
196.9520119904075
 31
0.0
  0
LINE
  5
9C
  8
0
 10
205.0
 20
222.23101199040761
 30
0.0
 11
206.0
 21
222.23101199040761
 31
0.0
  0
LINE
  5
9D
  8
0
 10
205.0
 20
198.1140119904075
 30
0.0
 11
206.0
 21
198.1140119904075
 31
0.0
  0
LINE
  5
9E
  8
0
 10
196.99999999999989
 20
194.4225119904076
 30
0.0
 11
197.0
 21
225.9225119904074
 31
0.0
  0
INSERT
  5
10E
  8
0
  2
BATU
 10
0.0
 20
0.0
 30
0.0
 41
0.001
 42
0.001
 43
0.001
  0
TEXT
  5
221
  8
0
 62
     3
 10
0.0
 20
0.0
 30
0.0
 40
10.0
  1
CD-20
  7
STANDARD1
  0
ENDSEC
  0
EOF
