  0
SECTION
  2
HEADER
  9
$ACADVER
  1
AC1009
  9
$INSBASE
 10
0.0
 20
0.0
 30
0.0
  9
$EXTMIN
 10
0.0
 20
-2.960436562073669
 30
0.0
  9
$EXTMAX
 10
630.0
 20
484.70623499999988
 30
0.0
  9
$LIMMIN
 10
0.0
 20
0.0
  9
$LIMMAX
 10
750.0
 20
540.0
  9
$ORTHOMODE
 70
     1
  9
$REGENMODE
 70
     1
  9
$FILLMODE
 70
     1
  9
$QTEXTMODE
 70
     0
  9
$MIRRTEXT
 70
     0
  9
$DRAGMODE
 70
     2
  9
$LTSCALE
 40
20.0
  9
$OSMODE
 70
  3071
  9
$ATTMODE
 70
     1
  9
$TEXTSIZE
 40
0.2
  9
$TRACEWID
 40
0.05
  9
$TEXTSTYLE
  7
STANDARD
  9
$CLAYER
  8
0
  9
$CELTYPE
  6
BYLAYER
  9
$CECOLOR
 62
   256
  9
$DIMSCALE
 40
2.0
  9
$DIMASZ
 40
3.0
  9
$DIMEXO
 40
2.0
  9
$DIMDLI
 40
10.0
  9
$DIMRND
 40
0.0
  9
$DIMDLE
 40
0.0
  9
$DIMEXE
 40
2.0
  9
$DIMTP
 40
0.0
  9
$DIMTM
 40
0.0
  9
$DIMTXT
 40
3.2000000000000002
  9
$DIMCEN
 40
0.09
  9
$DIMTSZ
 40
0.0
  9
$DIMTOL
 70
     0
  9
$DIMLIM
 70
     0
  9
$DIMTIH
 70
     0
  9
$DIMTOH
 70
     0
  9
$DIMSE1
 70
     0
  9
$DIMSE2
 70
     0
  9
$DIMTAD
 70
     0
  9
$DIMZIN
 70
     0
  9
$DIMBLK
  1

  9
$DIMASO
 70
     0
  9
$DIMSHO
 70
     0
  9
$DIMPOST
  1

  9
$DIMAPOST
  1

  9
$DIMALT
 70
     0
  9
$DIMALTD
 70
     2
  9
$DIMALTF
 40
25.399999999999999
  9
$DIMLFAC
 40
1.0
  9
$DIMTOFL
 70
     1
  9
$DIMTVP
 40
1.0
  9
$DIMTIX
 70
     1
  9
$DIMSOXD
 70
     0
  9
$DIMSAH
 70
     0
  9
$DIMBLK1
  1

  9
$DIMBLK2
  1

  9
$DIMSTYLE
  2
STANDARD
  9
$DIMCLRD
 70
     0
  9
$DIMCLRE
 70
     0
  9
$DIMCLRT
 70
     0
  9
$DIMTFAC
 40
1.0
  9
$DIMGAP
 40
0.09
  9
$LUNITS
 70
     2
  9
$LUPREC
 70
     2
  9
$SKETCHINC
 40
0.1
  9
$FILLETRAD
 40
5.0
  9
$AUNITS
 70
     0
  9
$AUPREC
 70
     0
  9
$MENU
  1
E:\r13\win\SUPPORT\ACAD
  9
$ELEVATION
 40
0.0
  9
$PELEVATION
 40
0.0
  9
$THICKNESS
 40
0.0
  9
$LIMCHECK
 70
     0
  9
$BLIPMODE
 70
     0
  9
$CHAMFERA
 40
0.0
  9
$CHAMFERB
 40
0.0
  9
$SKPOLY
 70
     0
  9
$TDCREATE
 40
2449840.602465278
  9
$TDUPDATE
 40
2456598.5898388769
  9
$TDINDWG
 40
0.0002232523
  9
$TDUSRTIMER
 40
0.0002232523
  9
$USRTIMER
 70
     1
  9
$ANGBASE
 50
0.0
  9
$ANGDIR
 70
     0
  9
$PDMODE
 70
     0
  9
$PDSIZE
 40
0.0
  9
$PLINEWID
 40
0.0
  9
$COORDS
 70
     1
  9
$SPLFRAME
 70
     0
  9
$SPLINETYPE
 70
     6
  9
$SPLINESEGS
 70
     8
  9
$ATTDIA
 70
     0
  9
$ATTREQ
 70
     1
  9
$HANDLING
 70
     1
  9
$HANDSEED
  5
273
  9
$SURFTAB1
 70
     6
  9
$SURFTAB2
 70
     6
  9
$SURFTYPE
 70
     6
  9
$SURFU
 70
     6
  9
$SURFV
 70
     6
  9
$UCSNAME
  2

  9
$UCSORG
 10
0.0
 20
0.0
 30
0.0
  9
$UCSXDIR
 10
1.0
 20
0.0
 30
0.0
  9
$UCSYDIR
 10
0.0
 20
1.0
 30
0.0
  9
$PUCSNAME
  2

  9
$PUCSORG
 10
0.0
 20
0.0
 30
0.0
  9
$PUCSXDIR
 10
1.0
 20
0.0
 30
0.0
  9
$PUCSYDIR
 10
0.0
 20
1.0
 30
0.0
  9
$USERI1
 70
     0
  9
$USERI2
 70
     1
  9
$USERI3
 70
     0
  9
$USERI4
 70
     0
  9
$USERI5
 70
     0
  9
$USERR1
 40
0.0
  9
$USERR2
 40
0.0
  9
$USERR3
 40
0.0
  9
$USERR4
 40
0.0
  9
$USERR5
 40
0.0
  9
$WORLDVIEW
 70
     1
  9
$SHADEDGE
 70
     3
  9
$SHADEDIF
 70
    70
  9
$TILEMODE
 70
     1
  9
$MAXACTVP
 70
    16
  9
$PLIMCHECK
 70
     0
  9
$PEXTMIN
 10
1.0000000000000000E+020
 20
1.0000000000000000E+020
 30
1.0000000000000000E+020
  9
$PEXTMAX
 10
-1.0000000000000000E+020
 20
-1.0000000000000000E+020
 30
-1.0000000000000000E+020
  9
$PLIMMIN
 10
0.0
 20
0.0
  9
$PLIMMAX
 10
12.0
 20
9.0
  9
$UNITMODE
 70
     0
  9
$VISRETAIN
 70
     0
  9
$PLINEGEN
 70
     0
  9
$PSLTSCALE
 70
     0
  0
ENDSEC
  0
SECTION
  2
TABLES
  0
TABLE
  2
VPORT
 70
     1
  0
VPORT
  2
*ACTIVE
 70
     0
 10
0.0
 20
0.0
 11
1.0
 21
1.0
 12
390.03402345615979
 22
268.50860658393782
 13
0.0
 23
0.0
 14
20.0
 24
20.0
 15
20.0
 25
20.0
 16
0.0
 26
0.0
 36
1.0
 17
0.0
 27
0.0
 37
0.0
 40
547.85258761088789
 41
1.831871345029239
 42
50.0
 43
0.0
 44
0.0
 50
0.0
 51
0.0
 71
     0
 72
   100
 73
     1
 74
     0
 75
     0
 76
     0
 77
     0
 78
     2
  0
ENDTAB
  0
TABLE
  2
LTYPE
 70
     4
  0
LTYPE
  2
CONTINUOUS
 70
     0
  3
Solid Line
 72
    65
 73
     0
 40
0.0
  0
LTYPE
  2
CENTER
 70
     0
  3
____ _ ____ _ ____ _ ____ _ ____ _ ____ _ ____
 72
    65
 73
     4
 40
2.0
 49
1.25
 49
-0.25
 49
0.25
 49
-0.25
  0
LTYPE
  2
HIDDEN
 70
     0
  3
_ _ _ _ _ _ _ _ _ _ _ _ _ _ _ _ _ _ _ _ _ _ _
 72
    65
 73
     2
 40
0.375
 49
0.25
 49
-0.125
  0
LTYPE
  2
PHANTOM2
 70
     0
  3
___ _ _ ___ _ _ ___ _ _ ___ _ _
 72
    65
 73
     6
 40
1.25
 49
0.625
 49
-0.125
 49
0.125
 49
-0.125
 49
0.125
 49
-0.125
  0
ENDTAB
  0
TABLE
  2
LAYER
 70
     3
  0
LAYER
  2
0
 70
     0
 62
     7
  6
CONTINUOUS
  0
LAYER
  2
1
 70
     0
 62
     1
  6
CENTER
  0
LAYER
  2
2
 70
     0
 62
     2
  6
HIDDEN
  0
ENDTAB
  0
TABLE
  2
STYLE
 70
     2
  0
STYLE
  2
STANDARD
 70
     0
 40
0.0
 41
1.0
 50
0.0
 71
     0
 42
0.2
  3
TXT
  4
BIGFONT
  0
STYLE
  2
STANDARD1
 70
     0
 40
0.0
 41
1.0
 50
0.0
 71
     0
 42
3.0
  3
txt
  4

  0
ENDTAB
  0
TABLE
  2
VIEW
 70
     1
  0
VIEW
  2
ALL
 70
     0
 40
540.0
 10
441.98319299999991
 20
270.0
 41
0.0
 11
0.0
 21
0.0
 31
1.0
 12
0.0
 22
0.0
 32
0.0
 42
0.0
 43
0.0
 44
0.0
 50
0.0
 71
     0
  0
ENDTAB
  0
TABLE
  2
UCS
 70
     0
  0
ENDTAB
  0
TABLE
  2
APPID
 70
     3
  0
APPID
  2
ACAD
 70
     0
  0
APPID
  2
ACAD_MLEADERVER
 70
     0
  0
APPID
  2
ACAD_NAV_VCDISPLAY
 70
     0
  0
ENDTAB
  0
TABLE
  2
DIMSTYLE
 70
     1
  0
DIMSTYLE
  2
STANDARD
 70
     0
  3

  4

  5

  6

  7

 40
1.0
 41
0.18
 42
0.0625
 43
0.38
 44
0.18
 45
0.0
 46
0.0
 47
0.0
 48
0.0
140
0.18
141
0.09
142
0.0
143
25.399999999999999
144
1.0
145
0.0
146
1.0
147
0.09
 71
     0
 72
     0
 73
     1
 74
     1
 75
     0
 76
     0
 77
     0
 78
     0
170
     0
171
     2
172
     0
173
     0
174
     0
175
     0
176
     0
177
     0
178
     0
  0
ENDTAB
  0
ENDSEC
  0
SECTION
  2
BLOCKS
  0
BLOCK
  8
0
  2
$MODEL_SPACE
 70
     0
 10
0.0
 20
0.0
 30
0.0
  3
$MODEL_SPACE
  1

  0
ENDBLK
  5
129
  8
0
  0
BLOCK
 67
     1
  8
0
  2
$PAPER_SPACE
 70
     0
 10
0.0
 20
0.0
 30
0.0
  3
$PAPER_SPACE
  1

  0
ENDBLK
  5
127
 67
     1
  8
0
  0
ENDSEC
  0
SECTION
  2
ENTITIES
  0
ARC
  5
35
  8
0
 10
206.09790899999999
 20
326.09790900000002
 30
0.0
 40
28.0
 50
171.56795099999999
 51
278.43204900000001
  0
ARC
  5
36
  8
0
 10
211.5
 20
290.0
 30
0.0
 40
8.5
 50
261.22800999999998
 51
98.771990000000002
  0
ARC
  5
37
  8
0
 10
206.09790899999999
 20
253.90209100000001
 30
0.0
 40
28.0
 50
81.567951000000008
 51
188.43204900000001
  0
ARC
  5
38
  8
0
 10
170.0
 20
248.5
 30
0.0
 40
8.5
 50
171.22801000000001
 51
8.7719899999999988
  0
ARC
  5
39
  8
0
 10
133.90209100000001
 20
253.90209100000001
 30
0.0
 40
28.0
 50
351.56795099999999
 51
98.432048999999992
  0
ARC
  5
3A
  8
0
 10
128.5
 20
290.0
 30
0.0
 40
8.5
 50
81.228009999999998
 51
278.77199000000002
  0
ARC
  5
3B
  8
0
 10
170.0
 20
331.5
 30
0.0
 40
8.5
 50
351.22800999999998
 51
188.77198999999999
  0
ARC
  5
3C
  8
0
 10
133.90209100000001
 20
326.09790900000002
 30
0.0
 40
28.0
 50
261.56795099999999
 51
8.432049000000001
  0
LINE
  5
3D
  8
1
 10
170.0
 20
350.0
 30
0.0
 11
170.0
 21
230.0
 31
0.0
  0
LINE
  5
3E
  8
1
 10
110.0
 20
290.0
 30
0.0
 11
230.0
 21
290.0
 31
0.0
  0
ARC
  5
3F
  8
0
 10
457.0
 20
290.0
 30
0.0
 40
120.0
 50
156.964316
 51
203.035719
  0
LINE
  5
40
  8
0
 10
364.0
 20
335.0
 30
0.0
 11
364.0
 21
245.0
 31
0.0
  0
ARC
  5
41
  8
0
 10
351.16994799999998
 20
245.0
 30
0.0
 40
5.0
 50
203.03652099999999
 51
270.0
  0
LINE
  5
42
  8
0
 10
359.0
 20
240.0
 30
0.0
 11
351.16994799999998
 21
240.0
 31
0.0
  0
ARC
  5
43
  8
0
 10
359.0
 20
245.0
 30
0.0
 40
5.0
 50
270.0
 51
360.0
  0
LINE
  5
44
  8
0
 10
400.0
 20
269.0
 30
0.0
 11
371.55624
 21
267.41979099999998
 31
0.0
  0
ARC
  5
45
  8
0
 10
372.0
 20
259.43210800000003
 30
0.0
 40
8.0
 50
93.17983000000001
 51
180.0
  0
ARC
  5
46
  8
0
 10
372.0
 20
320.56789199999997
 30
0.0
 40
8.0
 50
180.0
 51
266.82017000000002
  0
ARC
  5
47
  8
0
 10
359.0
 20
335.0
 30
0.0
 40
5.0
 50
360.0
 51
90.0
  0
LINE
  5
48
  8
0
 10
359.0
 20
340.0
 30
0.0
 11
351.16994799999998
 21
340.0
 31
0.0
  0
LINE
  5
49
  8
0
 10
400.0
 20
311.0
 30
0.0
 11
371.55624
 21
312.58020900000002
 31
0.0
  0
LINE
  5
4A
  8
0
 10
400.0
 20
269.0
 30
0.0
 11
400.0
 21
311.0
 31
0.0
  0
LINE
  5
4B
  8
1
 10
410.0
 20
290.0
 30
0.0
 11
327.0
 21
290.0
 31
0.0
  0
LINE
  5
4C
  8
1
 10
510.0
 20
290.0
 30
0.0
 11
630.0
 21
290.0
 31
0.0
  0
LINE
  5
4D
  8
1
 10
570.0
 20
350.0
 30
0.0
 11
570.0
 21
230.0
 31
0.0
  0
ARC
  5
4E
  8
0
 10
533.90209100000004
 20
326.09790900000002
 30
0.0
 40
28.0
 50
261.56795099999999
 51
8.432049000000001
  0
ARC
  5
4F
  8
0
 10
570.0
 20
331.5
 30
0.0
 40
8.5
 50
351.22800999999998
 51
188.77198999999999
  0
ARC
  5
50
  8
0
 10
528.5
 20
290.0
 30
0.0
 40
8.5
 50
81.228009999999998
 51
278.77199000000002
  0
ARC
  5
51
  8
0
 10
533.90209100000004
 20
253.90209100000001
 30
0.0
 40
28.0
 50
351.56795099999999
 51
98.432048999999992
  0
ARC
  5
52
  8
0
 10
570.0
 20
248.5
 30
0.0
 40
8.5
 50
171.22801000000001
 51
8.7719899999999988
  0
ARC
  5
53
  8
0
 10
606.09790899999996
 20
253.90209100000001
 30
0.0
 40
28.0
 50
81.567951000000008
 51
188.43204900000001
  0
ARC
  5
54
  8
0
 10
611.5
 20
290.0
 30
0.0
 40
8.5
 50
261.22800999999998
 51
98.771990000000002
  0
ARC
  5
55
  8
0
 10
606.09790899999996
 20
326.09790900000002
 30
0.0
 40
28.0
 50
171.56795099999999
 51
278.43204900000001
  0
CIRCLE
  5
56
  8
0
 10
570.0
 20
290.0
 30
0.0
 40
21.0
  0
CIRCLE
  5
57
  8
0
 10
570.0
 20
290.0
 30
0.0
 40
23.0
  0
LINE
  5
58
  8
0
 10
352.91287899999998
 20
281.5
 30
0.0
 11
359.0
 21
281.5
 31
0.0
  0
LINE
  5
59
  8
0
 10
352.91287899999998
 20
298.5
 30
0.0
 11
359.0
 21
298.5
 31
0.0
  0
ARC
  5
5A
  8
0
 10
359.0
 20
293.5
 30
0.0
 40
5.0
 50
0.0
 51
90.0
  0
ARC
  5
5B
  8
0
 10
359.0
 20
286.5
 30
0.0
 40
5.0
 50
270.0
 51
0.0
  0
LINE
  5
5C
  8
0
 10
347.91287899999998
 20
293.5
 30
0.0
 11
347.91287899999998
 21
286.5
 31
0.0
  0
POLYLINE
  5
5D
  8
0
 66
     1
 10
0.0
 20
0.0
 30
0.0
  0
VERTEX
  5
5E
  8
0
 10
339.23459600000001
 20
306.29891900000001
 30
0.0
 42
0.108396
  0
VERTEX
  5
5F
  8
0
 10
339.88011899999998
 20
303.35627699999998
 30
0.0
 42
0.102057
  0
VERTEX
  5
60
  8
0
 10
341.77640600000001
 20
300.78425099999998
 30
0.0
 42
0.09421
 70
     2
 50
318.05489399999999
  0
VERTEX
  5
61
  8
0
 10
344.55032999999997
 20
299.10554400000001
 30
0.0
 42
0.089324
 50
318.05489399999999
  0
VERTEX
  5
62
  8
0
 10
347.91287899999998
 20
298.5
 30
0.0
 42
0.089324
  0
SEQEND
  5
63
  8
0
  0
POLYLINE
  5
64
  8
0
 66
     1
 10
0.0
 20
0.0
 30
0.0
  0
VERTEX
  5
65
  8
0
 10
339.47694100000001
 20
314.25552599999997
 30
0.0
 42
0.015226
 50
255.559628
  0
VERTEX
  5
66
  8
0
 10
339.23459600000001
 20
306.29891900000001
 30
0.0
 42
0.026572
  0
SEQEND
  5
67
  8
0
  0
ARC
  5
68
  8
0
 10
352.91287899999998
 20
293.5
 30
0.0
 40
5.0
 50
90.0
 51
180.0
  0
ARC
  5
69
  8
0
 10
351.16994799999998
 20
335.0
 30
0.0
 40
5.0
 50
90.0
 51
156.964316
  0
ARC
  5
6A
  8
0
 10
352.91287899999998
 20
286.5
 30
0.0
 40
5.0
 50
180.0
 51
270.0
  0
POLYLINE
  5
6B
  8
0
 66
     1
 10
0.0
 20
0.0
 30
0.0
  0
VERTEX
  5
6C
  8
0
 10
339.23459600000001
 20
273.70108099999999
 30
0.0
 42
-0.108396
  0
VERTEX
  5
6D
  8
0
 10
339.88011899999998
 20
276.64372300000002
 30
0.0
 42
-0.102057
  0
VERTEX
  5
6E
  8
0
 10
341.77640600000001
 20
279.21574900000002
 30
0.0
 42
-0.09421
 70
     2
 50
41.945106000000003
  0
VERTEX
  5
6F
  8
0
 10
344.55032999999997
 20
280.89445599999999
 30
0.0
 42
-0.089324
  0
VERTEX
  5
70
  8
0
 10
347.91287899999998
 20
281.5
 30
0.0
 42
-0.089324
  0
SEQEND
  5
71
  8
0
  0
POLYLINE
  5
72
  8
0
 66
     1
 10
0.0
 20
0.0
 30
0.0
  0
VERTEX
  5
73
  8
0
 10
339.47694100000001
 20
265.74447400000003
 30
0.0
 42
-0.015226
  0
VERTEX
  5
74
  8
0
 10
339.23459600000001
 20
273.70108099999999
 30
0.0
 42
-0.026572
  0
SEQEND
  5
75
  8
0
  0
POLYLINE
  5
76
  8
0
 66
     1
 10
0.0
 20
0.0
 30
0.0
  0
VERTEX
  5
77
  8
0
 10
339.47694100000001
 20
410.4507089999999
 30
0.0
 42
-0.015226
  0
VERTEX
  5
78
  8
0
 10
339.23459600000001
 20
418.40731599999998
 30
0.0
 42
-0.026572
  0
SEQEND
  5
79
  8
0
  0
POLYLINE
  5
7A
  8
0
 66
     1
 10
0.0
 20
0.0
 30
0.0
  0
VERTEX
  5
7B
  8
0
 10
339.23459600000001
 20
418.40731599999998
 30
0.0
 42
-0.108396
  0
VERTEX
  5
7C
  8
0
 10
339.88011899999998
 20
421.34995800000002
 30
0.0
 42
-0.102057
  0
VERTEX
  5
7D
  8
0
 10
341.77640600000001
 20
423.92198400000001
 30
0.0
 42
-0.09421
 70
     2
 50
41.945106000000003
  0
VERTEX
  5
7E
  8
0
 10
344.55032999999997
 20
425.60069099999998
 30
0.0
 42
-0.089324
  0
VERTEX
  5
7F
  8
0
 10
347.91287899999998
 20
426.20623499999988
 30
0.0
 42
-0.089324
  0
SEQEND
  5
80
  8
0
  0
ARC
  5
81
  8
0
 10
352.91287899999998
 20
431.20623499999988
 30
0.0
 40
5.0
 50
180.0
 51
270.0
  0
ARC
  5
82
  8
0
 10
351.16994799999998
 20
479.70623499999988
 30
0.0
 40
5.0
 50
90.0
 51
156.964316
  0
ARC
  5
83
  8
0
 10
352.91287899999998
 20
438.20623499999988
 30
0.0
 40
5.0
 50
90.0
 51
180.0
  0
POLYLINE
  5
84
  8
0
 66
     1
 10
0.0
 20
0.0
 30
0.0
  0
VERTEX
  5
85
  8
0
 10
339.47694100000001
 20
458.96176100000002
 30
0.0
 42
0.015226
 50
255.559628
  0
VERTEX
  5
86
  8
0
 10
339.23459600000001
 20
451.005154
 30
0.0
 42
0.026572
  0
SEQEND
  5
87
  8
0
  0
POLYLINE
  5
88
  8
0
 66
     1
 10
0.0
 20
0.0
 30
0.0
  0
VERTEX
  5
89
  8
0
 10
339.23459600000001
 20
451.005154
 30
0.0
 42
0.108396
  0
VERTEX
  5
8A
  8
0
 10
339.88011899999998
 20
448.06251200000003
 30
0.0
 42
0.102057
  0
VERTEX
  5
8B
  8
0
 10
341.77640600000001
 20
445.49048599999998
 30
0.0
 42
0.09421
 70
     2
 50
318.05489399999999
  0
VERTEX
  5
8C
  8
0
 10
344.55032999999997
 20
443.81177899999989
 30
0.0
 42
0.089324
 50
318.05489399999999
  0
VERTEX
  5
8D
  8
0
 10
347.91287899999998
 20
443.20623499999988
 30
0.0
 42
0.089324
  0
SEQEND
  5
8E
  8
0
  0
LINE
  5
8F
  8
0
 10
347.91287899999998
 20
438.20623499999988
 30
0.0
 11
347.91287899999998
 21
431.20623499999988
 31
0.0
  0
ARC
  5
90
  8
0
 10
359.0
 20
431.20623499999988
 30
0.0
 40
5.0
 50
270.0
 51
0.0
  0
ARC
  5
91
  8
0
 10
359.0
 20
438.20623499999988
 30
0.0
 40
5.0
 50
0.0
 51
90.0
  0
LINE
  5
92
  8
0
 10
352.91287899999998
 20
443.20623499999988
 30
0.0
 11
359.0
 21
443.20623499999988
 31
0.0
  0
LINE
  5
93
  8
0
 10
352.91287899999998
 20
426.20623499999988
 30
0.0
 11
359.0
 21
426.20623499999988
 31
0.0
  0
LINE
  5
94
  8
1
 10
410.0
 20
434.70623499999988
 30
0.0
 11
327.0
 21
434.70623499999988
 31
0.0
  0
LINE
  5
95
  8
0
 10
400.0
 20
413.70623499999988
 30
0.0
 11
400.0
 21
455.70623499999988
 31
0.0
  0
LINE
  5
96
  8
0
 10
400.0
 20
455.70623499999988
 30
0.0
 11
371.55624
 21
457.28644400000002
 31
0.0
  0
LINE
  5
97
  8
0
 10
359.0
 20
484.70623499999988
 30
0.0
 11
351.16994799999998
 21
484.70623499999988
 31
0.0
  0
ARC
  5
98
  8
0
 10
359.0
 20
479.70623499999988
 30
0.0
 40
5.0
 50
360.0
 51
90.0
  0
ARC
  5
99
  8
0
 10
372.0
 20
465.27412699999991
 30
0.0
 40
8.0
 50
180.0
 51
266.82017000000002
  0
ARC
  5
9A
  8
0
 10
372.0
 20
404.13834300000002
 30
0.0
 40
8.0
 50
93.17983000000001
 51
180.0
  0
LINE
  5
9B
  8
0
 10
400.0
 20
413.70623499999988
 30
0.0
 11
371.55624
 21
412.12602599999991
 31
0.0
  0
ARC
  5
9C
  8
0
 10
359.0
 20
389.70623499999999
 30
0.0
 40
5.0
 50
270.0
 51
360.0
  0
LINE
  5
9D
  8
0
 10
359.0
 20
384.70623499999999
 30
0.0
 11
351.16994799999998
 21
384.70623499999999
 31
0.0
  0
ARC
  5
9E
  8
0
 10
351.16994799999998
 20
389.70623499999999
 30
0.0
 40
5.0
 50
203.03652099999999
 51
270.0
  0
LINE
  5
9F
  8
0
 10
364.0
 20
479.70623499999988
 30
0.0
 11
364.0
 21
389.70623499999999
 31
0.0
  0
ARC
  5
A0
  8
0
 10
457.0
 20
434.70623499999988
 30
0.0
 40
120.0
 50
156.964316
 51
203.035719
  0
ARC
  5
A1
  8
0
 10
457.0
 20
145.29376499999989
 30
0.0
 40
120.0
 50
156.964281
 51
203.035684
  0
LINE
  5
A2
  8
0
 10
364.0
 20
100.29376499999999
 30
0.0
 11
364.0
 21
190.29376500000001
 31
0.0
  0
ARC
  5
A3
  8
0
 10
351.16994799999998
 20
190.29376500000001
 30
0.0
 40
5.0
 50
90.0
 51
156.96347900000001
  0
LINE
  5
A4
  8
0
 10
359.0
 20
195.29376499999989
 30
0.0
 11
351.16994799999998
 21
195.29376499999989
 31
0.0
  0
ARC
  5
A5
  8
0
 10
359.0
 20
190.29376500000001
 30
0.0
 40
5.0
 50
0.0
 51
90.0
  0
LINE
  5
A6
  8
0
 10
400.0
 20
166.29376500000001
 30
0.0
 11
371.55624
 21
167.873974
 31
0.0
  0
ARC
  5
A7
  8
0
 10
372.0
 20
175.86165700000001
 30
0.0
 40
8.0
 50
180.0
 51
266.82017000000002
  0
ARC
  5
A8
  8
0
 10
372.0
 20
114.72587300000001
 30
0.0
 40
8.0
 50
93.17983000000001
 51
180.0
  0
ARC
  5
A9
  8
0
 10
359.0
 20
100.29376499999999
 30
0.0
 40
5.0
 50
270.0
 51
0.0
  0
LINE
  5
AA
  8
0
 10
359.0
 20
95.293765000000008
 30
0.0
 11
351.16994799999998
 21
95.293765000000008
 31
0.0
  0
LINE
  5
AB
  8
0
 10
400.0
 20
124.29376499999999
 30
0.0
 11
371.55624
 21
122.713556
 31
0.0
  0
LINE
  5
AC
  8
0
 10
400.0
 20
166.29376500000001
 30
0.0
 11
400.0
 21
124.29376499999999
 31
0.0
  0
LINE
  5
AD
  8
1
 10
410.0
 20
145.29376499999989
 30
0.0
 11
327.0
 21
145.29376499999989
 31
0.0
  0
LINE
  5
AE
  8
0
 10
352.91287899999998
 20
153.79376500000001
 30
0.0
 11
359.0
 21
153.79376500000001
 31
0.0
  0
LINE
  5
AF
  8
0
 10
352.91287899999998
 20
136.79376500000001
 30
0.0
 11
359.0
 21
136.79376500000001
 31
0.0
  0
ARC
  5
B0
  8
0
 10
359.0
 20
141.79376500000001
 30
0.0
 40
5.0
 50
270.0
 51
360.0
  0
ARC
  5
B1
  8
0
 10
359.0
 20
148.79376500000001
 30
0.0
 40
5.0
 50
360.0
 51
90.0
  0
LINE
  5
B2
  8
0
 10
347.91287899999998
 20
141.79376500000001
 30
0.0
 11
347.91287899999998
 21
148.79376500000001
 31
0.0
  0
POLYLINE
  5
B3
  8
0
 66
     1
 10
0.0
 20
0.0
 30
0.0
  0
VERTEX
  5
B4
  8
0
 10
339.23459600000001
 20
128.994846
 30
0.0
 42
-0.108396
  0
VERTEX
  5
B5
  8
0
 10
339.88011899999998
 20
131.937488
 30
0.0
 42
-0.102057
  0
VERTEX
  5
B6
  8
0
 10
341.77640600000001
 20
134.509514
 30
0.0
 42
-0.09421
 70
     2
 50
41.945106000000003
  0
VERTEX
  5
B7
  8
0
 10
344.55032999999997
 20
136.188221
 30
0.0
 42
-0.089324
  0
VERTEX
  5
B8
  8
0
 10
347.91287899999998
 20
136.79376500000001
 30
0.0
 42
-0.089324
  0
SEQEND
  5
B9
  8
0
  0
POLYLINE
  5
BA
  8
0
 66
     1
 10
0.0
 20
0.0
 30
0.0
  0
VERTEX
  5
BB
  8
0
 10
339.47694100000001
 20
121.038239
 30
0.0
 42
-0.015226
  0
VERTEX
  5
BC
  8
0
 10
339.23459600000001
 20
128.994846
 30
0.0
 42
-0.026572
  0
SEQEND
  5
BD
  8
0
  0
ARC
  5
BE
  8
0
 10
352.91287899999998
 20
141.79376500000001
 30
0.0
 40
5.0
 50
180.0
 51
270.0
  0
ARC
  5
BF
  8
0
 10
351.16994799999998
 20
100.29376499999999
 30
0.0
 40
5.0
 50
203.035684
 51
270.0
  0
ARC
  5
C0
  8
0
 10
352.91287899999998
 20
148.79376500000001
 30
0.0
 40
5.0
 50
90.0
 51
180.0
  0
POLYLINE
  5
C1
  8
0
 66
     1
 10
0.0
 20
0.0
 30
0.0
  0
VERTEX
  5
C2
  8
0
 10
339.23459600000001
 20
161.59268399999999
 30
0.0
 42
0.108396
  0
VERTEX
  5
C3
  8
0
 10
339.88011899999998
 20
158.65004200000001
 30
0.0
 42
0.102057
  0
VERTEX
  5
C4
  8
0
 10
341.77640600000001
 20
156.07801599999999
 30
0.0
 42
0.09421
 70
     2
 50
318.05489399999999
  0
VERTEX
  5
C5
  8
0
 10
344.55032999999997
 20
154.39930899999999
 30
0.0
 42
0.089324
  0
VERTEX
  5
C6
  8
0
 10
347.91287899999998
 20
153.79376500000001
 30
0.0
 42
0.089324
  0
SEQEND
  5
C7
  8
0
  0
POLYLINE
  5
C8
  8
0
 66
     1
 10
0.0
 20
0.0
 30
0.0
  0
VERTEX
  5
C9
  8
0
 10
339.47694100000001
 20
169.54929100000001
 30
0.0
 42
0.015226
  0
VERTEX
  5
CA
  8
0
 10
339.23459600000001
 20
161.59268399999999
 30
0.0
 42
0.026572
  0
SEQEND
  5
CB
  8
0
  0
LINE
  5
CC
  8
2
 10
399.0
 20
155.29376500000001
 30
0.0
 11
399.0
 21
135.29376500000001
 31
0.0
  0
LINE
  5
CD
  8
2
 10
360.0
 20
135.79376499999989
 30
0.0
 11
354.51517200000001
 21
145.29376499999989
 31
0.0
  0
LINE
  5
CE
  8
2
 10
360.0
 20
154.79376499999989
 30
0.0
 11
354.51517200000001
 21
145.29376499999989
 31
0.0
  0
LINE
  5
CF
  8
2
 10
399.0
 20
135.29376500000001
 30
0.0
 11
400.0
 21
134.29376500000001
 31
0.0
  0
LINE
  5
D0
  8
2
 10
399.0
 20
155.29376500000001
 30
0.0
 11
400.0
 21
156.29376500000001
 31
0.0
  0
LINE
  5
D1
  8
2
 10
364.0
 20
135.79376499999989
 30
0.0
 11
360.0
 21
135.79376499999989
 31
0.0
  0
LINE
  5
D2
  8
2
 10
364.0
 20
154.79376499999989
 30
0.0
 11
360.0
 21
154.79376499999989
 31
0.0
  0
LINE
  5
D3
  8
2
 10
360.0
 20
135.79376499999989
 30
0.0
 11
360.0
 21
154.79376499999989
 31
0.0
  0
LINE
  5
D4
  8
2
 10
364.0
 20
135.29376500000001
 30
0.0
 11
364.0
 21
155.29376500000001
 31
0.0
  0
LINE
  5
D5
  8
2
 10
399.0
 20
135.29376500000001
 30
0.0
 11
364.0
 21
135.29376500000001
 31
0.0
  0
LINE
  5
D6
  8
2
 10
399.0
 20
155.29376500000001
 30
0.0
 11
364.0
 21
155.29376500000001
 31
0.0
  0
LINE
  5
D7
  8
2
 10
399.0
 20
300.0
 30
0.0
 11
399.0
 21
280.0
 31
0.0
  0
LINE
  5
D8
  8
2
 10
360.0
 20
280.5
 30
0.0
 11
354.51517200000001
 21
290.0
 31
0.0
  0
LINE
  5
D9
  8
2
 10
360.0
 20
299.5
 30
0.0
 11
354.51517200000001
 21
290.0
 31
0.0
  0
LINE
  5
DA
  8
2
 10
399.0
 20
280.0
 30
0.0
 11
400.0
 21
279.0
 31
0.0
  0
LINE
  5
DB
  8
2
 10
399.0
 20
300.0
 30
0.0
 11
400.0
 21
301.0
 31
0.0
  0
LINE
  5
DC
  8
2
 10
364.0
 20
280.5
 30
0.0
 11
360.0
 21
280.5
 31
0.0
  0
LINE
  5
DD
  8
2
 10
364.0
 20
299.5
 30
0.0
 11
360.0
 21
299.5
 31
0.0
  0
LINE
  5
DE
  8
2
 10
360.0
 20
280.5
 30
0.0
 11
360.0
 21
299.5
 31
0.0
  0
LINE
  5
DF
  8
2
 10
364.0
 20
280.0
 30
0.0
 11
364.0
 21
300.0
 31
0.0
  0
LINE
  5
E0
  8
2
 10
399.0
 20
280.0
 30
0.0
 11
364.0
 21
280.0
 31
0.0
  0
LINE
  5
E1
  8
2
 10
399.0
 20
300.0
 30
0.0
 11
364.0
 21
300.0
 31
0.0
  0
LINE
  5
E2
  8
2
 10
399.0
 20
444.70623499999988
 30
0.0
 11
399.0
 21
424.70623499999988
 31
0.0
  0
LINE
  5
E3
  8
2
 10
360.0
 20
425.20623499999988
 30
0.0
 11
354.51517200000001
 21
434.70623499999988
 31
0.0
  0
LINE
  5
E4
  8
2
 10
360.0
 20
444.20623499999988
 30
0.0
 11
354.51517200000001
 21
434.70623499999988
 31
0.0
  0
LINE
  5
E5
  8
2
 10
399.0
 20
424.70623499999988
 30
0.0
 11
400.0
 21
423.70623499999988
 31
0.0
  0
LINE
  5
E6
  8
2
 10
399.0
 20
444.70623499999988
 30
0.0
 11
400.0
 21
445.70623499999988
 31
0.0
  0
LINE
  5
E7
  8
2
 10
364.0
 20
425.20623499999988
 30
0.0
 11
360.0
 21
425.20623499999988
 31
0.0
  0
LINE
  5
E8
  8
2
 10
364.0
 20
444.20623499999988
 30
0.0
 11
360.0
 21
444.20623499999988
 31
0.0
  0
LINE
  5
E9
  8
2
 10
360.0
 20
425.20623499999988
 30
0.0
 11
360.0
 21
444.20623499999988
 31
0.0
  0
LINE
  5
EA
  8
2
 10
364.0
 20
424.70623499999988
 30
0.0
 11
364.0
 21
444.70623499999988
 31
0.0
  0
LINE
  5
EB
  8
2
 10
399.0
 20
424.70623499999988
 30
0.0
 11
364.0
 21
424.70623499999988
 31
0.0
  0
LINE
  5
EC
  8
2
 10
399.0
 20
444.70623499999988
 30
0.0
 11
364.0
 21
444.70623499999988
 31
0.0
  0
CIRCLE
  5
ED
  8
0
 10
570.0
 20
290.0
 30
0.0
 40
10.0
  0
TEXT
  5
1E2
  8
0
 62
     3
 10
0.0
 20
0.0
 30
0.0
 40
10.0
  1
CK100R
  7
STANDARD1
  0
ENDSEC
  0
EOF
