  0
SECTION
  2
HEADER
  9
$ACADVER
  1
AC1009
  9
$INSBASE
 10
0.0
 20
0.0
 30
0.0
  9
$EXTMIN
 10
0.0
 20
-2.960436562073669
 30
0.0
  9
$EXTMAX
 10
315.0
 20
232.35311799999999
 30
0.0
  9
$LIMMIN
 10
0.0
 20
0.0
  9
$LIMMAX
 10
375.0
 20
270.0
  9
$ORTHOMODE
 70
     1
  9
$REGENMODE
 70
     1
  9
$FILLMODE
 70
     1
  9
$QTEXTMODE
 70
     0
  9
$MIRRTEXT
 70
     0
  9
$DRAGMODE
 70
     2
  9
$LTSCALE
 40
10.0
  9
$OSMODE
 70
  3071
  9
$ATTMODE
 70
     1
  9
$TEXTSIZE
 40
0.2
  9
$TRACEWID
 40
0.05
  9
$TEXTSTYLE
  7
STANDARD
  9
$CLAYER
  8
0
  9
$CELTYPE
  6
BYLAYER
  9
$CECOLOR
 62
   256
  9
$DIMSCALE
 40
1.0
  9
$DIMASZ
 40
3.0
  9
$DIMEXO
 40
2.0
  9
$DIMDLI
 40
10.0
  9
$DIMRND
 40
0.0
  9
$DIMDLE
 40
0.0
  9
$DIMEXE
 40
2.0
  9
$DIMTP
 40
0.0
  9
$DIMTM
 40
0.0
  9
$DIMTXT
 40
3.2000000000000002
  9
$DIMCEN
 40
0.09
  9
$DIMTSZ
 40
0.0
  9
$DIMTOL
 70
     0
  9
$DIMLIM
 70
     0
  9
$DIMTIH
 70
     0
  9
$DIMTOH
 70
     0
  9
$DIMSE1
 70
     0
  9
$DIMSE2
 70
     0
  9
$DIMTAD
 70
     1
  9
$DIMZIN
 70
     0
  9
$DIMBLK
  1

  9
$DIMASO
 70
     0
  9
$DIMSHO
 70
     0
  9
$DIMPOST
  1

  9
$DIMAPOST
  1

  9
$DIMALT
 70
     0
  9
$DIMALTD
 70
     2
  9
$DIMALTF
 40
25.399999999999999
  9
$DIMLFAC
 40
1.0
  9
$DIMTOFL
 70
     1
  9
$DIMTVP
 40
1.6000000000000001
  9
$DIMTIX
 70
     1
  9
$DIMSOXD
 70
     0
  9
$DIMSAH
 70
     0
  9
$DIMBLK1
  1

  9
$DIMBLK2
  1

  9
$DIMSTYLE
  2
STANDARD
  9
$DIMCLRD
 70
     0
  9
$DIMCLRE
 70
     0
  9
$DIMCLRT
 70
     0
  9
$DIMTFAC
 40
1.0
  9
$DIMGAP
 40
0.09
  9
$LUNITS
 70
     2
  9
$LUPREC
 70
     4
  9
$SKETCHINC
 40
0.1
  9
$FILLETRAD
 40
2.0
  9
$AUNITS
 70
     0
  9
$AUPREC
 70
     4
  9
$MENU
  1
E:\r13\win\SUPPORT\ACAD
  9
$ELEVATION
 40
0.0
  9
$PELEVATION
 40
0.0
  9
$THICKNESS
 40
0.0
  9
$LIMCHECK
 70
     0
  9
$BLIPMODE
 70
     0
  9
$CHAMFERA
 40
0.0
  9
$CHAMFERB
 40
0.0
  9
$SKPOLY
 70
     0
  9
$TDCREATE
 40
2449840.6022106479
  9
$TDUPDATE
 40
2456598.5901324772
  9
$TDINDWG
 40
0.0008143866
  9
$TDUSRTIMER
 40
0.0008143866
  9
$USRTIMER
 70
     1
  9
$ANGBASE
 50
0.0
  9
$ANGDIR
 70
     0
  9
$PDMODE
 70
     0
  9
$PDSIZE
 40
0.0
  9
$PLINEWID
 40
0.0
  9
$COORDS
 70
     1
  9
$SPLFRAME
 70
     0
  9
$SPLINETYPE
 70
     6
  9
$SPLINESEGS
 70
     8
  9
$ATTDIA
 70
     0
  9
$ATTREQ
 70
     1
  9
$HANDLING
 70
     1
  9
$HANDSEED
  5
27E
  9
$SURFTAB1
 70
     6
  9
$SURFTAB2
 70
     6
  9
$SURFTYPE
 70
     6
  9
$SURFU
 70
     6
  9
$SURFV
 70
     6
  9
$UCSNAME
  2

  9
$UCSORG
 10
0.0
 20
0.0
 30
0.0
  9
$UCSXDIR
 10
1.0
 20
0.0
 30
0.0
  9
$UCSYDIR
 10
0.0
 20
1.0
 30
0.0
  9
$PUCSNAME
  2

  9
$PUCSORG
 10
0.0
 20
0.0
 30
0.0
  9
$PUCSXDIR
 10
1.0
 20
0.0
 30
0.0
  9
$PUCSYDIR
 10
0.0
 20
1.0
 30
0.0
  9
$USERI1
 70
     0
  9
$USERI2
 70
     1
  9
$USERI3
 70
     0
  9
$USERI4
 70
     0
  9
$USERI5
 70
     0
  9
$USERR1
 40
0.0
  9
$USERR2
 40
0.0
  9
$USERR3
 40
0.0
  9
$USERR4
 40
0.0
  9
$USERR5
 40
0.0
  9
$WORLDVIEW
 70
     1
  9
$SHADEDGE
 70
     3
  9
$SHADEDIF
 70
    70
  9
$TILEMODE
 70
     1
  9
$MAXACTVP
 70
    16
  9
$PLIMCHECK
 70
     0
  9
$PEXTMIN
 10
1.0000000000000000E+020
 20
1.0000000000000000E+020
 30
1.0000000000000000E+020
  9
$PEXTMAX
 10
-1.0000000000000000E+020
 20
-1.0000000000000000E+020
 30
-1.0000000000000000E+020
  9
$PLIMMIN
 10
0.0
 20
0.0
  9
$PLIMMAX
 10
12.0
 20
9.0
  9
$UNITMODE
 70
     0
  9
$VISRETAIN
 70
     0
  9
$PLINEGEN
 70
     0
  9
$PSLTSCALE
 70
     0
  0
ENDSEC
  0
SECTION
  2
TABLES
  0
TABLE
  2
VPORT
 70
     1
  0
VPORT
  2
*ACTIVE
 70
     0
 10
0.0
 20
0.0
 11
1.0
 21
1.0
 12
195.0581083320873
 22
133.5127261426681
 13
0.0
 23
0.0
 14
10.0
 24
10.0
 15
10.0
 25
10.0
 16
0.0
 26
0.0
 36
1.0
 17
0.0
 27
0.0
 37
0.0
 40
275.42274993631997
 41
1.831871345029239
 42
50.0
 43
0.0
 44
0.0
 50
0.0
 51
0.0
 71
     0
 72
   100
 73
     1
 74
     0
 75
     0
 76
     0
 77
     0
 78
     1
  0
ENDTAB
  0
TABLE
  2
LTYPE
 70
     4
  0
LTYPE
  2
CONTINUOUS
 70
     0
  3
Solid Line
 72
    65
 73
     0
 40
0.0
  0
LTYPE
  2
CENTER
 70
     0
  3
____ _ ____ _ ____ _ ____ _ ____ _ ____ _ ____
 72
    65
 73
     4
 40
2.0
 49
1.25
 49
-0.25
 49
0.25
 49
-0.25
  0
LTYPE
  2
HIDDEN
 70
     0
  3
_ _ _ _ _ _ _ _ _ _ _ _ _ _ _ _ _ _ _ _ _ _ _
 72
    65
 73
     2
 40
0.375
 49
0.25
 49
-0.125
  0
LTYPE
  2
PHANTOM2
 70
     0
  3
___ _ _ ___ _ _ ___ _ _ ___ _ _
 72
    65
 73
     6
 40
1.25
 49
0.625
 49
-0.125
 49
0.125
 49
-0.125
 49
0.125
 49
-0.125
  0
ENDTAB
  0
TABLE
  2
LAYER
 70
     4
  0
LAYER
  2
0
 70
     0
 62
     7
  6
CONTINUOUS
  0
LAYER
  2
1
 70
     0
 62
     1
  6
CENTER
  0
LAYER
  2
2
 70
     0
 62
     2
  6
HIDDEN
  0
LAYER
  2
3
 70
     0
 62
     3
  6
CONTINUOUS
  0
ENDTAB
  0
TABLE
  2
STYLE
 70
     2
  0
STYLE
  2
STANDARD
 70
     0
 40
0.0
 41
1.0
 50
0.0
 71
     0
 42
0.2
  3
TXT
  4
BIGFONT
  0
STYLE
  2
STANDARD1
 70
     0
 40
0.0
 41
1.0
 50
0.0
 71
     0
 42
3.0
  3
txt
  4

  0
ENDTAB
  0
TABLE
  2
VIEW
 70
     1
  0
VIEW
  2
ALL
 70
     0
 40
270.0
 10
220.99159700000001
 20
135.0
 41
0.0
 11
0.0
 21
0.0
 31
1.0
 12
0.0
 22
0.0
 32
0.0
 42
0.0
 43
0.0
 44
0.0
 50
0.0
 71
     0
  0
ENDTAB
  0
TABLE
  2
UCS
 70
     0
  0
ENDTAB
  0
TABLE
  2
APPID
 70
     3
  0
APPID
  2
ACAD
 70
     0
  0
APPID
  2
ACAD_MLEADERVER
 70
     0
  0
APPID
  2
ACAD_NAV_VCDISPLAY
 70
     0
  0
ENDTAB
  0
TABLE
  2
DIMSTYLE
 70
     1
  0
DIMSTYLE
  2
STANDARD
 70
     0
  3

  4

  5

  6

  7

 40
1.0
 41
0.18
 42
0.0625
 43
0.38
 44
0.18
 45
0.0
 46
0.0
 47
0.0
 48
0.0
140
0.18
141
0.09
142
0.0
143
25.399999999999999
144
1.0
145
0.0
146
1.0
147
0.09
 71
     0
 72
     0
 73
     1
 74
     1
 75
     0
 76
     0
 77
     0
 78
     0
170
     0
171
     2
172
     0
173
     0
174
     0
175
     0
176
     0
177
     0
178
     0
  0
ENDTAB
  0
ENDSEC
  0
SECTION
  2
BLOCKS
  0
BLOCK
  8
0
  2
$MODEL_SPACE
 70
     0
 10
0.0
 20
0.0
 30
0.0
  3
$MODEL_SPACE
  1

  0
ENDBLK
  5
132
  8
0
  0
BLOCK
 67
     1
  8
0
  2
$PAPER_SPACE
 70
     0
 10
0.0
 20
0.0
 30
0.0
  3
$PAPER_SPACE
  1

  0
ENDBLK
  5
130
 67
     1
  8
0
  0
ENDSEC
  0
SECTION
  2
ENTITIES
  0
ARC
  5
36
  8
0
 10
107.49305200000001
 20
157.49305200000001
 30
0.0
 40
14.5
 50
181.606154
 51
268.37717900000001
  0
ARC
  5
37
  8
0
 10
90.0
 20
157.0
 30
0.0
 40
3.0
 50
1.654766999999999
 51
178.42578900000001
  0
ARC
  5
38
  8
0
 10
107.49305200000001
 20
122.50694799999999
 30
0.0
 40
14.5
 50
91.606154000000004
 51
178.37717900000001
  0
ARC
  5
39
  8
0
 10
107.0
 20
140.0
 30
0.0
 40
3.0
 50
271.65476699999999
 51
88.425788999999995
  0
ARC
  5
3A
  8
0
 10
72.506947999999994
 20
122.50694799999999
 30
0.0
 40
14.5
 50
1.6061540000000001
 51
88.377178999999984
  0
ARC
  5
3B
  8
0
 10
90.0
 20
123.0
 30
0.0
 40
3.0
 50
181.65476699999999
 51
358.42578900000001
  0
ARC
  5
3C
  8
0
 10
73.0
 20
140.0
 30
0.0
 40
3.0
 50
91.654767000000007
 51
268.42578900000001
  0
ARC
  5
3D
  8
0
 10
72.506947999999994
 20
157.49305200000001
 30
0.0
 40
14.5
 50
271.606154
 51
358.37717900000001
  0
LINE
  5
3E
  8
1
 10
90.0
 20
165.0
 30
0.0
 11
90.0
 21
115.0
 31
0.0
  0
LINE
  5
3F
  8
1
 10
65.0
 20
140.0
 30
0.0
 11
115.0
 21
140.0
 31
0.0
  0
LINE
  5
40
  8
0
 10
200.0
 20
131.0
 30
0.0
 11
200.0
 21
149.0
 31
0.0
  0
LINE
  5
41
  8
0
 10
200.0
 20
149.0
 30
0.0
 11
189.76991100000001
 21
149.78693000000001
 31
0.0
  0
LINE
  5
42
  8
0
 10
185.0
 20
160.0
 30
0.0
 11
179.86380500000001
 21
160.0
 31
0.0
  0
ARC
  5
43
  8
0
 10
185.0
 20
158.0
 30
0.0
 40
2.0
 50
360.0
 51
90.0
  0
ARC
  5
44
  8
0
 10
179.86380500000001
 20
122.0
 30
0.0
 40
2.0
 50
198.097026
 51
269.999953
  0
ARC
  5
45
  8
0
 10
185.0
 20
122.0
 30
0.0
 40
2.0
 50
270.0
 51
360.0
  0
LINE
  5
46
  8
0
 10
185.0
 20
120.0
 30
0.0
 11
179.86380299999999
 21
120.0
 31
0.0
  0
ARC
  5
47
  8
0
 10
235.0
 20
140.0
 30
0.0
 40
60.0
 50
161.91998699999999
 51
198.08058
  0
LINE
  5
48
  8
0
 10
187.0
 20
158.0
 30
0.0
 11
187.0
 21
122.0
 31
0.0
  0
ARC
  5
49
  8
0
 10
190.0
 20
152.77809300000001
 30
0.0
 40
3.0
 50
180.0
 51
265.60129499999999
  0
ARC
  5
4A
  8
0
 10
190.0
 20
127.221907
 30
0.0
 40
3.0
 50
94.398705000000007
 51
180.0
  0
LINE
  5
4B
  8
0
 10
200.0
 20
131.0
 30
0.0
 11
189.76991100000001
 21
130.21306999999999
 31
0.0
  0
LINE
  5
4C
  8
1
 10
265.0
 20
140.0
 30
0.0
 11
315.0
 21
140.0
 31
0.0
  0
LINE
  5
4D
  8
1
 10
290.0
 20
165.0
 30
0.0
 11
290.0
 21
115.0
 31
0.0
  0
ARC
  5
4E
  8
0
 10
272.50694800000002
 20
157.49305200000001
 30
0.0
 40
14.5
 50
271.606154
 51
358.37717900000001
  0
ARC
  5
4F
  8
0
 10
273.0
 20
140.0
 30
0.0
 40
3.0
 50
91.654767000000007
 51
268.42578900000001
  0
ARC
  5
50
  8
0
 10
290.0
 20
123.0
 30
0.0
 40
3.0
 50
181.65476699999999
 51
358.42578900000001
  0
ARC
  5
51
  8
0
 10
272.50694800000002
 20
122.50694799999999
 30
0.0
 40
14.5
 50
1.6061540000000001
 51
88.377178999999984
  0
ARC
  5
52
  8
0
 10
307.0
 20
140.0
 30
0.0
 40
3.0
 50
271.65476699999999
 51
88.425788999999995
  0
ARC
  5
53
  8
0
 10
307.49305199999998
 20
122.50694799999999
 30
0.0
 40
14.5
 50
91.606154000000004
 51
178.37717900000001
  0
ARC
  5
54
  8
0
 10
290.0
 20
157.0
 30
0.0
 40
3.0
 50
1.654766999999999
 51
178.42578900000001
  0
ARC
  5
55
  8
0
 10
307.49305199999998
 20
157.49305200000001
 30
0.0
 40
14.5
 50
181.606154
 51
268.37717900000001
  0
CIRCLE
  5
56
  8
0
 10
290.0
 20
140.0
 30
0.0
 40
9.0
  0
LINE
  5
57
  8
1
 10
205.0
 20
140.0
 30
0.0
 11
170.0
 21
140.0
 31
0.0
  0
LINE
  5
58
  8
0
 10
180.43145799999999
 20
142.99886799999999
 30
0.0
 11
185.0
 21
142.99886799999999
 31
0.0
  0
LINE
  5
59
  8
0
 10
180.43145799999999
 20
137.001251
 30
0.0
 11
185.0
 21
137.001251
 31
0.0
  0
ARC
  5
5A
  8
0
 10
185.0
 20
140.99886799999999
 30
0.0
 40
2.0
 50
0.0
 51
90.0
  0
ARC
  5
5B
  8
0
 10
185.0
 20
139.001251
 30
0.0
 40
2.0
 50
270.0
 51
0.0
  0
LINE
  5
5C
  8
0
 10
178.43145799999999
 20
140.99886799999999
 30
0.0
 11
178.43145799999999
 21
139.001251
 31
0.0
  0
POLYLINE
  5
5D
  8
0
 66
     1
 10
0.0
 20
0.0
 30
0.0
  0
VERTEX
  5
5E
  8
0
 10
175.88008199999999
 20
147.24149499999999
 30
0.0
 42
0.061107
  0
VERTEX
  5
5F
  8
0
 10
176.08856399999999
 20
145.542
 30
0.0
 42
0.074462
  0
VERTEX
  5
60
  8
0
 10
176.627363
 20
144.24150499999999
 30
0.0
 42
0.106958
 70
     2
 50
301.02130599999998
  0
VERTEX
  5
61
  8
0
 10
177.590057
 20
143.21746399999989
 30
0.0
 42
0.176283
 50
301.02130599999998
  0
VERTEX
  5
62
  8
0
 10
178.43145799999999
 20
142.99886799999999
 30
0.0
 42
0.151944
  0
SEQEND
  5
63
  8
0
  0
POLYLINE
  5
64
  8
0
 66
     1
 10
0.0
 20
0.0
 30
0.0
  0
VERTEX
  5
65
  8
0
 10
175.920377
 20
150.46891500000001
 30
0.0
 42
0.018382
 50
258.69147400000003
  0
VERTEX
  5
66
  8
0
 10
175.88008199999999
 20
147.24149499999999
 30
0.0
 42
0.020664
  0
SEQEND
  5
67
  8
0
  0
POLYLINE
  5
68
  8
0
 66
     1
 10
0.0
 20
0.0
 30
0.0
  0
VERTEX
  5
69
  8
0
 10
175.88008199999999
 20
132.75850500000001
 30
0.0
 42
-0.061107
  0
VERTEX
  5
6A
  8
0
 10
176.08856399999999
 20
134.458
 30
0.0
 42
-0.074462
  0
VERTEX
  5
6B
  8
0
 10
176.627363
 20
135.75849500000001
 30
0.0
 42
-0.106958
 70
     2
 50
58.978693999999997
  0
VERTEX
  5
6C
  8
0
 10
177.590057
 20
136.78253599999999
 30
0.0
 42
-0.176283
  0
VERTEX
  5
6D
  8
0
 10
178.43145799999999
 20
137.00113200000001
 30
0.0
 42
-0.151944
  0
SEQEND
  5
6E
  8
0
  0
POLYLINE
  5
6F
  8
0
 66
     1
 10
0.0
 20
0.0
 30
0.0
  0
VERTEX
  5
70
  8
0
 10
175.920377
 20
129.53108499999999
 30
0.0
 42
-0.018382
  0
VERTEX
  5
71
  8
0
 10
175.88008199999999
 20
132.75850500000001
 30
0.0
 42
-0.020664
  0
SEQEND
  5
72
  8
0
  0
ARC
  5
73
  8
0
 10
180.43145799999999
 20
140.99886799999999
 30
0.0
 40
2.0
 50
90.0
 51
180.0
  0
ARC
  5
74
  8
0
 10
180.43145799999999
 20
139.001251
 30
0.0
 40
2.0
 50
180.0
 51
270.0
  0
CIRCLE
  5
75
  8
0
 10
290.0
 20
140.0
 30
0.0
 40
10.0
  0
ARC
  5
76
  8
0
 10
180.43145799999999
 20
211.35436899999999
 30
0.0
 40
2.0
 50
180.0
 51
270.0
  0
ARC
  5
77
  8
0
 10
180.43145799999999
 20
213.35198500000001
 30
0.0
 40
2.0
 50
90.0
 51
180.0
  0
POLYLINE
  5
78
  8
0
 66
     1
 10
0.0
 20
0.0
 30
0.0
  0
VERTEX
  5
79
  8
0
 10
175.920377
 20
201.88420300000001
 30
0.0
 42
-0.018382
  0
VERTEX
  5
7A
  8
0
 10
175.88008199999999
 20
205.11162200000001
 30
0.0
 42
-0.020664
  0
SEQEND
  5
7B
  8
0
  0
POLYLINE
  5
7C
  8
0
 66
     1
 10
0.0
 20
0.0
 30
0.0
  0
VERTEX
  5
7D
  8
0
 10
175.88008199999999
 20
205.11162200000001
 30
0.0
 42
-0.061107
  0
VERTEX
  5
7E
  8
0
 10
176.08856399999999
 20
206.811117
 30
0.0
 42
-0.074462
  0
VERTEX
  5
7F
  8
0
 10
176.627363
 20
208.11161300000001
 30
0.0
 42
-0.106958
 70
     2
 50
58.978693999999997
  0
VERTEX
  5
80
  8
0
 10
177.590057
 20
209.13565399999999
 30
0.0
 42
-0.176283
  0
VERTEX
  5
81
  8
0
 10
178.43145799999999
 20
209.35425000000001
 30
0.0
 42
-0.151944
  0
SEQEND
  5
82
  8
0
  0
POLYLINE
  5
83
  8
0
 66
     1
 10
0.0
 20
0.0
 30
0.0
  0
VERTEX
  5
84
  8
0
 10
175.920377
 20
222.82203200000001
 30
0.0
 42
0.018382
 50
258.69147400000003
  0
VERTEX
  5
85
  8
0
 10
175.88008199999999
 20
219.59461300000001
 30
0.0
 42
0.020664
  0
SEQEND
  5
86
  8
0
  0
POLYLINE
  5
87
  8
0
 66
     1
 10
0.0
 20
0.0
 30
0.0
  0
VERTEX
  5
88
  8
0
 10
175.88008199999999
 20
219.59461300000001
 30
0.0
 42
0.061107
  0
VERTEX
  5
89
  8
0
 10
176.08856399999999
 20
217.895118
 30
0.0
 42
0.074462
  0
VERTEX
  5
8A
  8
0
 10
176.627363
 20
216.59462199999999
 30
0.0
 42
0.106958
 70
     2
 50
301.02130599999998
  0
VERTEX
  5
8B
  8
0
 10
177.590057
 20
215.570581
 30
0.0
 42
0.176283
 50
301.02130599999998
  0
VERTEX
  5
8C
  8
0
 10
178.43145799999999
 20
215.35198500000001
 30
0.0
 42
0.151944
  0
SEQEND
  5
8D
  8
0
  0
LINE
  5
8E
  8
0
 10
178.43145799999999
 20
213.35198500000001
 30
0.0
 11
178.43145799999999
 21
211.35436899999999
 31
0.0
  0
ARC
  5
8F
  8
0
 10
185.0
 20
211.35436899999999
 30
0.0
 40
2.0
 50
270.0
 51
0.0
  0
ARC
  5
90
  8
0
 10
185.0
 20
213.35198500000001
 30
0.0
 40
2.0
 50
0.0
 51
90.0
  0
LINE
  5
91
  8
0
 10
180.43145799999999
 20
209.35436899999999
 30
0.0
 11
185.0
 21
209.35436899999999
 31
0.0
  0
LINE
  5
92
  8
0
 10
180.43145799999999
 20
215.35198500000001
 30
0.0
 11
185.0
 21
215.35198500000001
 31
0.0
  0
LINE
  5
93
  8
1
 10
205.0
 20
212.35311799999999
 30
0.0
 11
170.0
 21
212.35311799999999
 31
0.0
  0
LINE
  5
94
  8
0
 10
200.0
 20
203.35311799999999
 30
0.0
 11
189.76991100000001
 21
202.56618800000001
 31
0.0
  0
ARC
  5
95
  8
0
 10
190.0
 20
199.5750239999999
 30
0.0
 40
3.0
 50
94.398705000000007
 51
180.0
  0
ARC
  5
96
  8
0
 10
190.0
 20
225.13121100000001
 30
0.0
 40
3.0
 50
180.0
 51
265.60129499999999
  0
LINE
  5
97
  8
0
 10
187.0
 20
230.35311799999999
 30
0.0
 11
187.0
 21
194.35311799999999
 31
0.0
  0
ARC
  5
98
  8
0
 10
235.0
 20
212.35311799999999
 30
0.0
 40
60.0
 50
161.91998699999999
 51
198.08058
  0
LINE
  5
99
  8
0
 10
185.0
 20
192.35311799999999
 30
0.0
 11
179.86380299999999
 21
192.35311799999999
 31
0.0
  0
ARC
  5
9A
  8
0
 10
185.0
 20
194.35311799999999
 30
0.0
 40
2.0
 50
270.0
 51
360.0
  0
ARC
  5
9B
  8
0
 10
179.86380500000001
 20
194.35311799999999
 30
0.0
 40
2.0
 50
198.097026
 51
269.999953
  0
ARC
  5
9C
  8
0
 10
185.0
 20
230.35311799999999
 30
0.0
 40
2.0
 50
360.0
 51
90.0
  0
LINE
  5
9D
  8
0
 10
185.0
 20
232.35311799999999
 30
0.0
 11
179.86380500000001
 21
232.35311799999999
 31
0.0
  0
LINE
  5
9E
  8
0
 10
200.0
 20
221.35311799999999
 30
0.0
 11
189.76991100000001
 21
222.14004700000001
 31
0.0
  0
LINE
  5
9F
  8
0
 10
200.0
 20
203.35311799999999
 30
0.0
 11
200.0
 21
221.35311799999999
 31
0.0
  0
LINE
  5
A0
  8
0
 10
200.0
 20
76.646881999999991
 30
0.0
 11
200.0
 21
58.646881999999991
 31
0.0
  0
LINE
  5
A1
  8
0
 10
200.0
 20
58.646881999999991
 30
0.0
 11
189.76991100000001
 21
57.859952999999997
 31
0.0
  0
LINE
  5
A2
  8
0
 10
185.0
 20
47.646881999999998
 30
0.0
 11
179.86380500000001
 21
47.646881999999998
 31
0.0
  0
ARC
  5
A3
  8
0
 10
185.0
 20
49.646881999999998
 30
0.0
 40
2.0
 50
270.0
 51
0.0
  0
ARC
  5
A4
  8
0
 10
179.86380500000001
 20
85.646881999999991
 30
0.0
 40
2.0
 50
90.000046999999995
 51
161.902974
  0
ARC
  5
A5
  8
0
 10
185.0
 20
85.646881999999991
 30
0.0
 40
2.0
 50
0.0
 51
90.0
  0
LINE
  5
A6
  8
0
 10
185.0
 20
87.646882000000005
 30
0.0
 11
179.86380299999999
 21
87.646882000000005
 31
0.0
  0
ARC
  5
A7
  8
0
 10
235.0
 20
67.646881999999991
 30
0.0
 40
60.0
 50
161.91942
 51
198.08001300000001
  0
LINE
  5
A8
  8
0
 10
187.0
 20
49.646881999999998
 30
0.0
 11
187.0
 21
85.646881999999991
 31
0.0
  0
ARC
  5
A9
  8
0
 10
190.0
 20
54.868789
 30
0.0
 40
3.0
 50
94.398705000000007
 51
180.0
  0
ARC
  5
AA
  8
0
 10
190.0
 20
80.424976000000001
 30
0.0
 40
3.0
 50
180.0
 51
265.60129499999999
  0
LINE
  5
AB
  8
0
 10
200.0
 20
76.646881999999991
 30
0.0
 11
189.76991100000001
 21
77.433812000000003
 31
0.0
  0
LINE
  5
AC
  8
1
 10
205.0
 20
67.646881999999991
 30
0.0
 11
170.0
 21
67.646881999999991
 31
0.0
  0
LINE
  5
AD
  8
0
 10
180.43145799999999
 20
64.648015000000001
 30
0.0
 11
185.0
 21
64.648015000000001
 31
0.0
  0
LINE
  5
AE
  8
0
 10
180.43145799999999
 20
70.645630999999995
 30
0.0
 11
185.0
 21
70.645630999999995
 31
0.0
  0
ARC
  5
AF
  8
0
 10
185.0
 20
66.648015000000001
 30
0.0
 40
2.0
 50
270.0
 51
360.0
  0
ARC
  5
B0
  8
0
 10
185.0
 20
68.645631000000009
 30
0.0
 40
2.0
 50
360.0
 51
90.0
  0
LINE
  5
B1
  8
0
 10
178.43145799999999
 20
66.648015000000001
 30
0.0
 11
178.43145799999999
 21
68.645631000000009
 31
0.0
  0
POLYLINE
  5
B2
  8
0
 66
     1
 10
0.0
 20
0.0
 30
0.0
  0
VERTEX
  5
B3
  8
0
 10
175.88008199999999
 20
60.40538699999999
 30
0.0
 42
-0.061107
  0
VERTEX
  5
B4
  8
0
 10
176.08856399999999
 20
62.104882000000003
 30
0.0
 42
-0.074462
  0
VERTEX
  5
B5
  8
0
 10
176.627363
 20
63.405377999999999
 30
0.0
 42
-0.106958
 70
     2
 50
58.978693999999997
  0
VERTEX
  5
B6
  8
0
 10
177.590057
 20
64.429418999999996
 30
0.0
 42
-0.176283
  0
VERTEX
  5
B7
  8
0
 10
178.43145799999999
 20
64.648015000000001
 30
0.0
 42
-0.151944
  0
SEQEND
  5
B8
  8
0
  0
POLYLINE
  5
B9
  8
0
 66
     1
 10
0.0
 20
0.0
 30
0.0
  0
VERTEX
  5
BA
  8
0
 10
175.920377
 20
57.177968000000007
 30
0.0
 42
-0.018382
  0
VERTEX
  5
BB
  8
0
 10
175.88008199999999
 20
60.40538699999999
 30
0.0
 42
-0.020664
  0
SEQEND
  5
BC
  8
0
  0
POLYLINE
  5
BD
  8
0
 66
     1
 10
0.0
 20
0.0
 30
0.0
  0
VERTEX
  5
BE
  8
0
 10
175.88008199999999
 20
74.888378000000003
 30
0.0
 42
0.061107
  0
VERTEX
  5
BF
  8
0
 10
176.08856399999999
 20
73.18888299999999
 30
0.0
 42
0.074462
  0
VERTEX
  5
C0
  8
0
 10
176.627363
 20
71.888386999999994
 30
0.0
 42
0.106958
 70
     2
 50
301.02130599999998
  0
VERTEX
  5
C1
  8
0
 10
177.590057
 20
70.864345999999998
 30
0.0
 42
0.176283
  0
VERTEX
  5
C2
  8
0
 10
178.43145799999999
 20
70.645750000000007
 30
0.0
 42
0.151944
  0
SEQEND
  5
C3
  8
0
  0
POLYLINE
  5
C4
  8
0
 66
     1
 10
0.0
 20
0.0
 30
0.0
  0
VERTEX
  5
C5
  8
0
 10
175.920377
 20
78.115797000000001
 30
0.0
 42
0.018382
  0
VERTEX
  5
C6
  8
0
 10
175.88008199999999
 20
74.888378000000003
 30
0.0
 42
0.020664
  0
SEQEND
  5
C7
  8
0
  0
ARC
  5
C8
  8
0
 10
180.43145799999999
 20
66.648015000000001
 30
0.0
 40
2.0
 50
180.0
 51
270.0
  0
ARC
  5
C9
  8
0
 10
180.43145799999999
 20
68.645631000000009
 30
0.0
 40
2.0
 50
90.0
 51
180.0
  0
LINE
  5
CA
  8
2
 10
181.0
 20
136.67381599999999
 30
0.0
 11
179.07962699999999
 21
140.0
 31
0.0
  0
LINE
  5
CB
  8
2
 10
181.0
 20
143.32081599999989
 30
0.0
 11
179.08272600000001
 21
140.0
 31
0.0
  0
LINE
  5
CC
  8
2
 10
198.80000000000001
 20
143.32081599999989
 30
0.0
 11
198.80000000000001
 21
136.67381599999999
 31
0.0
  0
LINE
  5
CD
  8
2
 10
198.80000000000001
 20
143.32081599999989
 30
0.0
 11
200.0
 21
144.520816
 31
0.0
  0
LINE
  5
CE
  8
2
 10
198.80000000000001
 20
136.67381599999999
 30
0.0
 11
200.0
 21
135.473816
 31
0.0
  0
LINE
  5
CF
  8
2
 10
186.0
 20
135.99731600000001
 30
0.0
 11
185.3235
 21
136.67381599999999
 31
0.0
  0
LINE
  5
D0
  8
2
 10
186.0
 20
143.99731600000001
 30
0.0
 11
185.3235
 21
143.32081599999989
 31
0.0
  0
LINE
  5
D1
  8
2
 10
181.0
 20
136.67381599999999
 30
0.0
 11
181.0
 21
143.32081599999989
 31
0.0
  0
LINE
  5
D2
  8
2
 10
186.0
 20
135.99731600000001
 30
0.0
 11
186.0
 21
143.99731600000001
 31
0.0
  0
LINE
  5
D3
  8
2
 10
199.47649999999999
 20
135.99731600000001
 30
0.0
 11
186.0
 21
135.99731600000001
 31
0.0
  0
LINE
  5
D4
  8
2
 10
198.80000000000001
 20
136.67381599999999
 30
0.0
 11
181.0
 21
136.67381599999999
 31
0.0
  0
LINE
  5
D5
  8
2
 10
198.80000000000001
 20
143.32081599999989
 30
0.0
 11
181.0
 21
143.32081599999989
 31
0.0
  0
LINE
  5
D6
  8
2
 10
199.47649999999999
 20
143.99731600000001
 30
0.0
 11
186.0
 21
143.99731600000001
 31
0.0
  0
LINE
  5
D7
  8
2
 10
181.0
 20
64.320699000000005
 30
0.0
 11
179.07962699999999
 21
67.646881999999991
 31
0.0
  0
LINE
  5
D8
  8
2
 10
181.0
 20
70.967698999999996
 30
0.0
 11
179.08272600000001
 21
67.646881999999991
 31
0.0
  0
LINE
  5
D9
  8
2
 10
198.80000000000001
 20
70.967698999999996
 30
0.0
 11
198.80000000000001
 21
64.320699000000005
 31
0.0
  0
LINE
  5
DA
  8
2
 10
198.80000000000001
 20
70.967698999999996
 30
0.0
 11
200.0
 21
72.167698999999999
 31
0.0
  0
LINE
  5
DB
  8
2
 10
198.80000000000001
 20
64.320699000000005
 30
0.0
 11
200.0
 21
63.120699000000002
 31
0.0
  0
LINE
  5
DC
  8
2
 10
186.0
 20
63.644199
 30
0.0
 11
185.3235
 21
64.320699000000005
 31
0.0
  0
LINE
  5
DD
  8
2
 10
186.0
 20
71.644199
 30
0.0
 11
185.3235
 21
70.967698999999996
 31
0.0
  0
LINE
  5
DE
  8
2
 10
181.0
 20
64.320699000000005
 30
0.0
 11
181.0
 21
70.967698999999996
 31
0.0
  0
LINE
  5
DF
  8
2
 10
186.0
 20
63.644199
 30
0.0
 11
186.0
 21
71.644199
 31
0.0
  0
LINE
  5
E0
  8
2
 10
199.47649999999999
 20
63.644199
 30
0.0
 11
186.0
 21
63.644199
 31
0.0
  0
LINE
  5
E1
  8
2
 10
198.80000000000001
 20
64.320699000000005
 30
0.0
 11
181.0
 21
64.320699000000005
 31
0.0
  0
LINE
  5
E2
  8
2
 10
198.80000000000001
 20
70.967698999999996
 30
0.0
 11
181.0
 21
70.967698999999996
 31
0.0
  0
LINE
  5
E3
  8
2
 10
199.47649999999999
 20
71.644199
 30
0.0
 11
186.0
 21
71.644199
 31
0.0
  0
LINE
  5
E4
  8
2
 10
181.0
 20
209.02693400000001
 30
0.0
 11
179.07962699999999
 21
212.35311799999999
 31
0.0
  0
LINE
  5
E5
  8
2
 10
181.0
 20
215.673934
 30
0.0
 11
179.08272600000001
 21
212.35311799999999
 31
0.0
  0
LINE
  5
E6
  8
2
 10
198.80000000000001
 20
215.673934
 30
0.0
 11
198.80000000000001
 21
209.02693400000001
 31
0.0
  0
LINE
  5
E7
  8
2
 10
198.80000000000001
 20
215.673934
 30
0.0
 11
200.0
 21
216.87393399999999
 31
0.0
  0
LINE
  5
E8
  8
2
 10
198.80000000000001
 20
209.02693400000001
 30
0.0
 11
200.0
 21
207.82693399999999
 31
0.0
  0
LINE
  5
E9
  8
2
 10
186.0
 20
208.35043400000001
 30
0.0
 11
185.3235
 21
209.02693400000001
 31
0.0
  0
LINE
  5
EA
  8
2
 10
186.0
 20
216.35043400000001
 30
0.0
 11
185.3235
 21
215.673934
 31
0.0
  0
LINE
  5
EB
  8
2
 10
181.0
 20
209.02693400000001
 30
0.0
 11
181.0
 21
215.673934
 31
0.0
  0
LINE
  5
EC
  8
2
 10
186.0
 20
208.35043400000001
 30
0.0
 11
186.0
 21
216.35043400000001
 31
0.0
  0
LINE
  5
ED
  8
2
 10
199.47649999999999
 20
208.35043400000001
 30
0.0
 11
186.0
 21
208.35043400000001
 31
0.0
  0
LINE
  5
EE
  8
2
 10
198.80000000000001
 20
209.02693400000001
 30
0.0
 11
181.0
 21
209.02693400000001
 31
0.0
  0
LINE
  5
EF
  8
2
 10
198.80000000000001
 20
215.673934
 30
0.0
 11
181.0
 21
215.673934
 31
0.0
  0
LINE
  5
F0
  8
2
 10
199.47649999999999
 20
216.35043400000001
 30
0.0
 11
186.0
 21
216.35043400000001
 31
0.0
  0
CIRCLE
  5
F1
  8
3
 10
290.0
 20
140.0
 30
0.0
 40
4.0
  0
CIRCLE
  5
F2
  8
0
 10
290.0
 20
140.0
 30
0.0
 40
3.3235000000000001
  0
ARC
  5
F3
  8
0
 10
179.86380500000001
 20
230.35311799999999
 30
0.0
 40
2.0
 50
90.0
 51
161.91998699999999
  0
ARC
  5
F4
  8
0
 10
179.86380500000001
 20
158.0
 30
0.0
 40
2.0
 50
90.0
 51
161.91998699999999
  0
ARC
  5
F5
  8
0
 10
179.86380500000001
 20
49.646881999999998
 30
0.0
 40
2.0
 50
198.08001300000001
 51
270.0
  0
TEXT
  5
1ED
  8
0
 62
     3
 10
0.0
 20
0.0
 30
0.0
 40
10.0
  1
CK40T
  7
STANDARD1
  0
ENDSEC
  0
EOF
