  0
SECTION
  2
HEADER
  9
$ACADVER
  1
AC1009
  9
$INSBASE
 10
0.0
 20
0.0
 30
0.0
  9
$EXTMIN
 10
0.0
 20
-2.960436562073669
 30
0.0
  9
$EXTMAX
 10
220.90175630580779
 20
325.24200851245217
 30
0.0
  9
$LIMMIN
 10
0.0
 20
0.0
  9
$LIMMAX
 10
750.0
 20
540.0
  9
$ORTHOMODE
 70
     1
  9
$REGENMODE
 70
     1
  9
$FILLMODE
 70
     1
  9
$QTEXTMODE
 70
     0
  9
$MIRRTEXT
 70
     0
  9
$DRAGMODE
 70
     2
  9
$LTSCALE
 40
5.0
  9
$OSMODE
 70
  3071
  9
$ATTMODE
 70
     1
  9
$TEXTSIZE
 40
0.2
  9
$TRACEWID
 40
0.05
  9
$TEXTSTYLE
  7
STANDARD
  9
$CLAYER
  8
0
  9
$CELTYPE
  6
BYLAYER
  9
$CECOLOR
 62
   256
  9
$DIMSCALE
 40
1.0
  9
$DIMASZ
 40
3.0
  9
$DIMEXO
 40
2.0
  9
$DIMDLI
 40
0.38
  9
$DIMRND
 40
0.0
  9
$DIMDLE
 40
0.0
  9
$DIMEXE
 40
2.0
  9
$DIMTP
 40
0.0
  9
$DIMTM
 40
0.0
  9
$DIMTXT
 40
3.2000000000000002
  9
$DIMCEN
 40
0.0
  9
$DIMTSZ
 40
0.0
  9
$DIMTOL
 70
     0
  9
$DIMLIM
 70
     0
  9
$DIMTIH
 70
     0
  9
$DIMTOH
 70
     0
  9
$DIMSE1
 70
     0
  9
$DIMSE2
 70
     0
  9
$DIMTAD
 70
     1
  9
$DIMZIN
 70
     0
  9
$DIMBLK
  1

  9
$DIMASO
 70
     0
  9
$DIMSHO
 70
     0
  9
$DIMPOST
  1

  9
$DIMAPOST
  1

  9
$DIMALT
 70
     0
  9
$DIMALTD
 70
     2
  9
$DIMALTF
 40
25.399999999999999
  9
$DIMLFAC
 40
1.0
  9
$DIMTOFL
 70
     0
  9
$DIMTVP
 40
1.6000000000000001
  9
$DIMTIX
 70
     1
  9
$DIMSOXD
 70
     0
  9
$DIMSAH
 70
     0
  9
$DIMBLK1
  1

  9
$DIMBLK2
  1

  9
$DIMSTYLE
  2
STANDARD
  9
$DIMCLRD
 70
     0
  9
$DIMCLRE
 70
     0
  9
$DIMCLRT
 70
     0
  9
$DIMTFAC
 40
1.0
  9
$DIMGAP
 40
0.09
  9
$LUNITS
 70
     2
  9
$LUPREC
 70
     4
  9
$SKETCHINC
 40
0.1
  9
$FILLETRAD
 40
0.0
  9
$AUNITS
 70
     0
  9
$AUPREC
 70
     4
  9
$MENU
  1
E:\r13\win\SUPPORT\ACAD
  9
$ELEVATION
 40
0.0
  9
$PELEVATION
 40
0.0
  9
$THICKNESS
 40
0.0
  9
$LIMCHECK
 70
     0
  9
$BLIPMODE
 70
     0
  9
$CHAMFERA
 40
0.0
  9
$CHAMFERB
 40
0.0
  9
$SKPOLY
 70
     0
  9
$TDCREATE
 40
2449840.6227546302
  9
$TDUPDATE
 40
2456598.5918034031
  9
$TDINDWG
 40
0.1023776852
  9
$TDUSRTIMER
 40
0.1023776852
  9
$USRTIMER
 70
     1
  9
$ANGBASE
 50
0.0
  9
$ANGDIR
 70
     0
  9
$PDMODE
 70
     0
  9
$PDSIZE
 40
0.0
  9
$PLINEWID
 40
0.0
  9
$COORDS
 70
     1
  9
$SPLFRAME
 70
     0
  9
$SPLINETYPE
 70
     6
  9
$SPLINESEGS
 70
     8
  9
$ATTDIA
 70
     0
  9
$ATTREQ
 70
     1
  9
$HANDLING
 70
     1
  9
$HANDSEED
  5
6210
  9
$SURFTAB1
 70
     6
  9
$SURFTAB2
 70
     6
  9
$SURFTYPE
 70
     6
  9
$SURFU
 70
     6
  9
$SURFV
 70
     6
  9
$UCSNAME
  2

  9
$UCSORG
 10
0.0
 20
0.0
 30
0.0
  9
$UCSXDIR
 10
1.0
 20
0.0
 30
0.0
  9
$UCSYDIR
 10
0.0
 20
1.0
 30
0.0
  9
$PUCSNAME
  2

  9
$PUCSORG
 10
0.0
 20
0.0
 30
0.0
  9
$PUCSXDIR
 10
1.0
 20
0.0
 30
0.0
  9
$PUCSYDIR
 10
0.0
 20
1.0
 30
0.0
  9
$USERI1
 70
     0
  9
$USERI2
 70
     1
  9
$USERI3
 70
     0
  9
$USERI4
 70
     0
  9
$USERI5
 70
     0
  9
$USERR1
 40
0.0
  9
$USERR2
 40
0.0
  9
$USERR3
 40
0.0
  9
$USERR4
 40
0.0
  9
$USERR5
 40
0.0
  9
$WORLDVIEW
 70
     1
  9
$SHADEDGE
 70
     3
  9
$SHADEDIF
 70
    70
  9
$TILEMODE
 70
     1
  9
$MAXACTVP
 70
    16
  9
$PLIMCHECK
 70
     0
  9
$PEXTMIN
 10
1.0000000000000000E+020
 20
1.0000000000000000E+020
 30
1.0000000000000000E+020
  9
$PEXTMAX
 10
-1.0000000000000000E+020
 20
-1.0000000000000000E+020
 30
-1.0000000000000000E+020
  9
$PLIMMIN
 10
0.0
 20
0.0
  9
$PLIMMAX
 10
12.0
 20
9.0
  9
$UNITMODE
 70
     0
  9
$VISRETAIN
 70
     0
  9
$PLINEGEN
 70
     0
  9
$PSLTSCALE
 70
     0
  0
ENDSEC
  0
SECTION
  2
TABLES
  0
TABLE
  2
VPORT
 70
     1
  0
VPORT
  2
*ACTIVE
 70
     0
 10
0.0
 20
0.0
 11
1.0
 21
1.0
 12
390.03402345615979
 22
268.50860658393782
 13
0.0
 23
0.0
 14
20.0
 24
20.0
 15
20.0
 25
20.0
 16
0.0
 26
0.0
 36
1.0
 17
0.0
 27
0.0
 37
0.0
 40
547.85258761088789
 41
1.831871345029239
 42
50.0
 43
0.0
 44
0.0
 50
0.0
 51
0.0
 71
     0
 72
   100
 73
     1
 74
     0
 75
     0
 76
     0
 77
     0
 78
     2
  0
ENDTAB
  0
TABLE
  2
LTYPE
 70
     3
  0
LTYPE
  2
CONTINUOUS
 70
     0
  3
Solid Line
 72
    65
 73
     0
 40
0.0
  0
LTYPE
  2
CENTER
 70
     0
  3
____ _ ____ _ ____ _ ____ _ ____ _ ____ _ ____
 72
    65
 73
     4
 40
2.0
 49
1.25
 49
-0.25
 49
0.25
 49
-0.25
  0
LTYPE
  2
PHANTOM2
 70
     0
  3
___ _ _ ___ _ _ ___ _ _ ___ _ _
 72
    65
 73
     6
 40
1.25
 49
0.625
 49
-0.125
 49
0.125
 49
-0.125
 49
0.125
 49
-0.125
  0
ENDTAB
  0
TABLE
  2
LAYER
 70
     3
  0
LAYER
  2
0
 70
     0
 62
     7
  6
CONTINUOUS
  0
LAYER
  2
1
 70
     0
 62
     1
  6
CENTER
  0
LAYER
  2
3
 70
     0
 62
     3
  6
CONTINUOUS
  0
ENDTAB
  0
TABLE
  2
STYLE
 70
     2
  0
STYLE
  2
STANDARD
 70
     0
 40
0.0
 41
1.0
 50
0.0
 71
     0
 42
0.2
  3
TXT
  4
BIGFONT
  0
STYLE
  2
STANDARD1
 70
     0
 40
0.0
 41
1.0
 50
0.0
 71
     0
 42
3.0
  3
txt
  4

  0
ENDTAB
  0
TABLE
  2
VIEW
 70
     1
  0
VIEW
  2
ALL
 70
     0
 40
540.0
 10
441.98319299999991
 20
270.0
 41
0.0
 11
0.0
 21
0.0
 31
1.0
 12
0.0
 22
0.0
 32
0.0
 42
0.0
 43
0.0
 44
0.0
 50
0.0
 71
     0
  0
ENDTAB
  0
TABLE
  2
UCS
 70
     0
  0
ENDTAB
  0
TABLE
  2
APPID
 70
     9
  0
APPID
  2
ACAD
 70
     0
  0
APPID
  2
ACAD_NAV_VCDISPLAY
 70
     0
  0
APPID
  2
ACAD_EXEMPT_FROM_CAD_STANDARDS
 70
     0
  0
APPID
  2
ACAD_DSTYLE_DIMJAG
 70
     0
  0
APPID
  2
ACAD_DSTYLE_DIMTALN
 70
     0
  0
APPID
  2
ACAD_MLEADERVER
 70
     0
  0
APPID
  2
ACADANNOTATIVE
 70
     0
  0
APPID
  2
GRADIENTCOLOR1ACI
 70
     0
  0
APPID
  2
GRADIENTCOLOR2ACI
 70
     0
  0
ENDTAB
  0
TABLE
  2
DIMSTYLE
 70
     1
  0
DIMSTYLE
  2
STANDARD
 70
     0
  3

  4

  5

  6

  7

 40
1.0
 41
0.18
 42
0.0625
 43
0.38
 44
0.18
 45
0.0
 46
0.0
 47
0.0
 48
0.0
140
0.18
141
0.09
142
0.0
143
25.399999999999999
144
1.0
145
0.0
146
1.0
147
0.09
 71
     0
 72
     0
 73
     1
 74
     1
 75
     0
 76
     0
 77
     0
 78
     0
170
     0
171
     2
172
     0
173
     0
174
     0
175
     0
176
     0
177
     0
178
     0
  0
ENDTAB
  0
ENDSEC
  0
SECTION
  2
BLOCKS
  0
BLOCK
  8
0
  2
$MODEL_SPACE
 70
     0
 10
0.0
 20
0.0
 30
0.0
  3
$MODEL_SPACE
  1

  0
ENDBLK
  5
11D
  8
0
  0
BLOCK
 67
     1
  8
0
  2
$PAPER_SPACE
 70
     0
 10
0.0
 20
0.0
 30
0.0
  3
$PAPER_SPACE
  1

  0
ENDBLK
  5
11B
 67
     1
  8
0
  0
ENDSEC
  0
SECTION
  2
ENTITIES
  0
LINE
  5
48A9
  8
0
 10
66.481342733394513
 20
68.839561297381991
 30
0.0
 11
65.038207693360391
 21
70.060166032682403
 31
0.0
  0
LINE
  5
48AA
  8
0
 10
65.982986179468071
 20
69.26107165692288
 30
0.0
 11
66.998455367126326
 21
69.261071704116219
 31
0.0
  0
LINE
  5
48AF
  8
0
 10
65.568632196643421
 20
67.452308136881086
 30
0.0
 11
68.365288554003655
 21
69.731927086897215
 31
0.0
  0
LINE
  5
48B0
  8
0
 10
68.021470778478715
 20
70.094955105925308
 30
0.0
 11
65.224814427866932
 21
67.815336162300653
 31
0.0
  0
LINE
  5
48BC
  8
0
 10
59.658324985128729
 20
68.486224045114298
 30
0.0
 11
59.65832495632025
 21
69.261071362987494
 31
0.0
  0
LINE
  5
48BD
  8
0
 10
59.658324933553779
 20
69.261071362987494
 30
0.0
 11
63.860587804889292
 21
69.261071558285451
 31
0.0
  0
LINE
  5
48BE
  8
0
 10
62.555282286053391
 20
67.419625924623759
 30
0.0
 11
62.983542479344798
 21
67.161569318026935
 31
0.0
  0
LINE
  5
48BF
  8
0
 10
62.983542479344798
 20
67.161569318026935
 30
0.0
 11
65.070061063579473
 21
70.105102829995147
 31
0.0
  0
LINE
  5
48C0
  8
0
 10
65.070061063579473
 20
70.105102829995147
 30
0.0
 11
64.641800865490723
 21
70.363159428630709
 31
0.0
  0
LINE
  5
48C1
  8
0
 10
64.641800865490723
 20
70.363159428630709
 30
0.0
 11
62.555282286053391
 21
67.419625924623759
 31
0.0
  0
LINE
  5
48C2
  8
0
 10
65.224814427866932
 20
67.815336162300653
 30
0.0
 11
65.568632196643421
 21
67.452308136881086
 31
0.0
  0
LINE
  5
48C3
  8
0
 10
59.65832495632025
 20
68.486224045114298
 30
0.0
 11
61.747852998593309
 21
68.486224161646035
 31
0.0
  0
LINE
  5
48C4
  8
0
 10
63.922521835524321
 20
68.486224282925903
 30
0.0
 11
66.04786595576752
 21
68.486224401455004
 31
0.0
  0
LINE
  5
48C5
  8
0
 10
64.471770992251777
 20
69.261071586689994
 30
0.0
 11
65.304017778115167
 21
69.261071625368189
 31
0.0
  0
LINE
  5
48C6
  8
0
 10
62.981797152275703
 20
68.021327156070086
 30
0.0
 11
61.516033192383929
 21
69.261071449323552
 31
0.0
  0
LINE
  5
48C7
  8
0
 10
60.868094069286137
 20
69.261071419210865
 30
0.0
 11
62.710402089593337
 21
67.638459508640111
 31
0.0
  0
LINE
  5
48C8
  8
0
 10
64.795415520787174
 20
69.709022821035276
 30
0.0
 11
66.11845103436076
 21
68.543759923208611
 31
0.0
  0
LINE
  5
48C9
  8
0
 10
64.537759750648775
 20
70.216384551881632
 30
0.0
 11
61.888398668868831
 21
69.260980823997286
 31
0.0
  0
LINE
  5
48D3
  8
0
 10
71.839654533479006
 20
67.334270029503003
 30
0.0
 11
74.443756511980837
 21
69.831589036758558
 31
0.0
  0
LINE
  5
48D4
  8
0
 10
74.071834977853769
 20
70.165766202075091
 30
0.0
 11
71.467733005564241
 21
67.6684472017334
 31
0.0
  0
LINE
  5
48D5
  8
0
 10
73.040865778825037
 20
68.486224791450311
 30
0.0
 11
75.217758689429957
 21
68.486224912854212
 31
0.0
  0
LINE
  5
48D8
  8
0
 10
68.365288554003655
 20
69.731927086897215
 30
0.0
 11
68.021470778478715
 21
70.094955105925308
 31
0.0
  0
LINE
  5
48D9
  8
0
 10
68.395820277384701
 20
67.705228427372688
 30
0.0
 11
68.757985487258111
 21
67.360501918203866
 31
0.0
  0
LINE
  5
48DA
  8
0
 10
68.757985487258111
 20
67.360501918203866
 30
0.0
 11
71.432773707546843
 21
69.781959602129135
 31
0.0
  0
LINE
  5
48DB
  8
0
 10
71.432773707546843
 20
69.781959602129135
 30
0.0
 11
71.070608491265148
 21
70.126686104565422
 31
0.0
  0
LINE
  5
48DC
  8
0
 10
71.070608491265148
 20
70.126686104565422
 30
0.0
 11
68.395820277384701
 21
67.705228427372688
 31
0.0
  0
LINE
  5
48DD
  8
0
 10
71.467733005564241
 20
67.6684472017334
 30
0.0
 11
71.839654533479006
 21
67.334270029503003
 31
0.0
  0
LINE
  5
48DE
  8
0
 10
70.001480200078959
 20
68.486224621945624
 30
0.0
 11
72.238166424042674
 21
68.4862247466843
 31
0.0
  0
LINE
  5
48DF
  8
0
 10
70.857391224820503
 20
69.261071883458229
 30
0.0
 11
71.358407605443972
 21
69.261071906742771
 31
0.0
  0
LINE
  5
48E0
  8
0
 10
67.787639119623691
 20
69.261071740793184
 30
0.0
 11
68.234896404227129
 21
69.261071761579231
 31
0.0
  0
LINE
  5
48E1
  8
0
 10
69.509481418947644
 20
68.748925853331869
 30
0.0
 11
68.371468358938955
 21
69.711458181455043
 31
0.0
  0
LINE
  5
48E2
  8
0
 10
68.019921707539879
 20
69.450410623197925
 30
0.0
 11
69.167694801280732
 21
68.439510018083027
 31
0.0
  0
LINE
  5
48E3
  8
0
 10
72.613116243443528
 20
68.766863221177417
 30
0.0
 11
71.462767595392279
 21
69.7398289992271
 31
0.0
  0
LINE
  5
48E4
  8
0
 10
71.104457473949196
 20
69.484738363986892
 30
0.0
 11
72.28107254541078
 21
68.448435200744782
 31
0.0
  0
LINE
  5
48E5
  8
0
 10
68.903965374891186
 20
69.261071792673832
 30
0.0
 11
70.114434517815653
 21
69.261071848929831
 31
0.0
  0
LINE
  5
48E6
  8
0
 10
72.02880758432957
 20
69.261071937899203
 30
0.0
 11
73.128456905507846
 21
69.261071989004975
 31
0.0
  0
LINE
  5
48E7
  8
0
 10
66.837049717635409
 20
68.486224445467272
 30
0.0
 11
69.114655255789557
 21
68.486224572487984
 31
0.0
  0
LINE
  5
48E9
  8
0
 10
77.029378232944964
 20
70.280575016411447
 30
0.0
 11
76.564780740043489
 21
70.465369970227755
 31
0.0
  0
LINE
  5
48EA
  8
0
 10
80.158325003227205
 20
68.486225188386541
 30
0.0
 11
80.158324933553786
 21
69.261072315714344
 31
0.0
  0
LINE
  5
48EB
  8
0
 10
76.156180240794129
 20
68.486224965189493
 30
0.0
 11
80.158325023472557
 21
68.486225188386541
 31
0.0
  0
LINE
  5
48EC
  8
0
 10
77.583922361491432
 20
69.261072196070316
 30
0.0
 11
80.158324933553786
 21
69.261072315714344
 31
0.0
  0
LINE
  5
48ED
  8
0
 10
76.689061616772264
 20
69.581252362041553
 30
0.0
 11
77.672197277619944
 21
68.486225049736802
 31
0.0
  0
LINE
  5
48EE
  8
0
 10
78.308136358051343
 20
68.486225085202662
 30
0.0
 11
76.901197588760169
 21
69.991529381627927
 31
0.0
  0
LINE
  5
48EF
  8
0
 10
74.443756511980837
 20
69.831589036758558
 30
0.0
 11
74.071834977853769
 21
70.165766202075091
 31
0.0
  0
LINE
  5
48F0
  8
0
 10
74.985991018934783
 20
67.221086954202477
 30
0.0
 11
75.450588508401097
 21
67.036291991749252
 31
0.0
  0
LINE
  5
48F1
  8
0
 10
73.848844736063029
 20
69.261072022484612
 30
0.0
 11
74.337999902276124
 21
69.261072045217773
 31
0.0
  0
LINE
  5
48F2
  8
0
 10
74.080560156758565
 20
69.48781197834883
 30
0.0
 11
75.486479353918867
 21
68.24954931571763
 31
0.0
  0
LINE
  5
48F3
  8
0
 10
75.694799453653786
 20
68.677629985632692
 30
0.0
 11
74.390661309243796
 21
69.780671038890617
 31
0.0
  0
LINE
  5
48F4
  8
0
 10
75.450588508401097
 20
67.036291991749252
 30
0.0
 11
77.029378232944964
 21
70.280575016411447
 31
0.0
  0
LINE
  5
48F5
  8
0
 10
76.564780740043489
 20
70.465369970227755
 30
0.0
 11
74.985991018934783
 21
67.221086954202477
 31
0.0
  0
LINE
  5
48F6
  8
0
 10
75.450588508401097
 20
67.036291991749252
 30
0.0
 11
77.8611647113039
 21
68.486225060275345
 31
0.0
  0
LINE
  5
48F7
  8
0
 10
75.004989148646246
 20
69.26107207621574
 30
0.0
 11
75.978724266122754
 21
69.261072121469581
 31
0.0
  0
LINE
  5
49A0
  8
0
 10
199.0328562465327
 20
299.9038341790519
 30
0.0
 11
196.53553723927709
 21
297.29973220055018
 31
0.0
  0
LINE
  5
49A1
  8
0
 10
196.20136007396059
 20
297.67165373467742
 30
0.0
 11
198.69867907430211
 21
300.27575570696672
 31
0.0
  0
LINE
  5
49A2
  8
0
 10
197.88090148458539
 20
298.7026229337061
 30
0.0
 11
197.88090136318141
 21
296.525730023101
 31
0.0
  0
LINE
  5
49AC
  8
0
 10
196.53553723927709
 20
297.29973220055018
 30
0.0
 11
196.20136007396059
 21
297.67165373467742
 31
0.0
  0
LINE
  5
49AD
  8
0
 10
199.14603932183331
 20
296.75749769359618
 30
0.0
 11
199.33083428428631
 21
296.29290020412998
 31
0.0
  0
LINE
  5
49AE
  8
0
 10
199.33083428428631
 20
296.29290020412998
 30
0.0
 11
196.0865512596242
 21
294.714110479586
 31
0.0
  0
LINE
  5
49AF
  8
0
 10
196.0865512596242
 20
294.714110479586
 30
0.0
 11
195.90175630580779
 21
295.17870797248759
 31
0.0
  0
LINE
  5
49B0
  8
0
 10
195.90175630580779
 20
295.17870797248759
 30
0.0
 11
199.14603932183331
 21
296.75749769359618
 31
0.0
  0
LINE
  5
49B1
  8
0
 10
197.10605425355109
 20
297.89464397646822
 30
0.0
 11
197.10605423081779
 21
297.40548881025501
 31
0.0
  0
LINE
  5
49B2
  8
0
 10
196.78587391399401
 20
295.05442709575891
 30
0.0
 11
197.8809012262989
 21
294.07129143491102
 31
0.0
  0
LINE
  5
49B3
  8
0
 10
199.33083428428631
 20
296.29290020412998
 30
0.0
 11
197.8809012157603
 21
293.88232400122712
 31
0.0
  0
LINE
  5
49B4
  8
0
 10
196.8793142976867
 20
297.66292855577262
 30
0.0
 11
198.11757696031799
 21
296.25700935861232
 31
0.0
  0
LINE
  5
49B5
  8
0
 10
197.68949629040301
 20
296.04868925887718
 30
0.0
 11
196.58645523714489
 21
297.35282740328728
 31
0.0
  0
LINE
  5
49B6
  8
0
 10
197.10605419981991
 20
296.73849956388477
 30
0.0
 11
197.10605415456601
 21
295.76476444640832
 31
0.0
  0
LINE
  5
49B7
  8
0
 10
197.88090108764911
 20
291.58516370930391
 30
0.0
 11
197.1060539603213
 21
291.58516377897718
 31
0.0
  0
LINE
  5
49B9
  8
0
 10
197.88090131084621
 20
295.58730847173689
 30
0.0
 11
197.88090108764911
 21
291.58516368905839
 31
0.0
  0
LINE
  5
49BA
  8
0
 10
197.1060540799653
 20
294.15956635103959
 30
0.0
 11
197.1060539603213
 21
291.58516377897718
 31
0.0
  0
LINE
  5
49BB
  8
0
 10
197.8809011908329
 20
293.43535235447962
 30
0.0
 11
196.37559689440761
 21
294.84229112377079
 31
0.0
  0
LINE
  5
49C4
  8
0
 10
198.94750035141189
 20
309.18820642647779
 30
0.0
 11
199.2055569580086
 21
308.75994623318621
 31
0.0
  0
LINE
  5
49C5
  8
0
 10
196.0039668474048
 20
307.10168784704041
 30
0.0
 11
198.94750035141189
 21
309.18820642647779
 31
0.0
  0
LINE
  5
49C6
  8
0
 10
198.3457991199657
 20
308.76169156025531
 30
0.0
 11
197.1060548267121
 21
310.22745552014698
 31
0.0
  0
LINE
  5
49C7
  8
0
 10
196.1507417241539
 20
307.2057289618823
 30
0.0
 11
197.10614545203839
 21
309.85509004366207
 31
0.0
  0
LINE
  5
49C9
  8
0
 10
197.10605491304821
 20
312.08516377897718
 30
0.0
 11
197.10605471775011
 21
307.88290090764173
 31
0.0
  0
LINE
  5
49CA
  8
0
 10
199.2055569580086
 20
308.75994623318621
 30
0.0
 11
196.2620234460405
 21
306.67342764895147
 31
0.0
  0
LINE
  5
49CB
  8
0
 10
196.2620234460405
 20
306.67342764895147
 30
0.0
 11
196.0039668474048
 21
307.10168784704041
 31
0.0
  0
LINE
  5
49CC
  8
0
 10
198.551790113735
 20
306.51867428466397
 30
0.0
 11
198.9148181391547
 21
306.17485651588783
 31
0.0
  0
LINE
  5
49CD
  8
0
 10
198.9148181391547
 20
306.17485651588783
 30
0.0
 11
196.6351991891386
 21
303.37820015852742
 31
0.0
  0
LINE
  5
49CE
  8
0
 10
196.6351991891386
 20
303.37820015852742
 30
0.0
 11
196.27217117011031
 21
303.72201793405242
 31
0.0
  0
LINE
  5
49CF
  8
0
 10
196.27217117011031
 20
303.72201793405242
 30
0.0
 11
198.551790113735
 21
306.51867428466397
 31
0.0
  0
LINE
  5
49D0
  8
0
 10
198.66189784866279
 20
303.34766843514637
 30
0.0
 11
199.0066243578317
 21
302.98550322527279
 31
0.0
  0
LINE
  5
49D1
  8
0
 10
197.88090183056829
 20
304.90643899489561
 30
0.0
 11
197.88090170354761
 21
302.6288334567414
 31
0.0
  0
LINE
  5
49D2
  8
0
 10
197.10605453524249
 20
303.9558495929075
 30
0.0
 11
197.10605451445639
 21
303.50859230830378
 31
0.0
  0
LINE
  5
49D3
  8
0
 10
197.88090199310969
 20
307.8209668770067
 30
0.0
 11
197.8809018745805
 21
305.69562275676333
 31
0.0
  0
LINE
  5
49D4
  8
0
 10
197.10605468934571
 20
307.27171772027918
 30
0.0
 11
197.10605465066729
 21
306.43947093441579
 31
0.0
  0
LINE
  5
49D5
  8
0
 10
197.52756497865349
 20
305.26214597913639
 30
0.0
 11
196.3069602433531
 21
306.70528101917063
 31
0.0
  0
LINE
  5
49D6
  8
0
 10
196.6581034550004
 20
306.9480731917439
 30
0.0
 11
197.82336635282709
 21
305.62503767817032
 31
0.0
  0
LINE
  5
49D7
  8
0
 10
197.61820042270369
 20
302.23400729358332
 30
0.0
 11
196.6556680945807
 21
303.37202035359201
 31
0.0
  0
LINE
  5
49D8
  8
0
 10
196.91671565283761
 20
303.72356700499108
 30
0.0
 11
197.92761625795259
 21
302.57579391125017
 31
0.0
  0
LINE
  5
49D9
  8
0
 10
197.10605461911271
 20
305.76050253306312
 30
0.0
 11
197.1060545719194
 21
304.74503334540469
 31
0.0
  0
LINE
  5
49DA
  8
0
 10
196.58516667390651
 20
300.3107150049841
 30
0.0
 11
196.2404401714702
 21
300.6728802212661
 31
0.0
  0
LINE
  5
49DB
  8
0
 10
198.69867907430211
 20
300.27575570696672
 30
0.0
 11
199.0328562465327
 21
299.9038341790519
 31
0.0
  0
LINE
  5
49DC
  8
0
 10
197.88090165408991
 20
301.74200851245217
 30
0.0
 11
197.88090152935141
 21
299.50532228848829
 31
0.0
  0
LINE
  5
49DD
  8
0
 10
197.10605439257731
 20
300.88609748771057
 30
0.0
 11
197.10605436929291
 21
300.38508110708699
 31
0.0
  0
LINE
  5
49DE
  8
0
 10
197.60026305485829
 20
299.1303724690876
 30
0.0
 11
196.6272972768086
 21
300.28072111713868
 31
0.0
  0
LINE
  5
49DF
  8
0
 10
196.8823879120487
 20
300.63903123858188
 30
0.0
 11
197.91869107529081
 21
299.4624161671203
 31
0.0
  0
LINE
  5
49E0
  8
0
 10
197.10605433813629
 20
299.71468112820162
 30
0.0
 11
197.1060542870307
 21
298.61503180702312
 31
0.0
  0
LINE
  5
49E1
  8
0
 10
199.0066243578317
 20
302.98550322527279
 30
0.0
 11
196.58516667390651
 21
300.3107150049841
 31
0.0
  0
LINE
  5
49E2
  8
0
 10
196.2404401714702
 20
300.6728802212661
 30
0.0
 11
198.66189784866279
 21
303.34766843514637
 31
0.0
  0
LINE
  5
49E3
  8
0
 10
197.1060544833617
 20
302.83952333763978
 30
0.0
 11
197.10605442710579
 21
301.62905419471542
 31
0.0
  0
LINE
  5
49E5
  8
0
 10
197.88090223092129
 20
312.08516372740229
 30
0.0
 11
197.10605491304821
 21
312.08516375621082
 31
0.0
  0
LINE
  5
49E6
  8
0
 10
197.88090223092129
 20
312.08516375621082
 30
0.0
 11
197.8809021143897
 21
309.99563571393759
 31
0.0
  0
LINE
  5
49E7
  8
0
 10
197.10605485682481
 20
310.87539464324482
 30
0.0
 11
198.7286667673954
 21
309.03308662293767
 31
0.0
  0
LINE
  5
49F4
  8
0
 10
199.3308341778679
 20
307.74200851245212
 30
0.0
 11
197.8809019887062
 21
307.74200851245212
 31
0.0
  0
LINE
  5
49F5
  8
0
 10
196.34413306115439
 20
307.74200851245229
 30
0.0
 11
195.90175630580779
 21
307.74200851245229
 31
0.0
  0
LINE
  5
49F6
  8
3
 10
199.33083418667039
 20
306.66850851245232
 30
0.0
 11
197.88090193589281
 21
306.66850851245232
 31
0.0
  0
LINE
  5
49F7
  8
3
 10
197.1060546671911
 20
306.66850851245232
 30
0.0
 11
196.90432991300511
 21
306.66850851245232
 31
0.0
  0
LINE
  5
49F8
  8
3
 10
196.33806245803439
 20
306.66850851245232
 30
0.0
 11
195.90175630580779
 21
306.66850851245232
 31
0.0
  0
LINE
  5
49F9
  8
0
 10
199.33083428940671
 20
295.74200851245251
 30
0.0
 11
198.99947944888319
 21
295.74200851245251
 31
0.0
  0
LINE
  5
49FA
  8
0
 10
197.05929258203969
 20
295.74200851245212
 30
0.0
 11
195.90175630580779
 21
295.74200851245212
 31
0.0
  0
LINE
  5
49FC
  8
3
 10
199.3308342842864
 20
296.8155085124526
 30
0.0
 11
197.88090137228679
 21
296.81550851245242
 31
0.0
  0
LINE
  5
49FD
  8
3
 10
197.04091997143911
 20
296.81550851245231
 30
0.0
 11
195.90175630580779
 21
296.8155085124522
 31
0.0
  0
LINE
  5
4A08
  8
0
 10
75.999999999999545
 20
67.036291991749252
 30
0.0
 11
75.999999999999545
 21
67.366756504315916
 31
0.0
  0
LINE
  5
4A09
  8
0
 10
75.999999999999645
 20
69.304792004584854
 30
0.0
 11
75.999999999999645
 21
70.465369970227755
 31
0.0
  0
LINE
  5
4A0B
  8
3
 10
74.926499999999919
 20
67.036291991749252
 30
0.0
 11
74.926500000000033
 21
68.486224903665715
 31
0.0
  0
LINE
  5
4A0C
  8
3
 10
74.926500000000033
 20
69.327458258970353
 30
0.0
 11
74.926500000000033
 21
70.465369970227783
 31
0.0
  0
LINE
  5
4A0D
  8
0
 10
64.000000000000455
 20
67.036291991749252
 30
0.0
 11
64.000000000000227
 21
68.486224287246799
 31
0.0
  0
LINE
  5
4A0E
  8
0
 10
64.000000000000227
 20
70.022459430081824
 30
0.0
 11
64.000000000000114
 21
70.465369970227314
 31
0.0
  0
LINE
  5
4A0F
  8
3
 10
65.073500000000294
 20
67.036291991749252
 30
0.0
 11
65.073500000000081
 21
68.48622434006036
 31
0.0
  0
LINE
  5
4A10
  8
3
 10
65.073499999999726
 20
70.030315772374962
 30
0.0
 11
65.073499999999967
 21
70.465369970227428
 31
0.0
  0
LINE
  5
4A11
  8
3
 10
65.073500033236428
 20
69.464100019271726
 30
0.0
 11
65.073500042671981
 21
69.261071608776049
 31
0.0
  0
LINE
  5
4D6A
  8
1
 10
57.0
 20
301.74200851245217
 30
0.0
 11
83.0
 21
301.74200851245217
 31
0.0
  0
LINE
  5
4D6C
  8
1
 10
57.0
 20
174.7420085124522
 30
0.0
 11
83.0
 21
174.7420085124522
 31
0.0
  0
LINE
  5
4D6D
  8
1
 10
70.000000000000114
 20
151.2420085124522
 30
0.0
 11
69.999999999999545
 21
325.24200851245217
 31
0.0
  0
LINE
  5
4D6E
  8
0
 10
55.14999999999997
 20
273.74200851245217
 30
0.0
 11
55.14999999999997
 21
202.7420085124522
 31
0.0
  0
LINE
  5
4D6F
  8
0
 10
84.850000000000023
 20
273.74200851245217
 30
0.0
 11
84.850000000000023
 21
202.7420085124522
 31
0.0
  0
LINE
  5
4D70
  8
0
 10
86.5
 20
320.24200851245229
 30
0.0
 11
53.5
 21
320.24200851245229
 31
0.0
  0
LINE
  5
4D71
  8
0
 10
86.5
 20
156.2420085124522
 30
0.0
 11
53.5
 21
156.2420085124522
 31
0.0
  0
LINE
  5
4D72
  8
0
 10
86.5
 20
320.05000279824179
 30
0.0
 11
53.5
 21
320.05000279824179
 31
0.0
  0
LINE
  5
4D73
  8
0
 10
86.5
 20
156.43401422666261
 30
0.0
 11
53.5
 21
156.43401422666261
 31
0.0
  0
LINE
  5
4D76
  8
0
 10
86.5
 20
320.24200851245229
 30
0.0
 11
86.5
 21
273.74200851245217
 31
0.0
  0
LINE
  5
4D77
  8
0
 10
53.5
 20
273.74200851245217
 30
0.0
 11
86.5
 21
273.74200851245217
 31
0.0
  0
LINE
  5
4D78
  8
0
 10
53.5
 20
320.24200851245229
 30
0.0
 11
53.5
 21
273.74200851245217
 31
0.0
  0
POLYLINE
  5
4D79
  8
0
 66
     1
 10
0.0
 20
0.0
 30
0.0
 70
     8
  0
VERTEX
  5
4D7A
  8
0
 10
86.5
 20
318.78022774705119
 30
0.0
 70
    32
  0
VERTEX
  5
4D7B
  8
0
 10
86.498254826797279
 20
318.7248253118961
 30
0.0
 70
    32
  0
VERTEX
  5
4D7C
  8
0
 10
86.484295656100699
 20
318.61406731757711
 30
0.0
 70
    32
  0
VERTEX
  5
4D7D
  8
0
 10
86.456389125559426
 20
318.50344991157021
 30
0.0
 70
    32
  0
VERTEX
  5
4D7E
  8
0
 10
86.437212518513775
 20
318.44822318392443
 30
0.0
 70
    32
  0
VERTEX
  5
4D7F
  8
0
 10
86.414558846884574
 20
318.3930666872443
 30
0.0
 70
    32
  0
VERTEX
  5
4D80
  8
0
 10
86.358840212667928
 20
318.2830110398275
 30
0.0
 70
    32
  0
VERTEX
  5
4D81
  8
0
 10
86.289280366436614
 20
318.1733760873849
 30
0.0
 70
    32
  0
VERTEX
  5
4D82
  8
0
 10
86.205938162765392
 20
318.06425459203177
 30
0.0
 70
    32
  0
VERTEX
  5
4D83
  8
0
 10
86.108884117478837
 20
317.95573888144747
 30
0.0
 70
    32
  0
VERTEX
  5
4D84
  8
0
 10
85.998200347988927
 20
317.84792077075679
 30
0.0
 70
    32
  0
VERTEX
  5
4D85
  8
0
 10
85.937776133769603
 20
317.79430184831881
 30
0.0
 70
    32
  0
VERTEX
  5
4D86
  8
0
 10
85.873980503814664
 20
317.74089148484552
 30
0.0
 70
    32
  0
VERTEX
  5
4D87
  8
0
 10
85.736329687345687
 20
317.63474158117469
 30
0.0
 70
    32
  0
VERTEX
  5
4D88
  8
0
 10
85.585364364915449
 20
317.52956087316062
 30
0.0
 70
    32
  0
VERTEX
  5
4D89
  8
0
 10
85.421212268258273
 20
317.42543835418292
 30
0.0
 70
    32
  0
VERTEX
  5
4D8A
  8
0
 10
85.244012286436245
 20
317.32246212228767
 30
0.0
 70
    32
  0
VERTEX
  5
4D8B
  8
0
 10
85.053914348324724
 20
317.22071930564812
 30
0.0
 70
    32
  0
VERTEX
  5
4D8C
  8
0
 10
84.954078486104777
 20
317.17033737224358
 30
0.0
 70
    32
  0
VERTEX
  5
4D8D
  8
0
 10
84.851079295758041
 20
317.1202959888443
 30
0.0
 70
    32
  0
VERTEX
  5
4D8E
  8
0
 10
84.635678747440707
 20
317.02127714002808
 30
0.0
 70
    32
  0
VERTEX
  5
4D8F
  8
0
 10
84.40789495374122
 20
316.92374653903153
 30
0.0
 70
    32
  0
VERTEX
  5
4D90
  8
0
 10
84.28941916244321
 20
316.87556517026542
 30
0.0
 70
    32
  0
VERTEX
  5
4D91
  8
0
 10
84.167920642490117
 20
316.82778670647969
 30
0.0
 70
    32
  0
VERTEX
  5
4D92
  8
0
 10
83.915958855912564
 20
316.7334788339715
 30
0.0
 70
    32
  0
VERTEX
  5
4D93
  8
0
 10
83.652222778834926
 20
316.64090271538203
 30
0.0
 70
    32
  0
VERTEX
  5
4D94
  8
0
 10
83.516008730768363
 20
316.59528860056309
 30
0.0
 70
    32
  0
VERTEX
  5
4D95
  8
0
 10
83.37693555830856
 20
316.5501366793502
 30
0.0
 70
    32
  0
VERTEX
  5
4D96
  8
0
 10
83.090330114805397
 20
316.46125752300401
 30
0.0
 70
    32
  0
VERTEX
  5
4D97
  8
0
 10
82.792648945144151
 20
316.37434044698318
 30
0.0
 70
    32
  0
VERTEX
  5
4D98
  8
0
 10
82.484143917313645
 20
316.28945899181161
 30
0.0
 70
    32
  0
VERTEX
  5
4D99
  8
0
 10
82.165076057367074
 20
316.20668497567408
 30
0.0
 70
    32
  0
VERTEX
  5
4D9A
  8
0
 10
81.835715328568313
 20
316.12608843365251
 30
0.0
 70
    32
  0
VERTEX
  5
4D9B
  8
0
 10
81.667261889578086
 20
316.08662809921623
 30
0.0
 70
    32
  0
VERTEX
  5
4D9C
  8
0
 10
81.496340402975875
 20
316.04773755846759
 30
0.0
 70
    32
  0
VERTEX
  5
4D9D
  8
0
 10
81.147238425658415
 20
315.97169864278197
 30
0.0
 70
    32
  0
VERTEX
  5
4D9E
  8
0
 10
80.788704771741664
 20
315.8980360231098
 30
0.0
 70
    32
  0
VERTEX
  5
4D9F
  8
0
 10
80.421042796491179
 20
315.82681202538151
 30
0.0
 70
    32
  0
VERTEX
  5
4DA0
  8
0
 10
80.044563578643874
 20
315.75808691220959
 30
0.0
 70
    32
  0
VERTEX
  5
4DA1
  8
0
 10
79.659585657204047
 20
315.69191883190138
 30
0.0
 70
    32
  0
VERTEX
  5
4DA2
  8
0
 10
79.464011199792253
 20
315.65981126014151
 30
0.0
 70
    32
  0
VERTEX
  5
4DA3
  8
0
 10
79.266434761927712
 20
315.6283637692585
 30
0.0
 70
    32
  0
VERTEX
  5
4DA4
  8
0
 10
78.865443537722626
 20
315.56747549820898
 30
0.0
 70
    32
  0
VERTEX
  5
4DA5
  8
0
 10
78.456951263197766
 20
315.509305536309
 30
0.0
 70
    32
  0
VERTEX
  5
4DA6
  8
0
 10
78.041303563599513
 20
315.45390310115391
 30
0.0
 70
    32
  0
VERTEX
  5
4DA7
  8
0
 10
77.618852118378072
 20
315.40131506873479
 30
0.0
 70
    32
  0
VERTEX
  5
4DA8
  8
0
 10
77.189954363631841
 20
315.3515859337773
 30
0.0
 70
    32
  0
VERTEX
  5
4DA9
  8
0
 10
76.973201318721522
 20
315.32780669701458
 30
0.0
 70
    32
  0
VERTEX
  5
4DAA
  8
0
 10
76.754973189680527
 20
315.30475777209438
 30
0.0
 70
    32
  0
VERTEX
  5
4DAB
  8
0
 10
76.314276634024054
 20
315.26087020498591
 30
0.0
 70
    32
  0
VERTEX
  5
4DAC
  8
0
 10
75.86823756994545
 20
315.21996036571511
 30
0.0
 70
    32
  0
VERTEX
  5
4DAD
  8
0
 10
75.417233391023728
 20
315.18206286809038
 30
0.0
 70
    32
  0
VERTEX
  5
4DAE
  8
0
 10
74.961645691820536
 20
315.14720977717832
 30
0.0
 70
    32
  0
VERTEX
  5
4DAF
  8
0
 10
74.501859945013166
 20
315.11543058217308
 30
0.0
 70
    32
  0
VERTEX
  5
4DB0
  8
0
 10
74.270514244191645
 20
315.10070220048368
 30
0.0
 70
    32
  0
VERTEX
  5
4DB1
  8
0
 10
74.038265175246352
 20
315.08675217144668
 30
0.0
 70
    32
  0
VERTEX
  5
4DB2
  8
0
 10
73.571253629978614
 20
315.06119880979759
 30
0.0
 70
    32
  0
VERTEX
  5
4DB3
  8
0
 10
73.101220447601904
 20
315.03879211792088
 30
0.0
 70
    32
  0
VERTEX
  5
4DB4
  8
0
 10
72.628563323114122
 20
315.01955105411491
 30
0.0
 70
    32
  0
VERTEX
  5
4DB5
  8
0
 10
72.153682171630862
 20
315.0034918982405
 30
0.0
 70
    32
  0
VERTEX
  5
4DB6
  8
0
 10
71.676978790016165
 20
314.99062823794691
 30
0.0
 70
    32
  0
VERTEX
  5
4DB7
  8
0
 10
71.438069755336301
 20
314.98539822575549
 30
0.0
 70
    32
  0
VERTEX
  5
4DB8
  8
0
 10
71.198856516923115
 20
314.98097095717497
 30
0.0
 70
    32
  0
VERTEX
  5
4DB9
  8
0
 10
70.71971989152803
 20
314.97452822694839
 30
0.0
 70
    32
  0
VERTEX
  5
4DBA
  8
0
 10
70.239974311251103
 20
314.97130549846003
 30
0.0
 70
    32
  0
VERTEX
  5
4DBB
  8
0
 10
70.0
 20
314.97090259347948
 30
0.0
 70
    32
  0
VERTEX
  5
4DBC
  8
0
 10
69.760025688748897
 20
314.97130549846003
 30
0.0
 70
    32
  0
VERTEX
  5
4DBD
  8
0
 10
69.28028010847197
 20
314.97452822694839
 30
0.0
 70
    32
  0
VERTEX
  5
4DBE
  8
0
 10
68.801143483076885
 20
314.98097095717497
 30
0.0
 70
    32
  0
VERTEX
  5
4DBF
  8
0
 10
68.561930244663699
 20
314.98539822575549
 30
0.0
 70
    32
  0
VERTEX
  5
4DC0
  8
0
 10
68.323021209983835
 20
314.99062823794691
 30
0.0
 70
    32
  0
VERTEX
  5
4DC1
  8
0
 10
67.846317828369138
 20
315.0034918982405
 30
0.0
 70
    32
  0
VERTEX
  5
4DC2
  8
0
 10
67.371436676885878
 20
315.01955105411491
 30
0.0
 70
    32
  0
VERTEX
  5
4DC3
  8
0
 10
66.898779552398196
 20
315.03879211792088
 30
0.0
 70
    32
  0
VERTEX
  5
4DC4
  8
0
 10
66.428746370021372
 20
315.06119880979759
 30
0.0
 70
    32
  0
VERTEX
  5
4DC5
  8
0
 10
65.961734824753634
 20
315.08675217144668
 30
0.0
 70
    32
  0
VERTEX
  5
4DC6
  8
0
 10
65.729485755808355
 20
315.10070220048368
 30
0.0
 70
    32
  0
VERTEX
  5
4DC7
  8
0
 10
65.498140054986834
 20
315.11543058217308
 30
0.0
 70
    32
  0
VERTEX
  5
4DC8
  8
0
 10
65.038354308179564
 20
315.14720977717832
 30
0.0
 70
    32
  0
VERTEX
  5
4DC9
  8
0
 10
64.582766608976272
 20
315.18206286809038
 30
0.0
 70
    32
  0
VERTEX
  5
4DCA
  8
0
 10
64.13176243005455
 20
315.21996036571511
 30
0.0
 70
    32
  0
VERTEX
  5
4DCB
  8
0
 10
63.685723365975939
 20
315.26087020498591
 30
0.0
 70
    32
  0
VERTEX
  5
4DCC
  8
0
 10
63.24502681031948
 20
315.30475777209438
 30
0.0
 70
    32
  0
VERTEX
  5
4DCD
  8
0
 10
63.026798681278478
 20
315.32780669701458
 30
0.0
 70
    32
  0
VERTEX
  5
4DCE
  8
0
 10
62.810045636368159
 20
315.3515859337773
 30
0.0
 70
    32
  0
VERTEX
  5
4DCF
  8
0
 10
62.381147881621921
 20
315.40131506873479
 30
0.0
 70
    32
  0
VERTEX
  5
4DD0
  8
0
 10
61.95869643640048
 20
315.45390310115391
 30
0.0
 70
    32
  0
VERTEX
  5
4DD1
  8
0
 10
61.543048736802227
 20
315.509305536309
 30
0.0
 70
    32
  0
VERTEX
  5
4DD2
  8
0
 10
61.13455646227748
 20
315.56747549820898
 30
0.0
 70
    32
  0
VERTEX
  5
4DD3
  8
0
 10
60.733565238072401
 20
315.6283637692585
 30
0.0
 70
    32
  0
VERTEX
  5
4DD4
  8
0
 10
60.535988800207747
 20
315.65981126014151
 30
0.0
 70
    32
  0
VERTEX
  5
4DD5
  8
0
 10
60.340414342796073
 20
315.69191883190138
 30
0.0
 70
    32
  0
VERTEX
  5
4DD6
  8
0
 10
59.955436421356119
 20
315.75808691220959
 30
0.0
 70
    32
  0
VERTEX
  5
4DD7
  8
0
 10
59.578957203508708
 20
315.82681202538151
 30
0.0
 70
    32
  0
VERTEX
  5
4DD8
  8
0
 10
59.211295228258329
 20
315.8980360231098
 30
0.0
 70
    32
  0
VERTEX
  5
4DD9
  8
0
 10
58.852761574341677
 20
315.97169864278197
 30
0.0
 70
    32
  0
VERTEX
  5
4DDA
  8
0
 10
58.503659597024118
 20
316.04773755846759
 30
0.0
 70
    32
  0
VERTEX
  5
4DDB
  8
0
 10
58.332738110422042
 20
316.08662809921623
 30
0.0
 70
    32
  0
VERTEX
  5
4DDC
  8
0
 10
58.16428467143168
 20
316.12608843365251
 30
0.0
 70
    32
  0
VERTEX
  5
4DDD
  8
0
 10
57.83492394263294
 20
316.20668497567408
 30
0.0
 70
    32
  0
VERTEX
  5
4DDE
  8
0
 10
57.515856082686348
 20
316.28945899181161
 30
0.0
 70
    32
  0
VERTEX
  5
4DDF
  8
0
 10
57.207351054855849
 20
316.37434044698318
 30
0.0
 70
    32
  0
VERTEX
  5
4DE0
  8
0
 10
56.909669885194603
 20
316.46125752300401
 30
0.0
 70
    32
  0
VERTEX
  5
4DE1
  8
0
 10
56.62306444169144
 20
316.5501366793502
 30
0.0
 70
    32
  0
VERTEX
  5
4DE2
  8
0
 10
56.48399126923163
 20
316.59528860056309
 30
0.0
 70
    32
  0
VERTEX
  5
4DE3
  8
0
 10
56.347777221165067
 20
316.64090271538203
 30
0.0
 70
    32
  0
VERTEX
  5
4DE4
  8
0
 10
56.08404114408745
 20
316.7334788339715
 30
0.0
 70
    32
  0
VERTEX
  5
4DE5
  8
0
 10
55.832079357509883
 20
316.82778670647969
 30
0.0
 70
    32
  0
VERTEX
  5
4DE6
  8
0
 10
55.71058083755679
 20
316.87556517026542
 30
0.0
 70
    32
  0
VERTEX
  5
4DE7
  8
0
 10
55.59210504625878
 20
316.92374653903153
 30
0.0
 70
    32
  0
VERTEX
  5
4DE8
  8
0
 10
55.364321252559421
 20
317.02127714002808
 30
0.0
 70
    32
  0
VERTEX
  5
4DE9
  8
0
 10
55.148920704242073
 20
317.1202959888443
 30
0.0
 70
    32
  0
VERTEX
  5
4DEA
  8
0
 10
55.045921513895337
 20
317.17033737224358
 30
0.0
 70
    32
  0
VERTEX
  5
4DEB
  8
0
 10
54.946085651675283
 20
317.220719305648
 30
0.0
 70
    32
  0
VERTEX
  5
4DEC
  8
0
 10
54.755987713563741
 20
317.32246212228767
 30
0.0
 70
    32
  0
VERTEX
  5
4DED
  8
0
 10
54.57878773174162
 20
317.42543835418292
 30
0.0
 70
    32
  0
VERTEX
  5
4DEE
  8
0
 10
54.414635635084551
 20
317.52956087316062
 30
0.0
 70
    32
  0
VERTEX
  5
4DEF
  8
0
 10
54.263670312654313
 20
317.63474158117469
 30
0.0
 70
    32
  0
VERTEX
  5
4DF0
  8
0
 10
54.126019496185329
 20
317.74089148484552
 30
0.0
 70
    32
  0
VERTEX
  5
4DF1
  8
0
 10
54.06222386623039
 20
317.79430184831881
 30
0.0
 70
    32
  0
VERTEX
  5
4DF2
  8
0
 10
54.001799652011073
 20
317.84792077075679
 30
0.0
 70
    32
  0
VERTEX
  5
4DF3
  8
0
 10
53.891115882521028
 20
317.95573888144747
 30
0.0
 70
    32
  0
VERTEX
  5
4DF4
  8
0
 10
53.794061837234601
 20
318.06425459203177
 30
0.0
 70
    32
  0
VERTEX
  5
4DF5
  8
0
 10
53.710719633563251
 20
318.1733760873849
 30
0.0
 70
    32
  0
VERTEX
  5
4DF6
  8
0
 10
53.641159787332072
 20
318.2830110398275
 30
0.0
 70
    32
  0
VERTEX
  5
4DF7
  8
0
 10
53.585441153115418
 20
318.3930666872443
 30
0.0
 70
    32
  0
VERTEX
  5
4DF8
  8
0
 10
53.562787481486218
 20
318.44822318392443
 30
0.0
 70
    32
  0
VERTEX
  5
4DF9
  8
0
 10
53.54361087444056
 20
318.50344991157021
 30
0.0
 70
    32
  0
VERTEX
  5
4DFA
  8
0
 10
53.515704343899408
 20
318.61406731757711
 30
0.0
 70
    32
  0
VERTEX
  5
4DFB
  8
0
 10
53.501745173202721
 20
318.7248253118961
 30
0.0
 70
    32
  0
VERTEX
  5
4DFC
  8
0
 10
53.5
 20
318.78022774705119
 30
0.0
 70
    32
  0
SEQEND
  5
4DFD
  8
0
  0
LINE
  5
4F17
  8
0
 10
53.5
 20
202.7420085124522
 30
0.0
 11
53.5
 21
156.2420085124522
 31
0.0
  0
LINE
  5
4F18
  8
0
 10
86.5
 20
202.7420085124522
 30
0.0
 11
53.5
 21
202.7420085124522
 31
0.0
  0
LINE
  5
4F19
  8
0
 10
86.5
 20
202.7420085124522
 30
0.0
 11
86.5
 21
156.2420085124522
 31
0.0
  0
POLYLINE
  5
4F1A
  8
0
 66
     1
 10
0.0
 20
0.0
 30
0.0
 70
     8
  0
VERTEX
  5
4F1B
  8
0
 10
53.5
 20
157.70378927785319
 30
0.0
 70
    32
  0
VERTEX
  5
4F1C
  8
0
 10
53.501745173202721
 20
157.75919171300831
 30
0.0
 70
    32
  0
VERTEX
  5
4F1D
  8
0
 10
53.515704343899408
 20
157.86994970732741
 30
0.0
 70
    32
  0
VERTEX
  5
4F1E
  8
0
 10
53.54361087444056
 20
157.9805671133343
 30
0.0
 70
    32
  0
VERTEX
  5
4F1F
  8
0
 10
53.562787481486218
 20
158.03579384098009
 30
0.0
 70
    32
  0
VERTEX
  5
4F20
  8
0
 10
53.585441153115418
 20
158.09095033766019
 30
0.0
 70
    32
  0
VERTEX
  5
4F21
  8
0
 10
53.641159787332072
 20
158.20100598507699
 30
0.0
 70
    32
  0
VERTEX
  5
4F22
  8
0
 10
53.710719633563251
 20
158.31064093751959
 30
0.0
 70
    32
  0
VERTEX
  5
4F23
  8
0
 10
53.794061837234601
 20
158.41976243287269
 30
0.0
 70
    32
  0
VERTEX
  5
4F24
  8
0
 10
53.891115882521028
 20
158.5282781434569
 30
0.0
 70
    32
  0
VERTEX
  5
4F25
  8
0
 10
54.001799652011073
 20
158.6360962541477
 30
0.0
 70
    32
  0
VERTEX
  5
4F26
  8
0
 10
54.06222386623039
 20
158.68971517658571
 30
0.0
 70
    32
  0
VERTEX
  5
4F27
  8
0
 10
54.126019496185329
 20
158.743125540059
 30
0.0
 70
    32
  0
VERTEX
  5
4F28
  8
0
 10
54.263670312654313
 20
158.84927544372971
 30
0.0
 70
    32
  0
VERTEX
  5
4F29
  8
0
 10
54.414635635084551
 20
158.9544561517439
 30
0.0
 70
    32
  0
VERTEX
  5
4F2A
  8
0
 10
54.57878773174162
 20
159.0585786707216
 30
0.0
 70
    32
  0
VERTEX
  5
4F2B
  8
0
 10
54.755987713563741
 20
159.1615549026167
 30
0.0
 70
    32
  0
VERTEX
  5
4F2C
  8
0
 10
54.946085651675283
 20
159.2632977192564
 30
0.0
 70
    32
  0
VERTEX
  5
4F2D
  8
0
 10
55.045921513895337
 20
159.31367965266091
 30
0.0
 70
    32
  0
VERTEX
  5
4F2E
  8
0
 10
55.148920704242073
 20
159.36372103606021
 30
0.0
 70
    32
  0
VERTEX
  5
4F2F
  8
0
 10
55.364321252559421
 20
159.4627398848763
 30
0.0
 70
    32
  0
VERTEX
  5
4F30
  8
0
 10
55.59210504625878
 20
159.56027048587299
 30
0.0
 70
    32
  0
VERTEX
  5
4F31
  8
0
 10
55.71058083755679
 20
159.6084518546391
 30
0.0
 70
    32
  0
VERTEX
  5
4F32
  8
0
 10
55.832079357509883
 20
159.65623031842469
 30
0.0
 70
    32
  0
VERTEX
  5
4F33
  8
0
 10
56.08404114408745
 20
159.75053819093301
 30
0.0
 70
    32
  0
VERTEX
  5
4F34
  8
0
 10
56.347777221165067
 20
159.84311430952249
 30
0.0
 70
    32
  0
VERTEX
  5
4F35
  8
0
 10
56.48399126923163
 20
159.88872842434131
 30
0.0
 70
    32
  0
VERTEX
  5
4F36
  8
0
 10
56.62306444169144
 20
159.9338803455544
 30
0.0
 70
    32
  0
VERTEX
  5
4F37
  8
0
 10
56.909669885194603
 20
160.0227595019004
 30
0.0
 70
    32
  0
VERTEX
  5
4F38
  8
0
 10
57.207351054855728
 20
160.10967657792119
 30
0.0
 70
    32
  0
VERTEX
  5
4F39
  8
0
 10
57.515856082686348
 20
160.1945580330929
 30
0.0
 70
    32
  0
VERTEX
  5
4F3A
  8
0
 10
57.83492394263294
 20
160.2773320492303
 30
0.0
 70
    32
  0
VERTEX
  5
4F3B
  8
0
 10
58.16428467143168
 20
160.357928591252
 30
0.0
 70
    32
  0
VERTEX
  5
4F3C
  8
0
 10
58.332738110422042
 20
160.39738892568829
 30
0.0
 70
    32
  0
VERTEX
  5
4F3D
  8
0
 10
58.503659597024118
 20
160.4362794664369
 30
0.0
 70
    32
  0
VERTEX
  5
4F3E
  8
0
 10
58.852761574341571
 20
160.5123183821224
 30
0.0
 70
    32
  0
VERTEX
  5
4F3F
  8
0
 10
59.211295228258329
 20
160.58598100179461
 30
0.0
 70
    32
  0
VERTEX
  5
4F40
  8
0
 10
59.578957203508708
 20
160.657204999523
 30
0.0
 70
    32
  0
VERTEX
  5
4F41
  8
0
 10
59.955436421356119
 20
160.72593011269481
 30
0.0
 70
    32
  0
VERTEX
  5
4F42
  8
0
 10
60.340414342795953
 20
160.79209819300311
 30
0.0
 70
    32
  0
VERTEX
  5
4F43
  8
0
 10
60.535988800207747
 20
160.82420576476301
 30
0.0
 70
    32
  0
VERTEX
  5
4F44
  8
0
 10
60.733565238072288
 20
160.85565325564599
 30
0.0
 70
    32
  0
VERTEX
  5
4F45
  8
0
 10
61.13455646227748
 20
160.91654152669551
 30
0.0
 70
    32
  0
VERTEX
  5
4F46
  8
0
 10
61.543048736802227
 20
160.9747114885954
 30
0.0
 70
    32
  0
VERTEX
  5
4F47
  8
0
 10
61.95869643640048
 20
161.0301139237506
 30
0.0
 70
    32
  0
VERTEX
  5
4F48
  8
0
 10
62.381147881621921
 20
161.0827019561697
 30
0.0
 70
    32
  0
VERTEX
  5
4F49
  8
0
 10
62.810045636368159
 20
161.1324310911271
 30
0.0
 70
    32
  0
VERTEX
  5
4F4A
  8
0
 10
63.026798681278478
 20
161.15621032788991
 30
0.0
 70
    32
  0
VERTEX
  5
4F4B
  8
0
 10
63.24502681031948
 20
161.17925925281011
 30
0.0
 70
    32
  0
VERTEX
  5
4F4C
  8
0
 10
63.685723365975939
 20
161.22314681991861
 30
0.0
 70
    32
  0
VERTEX
  5
4F4D
  8
0
 10
64.13176243005455
 20
161.26405665918941
 30
0.0
 70
    32
  0
VERTEX
  5
4F4E
  8
0
 10
64.582766608976272
 20
161.30195415681399
 30
0.0
 70
    32
  0
VERTEX
  5
4F4F
  8
0
 10
65.038354308179464
 20
161.3368072477262
 30
0.0
 70
    32
  0
VERTEX
  5
4F50
  8
0
 10
65.498140054986834
 20
161.3685864427313
 30
0.0
 70
    32
  0
VERTEX
  5
4F51
  8
0
 10
65.729485755808355
 20
161.38331482442081
 30
0.0
 70
    32
  0
VERTEX
  5
4F52
  8
0
 10
65.961734824753634
 20
161.39726485345781
 30
0.0
 70
    32
  0
VERTEX
  5
4F53
  8
0
 10
66.428746370021372
 20
161.42281821510679
 30
0.0
 70
    32
  0
VERTEX
  5
4F54
  8
0
 10
66.898779552398082
 20
161.44522490698361
 30
0.0
 70
    32
  0
VERTEX
  5
4F55
  8
0
 10
67.371436676885878
 20
161.4644659707896
 30
0.0
 70
    32
  0
VERTEX
  5
4F56
  8
0
 10
67.846317828369138
 20
161.48052512666391
 30
0.0
 70
    32
  0
VERTEX
  5
4F57
  8
0
 10
68.323021209983835
 20
161.4933887869575
 30
0.0
 70
    32
  0
VERTEX
  5
4F58
  8
0
 10
68.561930244663699
 20
161.49861879914889
 30
0.0
 70
    32
  0
VERTEX
  5
4F59
  8
0
 10
68.801143483076885
 20
161.50304606772951
 30
0.0
 70
    32
  0
VERTEX
  5
4F5A
  8
0
 10
69.28028010847197
 20
161.50948879795621
 30
0.0
 70
    32
  0
VERTEX
  5
4F5B
  8
0
 10
69.760025688748897
 20
161.51271152644449
 30
0.0
 70
    32
  0
VERTEX
  5
4F5C
  8
0
 10
70.0
 20
161.51311443142501
 30
0.0
 70
    32
  0
VERTEX
  5
4F5D
  8
0
 10
70.239974311251103
 20
161.51271152644449
 30
0.0
 70
    32
  0
VERTEX
  5
4F5E
  8
0
 10
70.71971989152803
 20
161.50948879795621
 30
0.0
 70
    32
  0
VERTEX
  5
4F5F
  8
0
 10
71.198856516923115
 20
161.50304606772951
 30
0.0
 70
    32
  0
VERTEX
  5
4F60
  8
0
 10
71.438069755336301
 20
161.49861879914889
 30
0.0
 70
    32
  0
VERTEX
  5
4F61
  8
0
 10
71.676978790016165
 20
161.4933887869575
 30
0.0
 70
    32
  0
VERTEX
  5
4F62
  8
0
 10
72.153682171630862
 20
161.48052512666391
 30
0.0
 70
    32
  0
VERTEX
  5
4F63
  8
0
 10
72.628563323114122
 20
161.4644659707896
 30
0.0
 70
    32
  0
VERTEX
  5
4F64
  8
0
 10
73.101220447601804
 20
161.44522490698361
 30
0.0
 70
    32
  0
VERTEX
  5
4F65
  8
0
 10
73.571253629978614
 20
161.42281821510679
 30
0.0
 70
    32
  0
VERTEX
  5
4F66
  8
0
 10
74.038265175246352
 20
161.39726485345781
 30
0.0
 70
    32
  0
VERTEX
  5
4F67
  8
0
 10
74.270514244191645
 20
161.38331482442081
 30
0.0
 70
    32
  0
VERTEX
  5
4F68
  8
0
 10
74.501859945013166
 20
161.3685864427313
 30
0.0
 70
    32
  0
VERTEX
  5
4F69
  8
0
 10
74.961645691820422
 20
161.3368072477262
 30
0.0
 70
    32
  0
VERTEX
  5
4F6A
  8
0
 10
75.417233391023728
 20
161.30195415681399
 30
0.0
 70
    32
  0
VERTEX
  5
4F6B
  8
0
 10
75.86823756994545
 20
161.26405665918941
 30
0.0
 70
    32
  0
VERTEX
  5
4F6C
  8
0
 10
76.314276634024054
 20
161.22314681991861
 30
0.0
 70
    32
  0
VERTEX
  5
4F6D
  8
0
 10
76.754973189680527
 20
161.17925925281011
 30
0.0
 70
    32
  0
VERTEX
  5
4F6E
  8
0
 10
76.973201318721522
 20
161.15621032788991
 30
0.0
 70
    32
  0
VERTEX
  5
4F6F
  8
0
 10
77.189954363631841
 20
161.1324310911271
 30
0.0
 70
    32
  0
VERTEX
  5
4F70
  8
0
 10
77.618852118378072
 20
161.0827019561697
 30
0.0
 70
    32
  0
VERTEX
  5
4F71
  8
0
 10
78.041303563599513
 20
161.0301139237506
 30
0.0
 70
    32
  0
VERTEX
  5
4F72
  8
0
 10
78.456951263197766
 20
160.9747114885954
 30
0.0
 70
    32
  0
VERTEX
  5
4F73
  8
0
 10
78.865443537722513
 20
160.91654152669551
 30
0.0
 70
    32
  0
VERTEX
  5
4F74
  8
0
 10
79.266434761927599
 20
160.8556532556461
 30
0.0
 70
    32
  0
VERTEX
  5
4F75
  8
0
 10
79.464011199792253
 20
160.82420576476301
 30
0.0
 70
    32
  0
VERTEX
  5
4F76
  8
0
 10
79.659585657203934
 20
160.79209819300311
 30
0.0
 70
    32
  0
VERTEX
  5
4F77
  8
0
 10
80.044563578643874
 20
160.72593011269481
 30
0.0
 70
    32
  0
VERTEX
  5
4F78
  8
0
 10
80.421042796491179
 20
160.657204999523
 30
0.0
 70
    32
  0
VERTEX
  5
4F79
  8
0
 10
80.788704771741664
 20
160.58598100179461
 30
0.0
 70
    32
  0
VERTEX
  5
4F7A
  8
0
 10
81.147238425658315
 20
160.5123183821224
 30
0.0
 70
    32
  0
VERTEX
  5
4F7B
  8
0
 10
81.496340402975875
 20
160.4362794664369
 30
0.0
 70
    32
  0
VERTEX
  5
4F7C
  8
0
 10
81.667261889577944
 20
160.39738892568829
 30
0.0
 70
    32
  0
VERTEX
  5
4F7D
  8
0
 10
81.835715328568313
 20
160.357928591252
 30
0.0
 70
    32
  0
VERTEX
  5
4F7E
  8
0
 10
82.165076057367074
 20
160.2773320492303
 30
0.0
 70
    32
  0
VERTEX
  5
4F7F
  8
0
 10
82.484143917313645
 20
160.1945580330929
 30
0.0
 70
    32
  0
VERTEX
  5
4F80
  8
0
 10
82.792648945144151
 20
160.10967657792119
 30
0.0
 70
    32
  0
VERTEX
  5
4F81
  8
0
 10
83.090330114805397
 20
160.0227595019004
 30
0.0
 70
    32
  0
VERTEX
  5
4F82
  8
0
 10
83.37693555830856
 20
159.9338803455544
 30
0.0
 70
    32
  0
VERTEX
  5
4F83
  8
0
 10
83.516008730768363
 20
159.88872842434131
 30
0.0
 70
    32
  0
VERTEX
  5
4F84
  8
0
 10
83.652222778834926
 20
159.84311430952249
 30
0.0
 70
    32
  0
VERTEX
  5
4F85
  8
0
 10
83.915958855912564
 20
159.75053819093301
 30
0.0
 70
    32
  0
VERTEX
  5
4F86
  8
0
 10
84.167920642490117
 20
159.65623031842469
 30
0.0
 70
    32
  0
VERTEX
  5
4F87
  8
0
 10
84.28941916244321
 20
159.6084518546391
 30
0.0
 70
    32
  0
VERTEX
  5
4F88
  8
0
 10
84.40789495374122
 20
159.56027048587299
 30
0.0
 70
    32
  0
VERTEX
  5
4F89
  8
0
 10
84.635678747440707
 20
159.4627398848763
 30
0.0
 70
    32
  0
VERTEX
  5
4F8A
  8
0
 10
84.851079295758041
 20
159.36372103606021
 30
0.0
 70
    32
  0
VERTEX
  5
4F8B
  8
0
 10
84.954078486104663
 20
159.31367965266091
 30
0.0
 70
    32
  0
VERTEX
  5
4F8C
  8
0
 10
85.053914348324724
 20
159.2632977192564
 30
0.0
 70
    32
  0
VERTEX
  5
4F8D
  8
0
 10
85.244012286436245
 20
159.1615549026167
 30
0.0
 70
    32
  0
VERTEX
  5
4F8E
  8
0
 10
85.421212268258273
 20
159.0585786707216
 30
0.0
 70
    32
  0
VERTEX
  5
4F8F
  8
0
 10
85.585364364915449
 20
158.9544561517439
 30
0.0
 70
    32
  0
VERTEX
  5
4F90
  8
0
 10
85.736329687345687
 20
158.84927544372971
 30
0.0
 70
    32
  0
VERTEX
  5
4F91
  8
0
 10
85.873980503814664
 20
158.743125540059
 30
0.0
 70
    32
  0
VERTEX
  5
4F92
  8
0
 10
85.937776133769603
 20
158.68971517658571
 30
0.0
 70
    32
  0
VERTEX
  5
4F93
  8
0
 10
85.998200347988927
 20
158.6360962541477
 30
0.0
 70
    32
  0
VERTEX
  5
4F94
  8
0
 10
86.108884117478837
 20
158.5282781434569
 30
0.0
 70
    32
  0
VERTEX
  5
4F95
  8
0
 10
86.205938162765392
 20
158.41976243287269
 30
0.0
 70
    32
  0
VERTEX
  5
4F96
  8
0
 10
86.289280366436614
 20
158.31064093751959
 30
0.0
 70
    32
  0
VERTEX
  5
4F97
  8
0
 10
86.358840212667928
 20
158.20100598507699
 30
0.0
 70
    32
  0
VERTEX
  5
4F98
  8
0
 10
86.414558846884574
 20
158.09095033766019
 30
0.0
 70
    32
  0
VERTEX
  5
4F99
  8
0
 10
86.437212518513775
 20
158.03579384098009
 30
0.0
 70
    32
  0
VERTEX
  5
4F9A
  8
0
 10
86.456389125559426
 20
157.9805671133343
 30
0.0
 70
    32
  0
VERTEX
  5
4F9B
  8
0
 10
86.484295656100699
 20
157.86994970732741
 30
0.0
 70
    32
  0
VERTEX
  5
4F9C
  8
0
 10
86.498254826797279
 20
157.75919171300831
 30
0.0
 70
    32
  0
VERTEX
  5
4F9D
  8
0
 10
86.5
 20
157.70378927785319
 30
0.0
 70
    32
  0
SEQEND
  5
4F9E
  8
0
  0
LINE
  5
545C
  8
1
 10
157.90175630580779
 20
301.74200851245217
 30
0.0
 11
220.90175630580779
 21
301.74200851245217
 31
0.0
  0
LINE
  5
545D
  8
1
 10
157.90175630580779
 20
174.7420085124522
 30
0.0
 11
220.90175630580779
 21
174.7420085124522
 31
0.0
  0
LINE
  5
5460
  8
0
 10
164.5517563058078
 20
273.74200851245217
 30
0.0
 11
164.5517563058078
 21
202.7420085124522
 31
0.0
  0
LINE
  5
5461
  8
0
 10
214.8282563058078
 20
307.74200851245229
 30
0.0
 11
209.36310448704509
 21
307.74200851245229
 31
0.0
  0
LINE
  5
5462
  8
0
 10
209.36310448704509
 20
295.74200851245229
 30
0.0
 11
214.8282563058078
 21
295.74200851245229
 31
0.0
  0
LINE
  5
5463
  8
0
 10
215.90175630580779
 20
306.66850851245232
 30
0.0
 11
214.8282563058078
 21
307.74200851245229
 31
0.0
  0
LINE
  5
5464
  8
0
 10
214.8282563058078
 20
295.74200851245229
 30
0.0
 11
215.90175630580779
 21
296.8155085124522
 31
0.0
  0
LINE
  5
546D
  8
0
 10
162.90175630580779
 20
291.74200851245217
 30
0.0
 11
162.90175630580779
 21
273.74200851245217
 31
0.0
  0
LINE
  5
546E
  8
0
 10
162.90175630580779
 20
314.97090259347948
 30
0.0
 11
162.90175630580779
 21
311.74200851245217
 31
0.0
  0
LINE
  5
546F
  8
0
 10
162.90175630580779
 20
164.7420085124522
 30
0.0
 11
162.90175630580779
 21
161.51311443142501
 31
0.0
  0
LINE
  5
5470
  8
0
 10
162.90175630580779
 20
202.7420085124522
 30
0.0
 11
162.90175630580779
 21
184.7420085124522
 31
0.0
  0
LINE
  5
5471
  8
0
 10
195.90175630580779
 20
320.24200851245229
 30
0.0
 11
195.90175630580779
 21
273.74200851245217
 31
0.0
  0
LINE
  5
5472
  8
0
 10
162.90175630580779
 20
273.74200851245217
 30
0.0
 11
195.90175630580779
 21
273.74200851245217
 31
0.0
  0
LINE
  5
5473
  8
0
 10
194.25175630580779
 20
273.74200851245217
 30
0.0
 11
194.25175630580779
 21
202.7420085124522
 31
0.0
  0
LINE
  5
5474
  8
0
 10
195.90175630580779
 20
202.7420085124522
 30
0.0
 11
162.90175630580779
 21
202.7420085124522
 31
0.0
  0
LINE
  5
5475
  8
0
 10
195.90175630580779
 20
202.7420085124522
 30
0.0
 11
195.90175630580779
 21
156.2420085124522
 31
0.0
  0
LINE
  5
5476
  8
0
 10
195.90175630580779
 20
320.24200851245229
 30
0.0
 11
184.90175630580779
 21
320.05000279824179
 31
0.0
  0
LINE
  5
5477
  8
0
 10
184.90175630580779
 20
156.43401422666261
 30
0.0
 11
195.90175630580779
 21
156.2420085124522
 31
0.0
  0
LINE
  5
5478
  8
0
 10
184.90175630580779
 20
320.05000279824179
 30
0.0
 11
162.90175630580779
 21
314.97090259347948
 31
0.0
  0
LINE
  5
5479
  8
0
 10
162.90175630580779
 20
161.51311443142501
 30
0.0
 11
184.90175630580779
 21
156.43401422666261
 31
0.0
  0
LINE
  5
547A
  8
0
 10
214.8282563058078
 20
295.74200851245229
 30
0.0
 11
214.8282563058078
 21
307.74200851245229
 31
0.0
  0
LINE
  5
547B
  8
0
 10
215.90175630580779
 20
296.8155085124522
 30
0.0
 11
215.90175630580779
 21
306.66850851245232
 31
0.0
  0
LINE
  5
547E
  8
0
 10
209.33083428428631
 20
292.24200851245217
 30
0.0
 11
209.33083428428631
 21
311.24200851245217
 31
0.0
  0
LINE
  5
547F
  8
0
 10
199.33083428428631
 20
292.24200851245217
 30
0.0
 11
199.33083428428631
 21
311.24200851245217
 31
0.0
  0
POLYLINE
  5
5480
  8
0
 66
     1
 10
0.0
 20
0.0
 30
0.0
 70
     8
  0
VERTEX
  5
5481
  8
0
 10
208.48232850825451
 20
301.74200851245217
 30
0.0
 70
    32
  0
VERTEX
  5
5482
  8
0
 10
208.52828029361049
 20
301.60260772970622
 30
0.0
 70
    32
  0
VERTEX
  5
5483
  8
0
 10
208.6161987142676
 20
301.32646602184502
 30
0.0
 70
    32
  0
VERTEX
  5
5484
  8
0
 10
208.69887565656811
 20
301.05358638007618
 30
0.0
 70
    32
  0
VERTEX
  5
5485
  8
0
 10
208.73827253842251
 20
300.91826457516328
 30
0.0
 70
    32
  0
VERTEX
  5
5486
  8
0
 10
208.77638619705249
 20
300.78363259706049
 30
0.0
 70
    32
  0
VERTEX
  5
5487
  8
0
 10
208.848792561262
 20
300.51627301289341
 30
0.0
 70
    32
  0
VERTEX
  5
5488
  8
0
 10
208.9161442327046
 20
300.25117911850811
 30
0.0
 70
    32
  0
VERTEX
  5
5489
  8
0
 10
208.97847797948779
 20
299.98802415658048
 30
0.0
 70
    32
  0
VERTEX
  5
548A
  8
0
 10
209.03581779712721
 20
299.72648170688979
 30
0.0
 70
    32
  0
VERTEX
  5
548B
  8
0
 10
209.08817476495869
 20
299.46622424255759
 30
0.0
 70
    32
  0
VERTEX
  5
548C
  8
0
 10
209.11248455513081
 20
299.33647436028758
 30
0.0
 70
    32
  0
VERTEX
  5
548D
  8
0
 10
209.13554681242729
 20
299.20692164281991
 30
0.0
 70
    32
  0
VERTEX
  5
548E
  8
0
 10
209.17791839026299
 20
298.94823964695928
 30
0.0
 70
    32
  0
VERTEX
  5
548F
  8
0
 10
209.21526004016869
 20
298.68983823270747
 30
0.0
 70
    32
  0
VERTEX
  5
5490
  8
0
 10
209.2475278550846
 20
298.4313699007746
 30
0.0
 70
    32
  0
VERTEX
  5
5491
  8
0
 10
209.27466282033549
 20
298.17247784513393
 30
0.0
 70
    32
  0
VERTEX
  5
5492
  8
0
 10
209.2965900239445
 20
297.91279398620429
 30
0.0
 70
    32
  0
VERTEX
  5
5493
  8
0
 10
209.30557273146431
 20
297.78253650270369
 30
0.0
 70
    32
  0
VERTEX
  5
5494
  8
0
 10
209.3132177220707
 20
297.65193684106998
 30
0.0
 70
    32
  0
VERTEX
  5
5495
  8
0
 10
209.32443624280691
 20
297.38950920124063
 30
0.0
 70
    32
  0
VERTEX
  5
5496
  8
0
 10
209.33011670839619
 20
297.12509558407282
 30
0.0
 70
    32
  0
VERTEX
  5
5497
  8
0
 10
209.33083428428631
 20
296.99200851245217
 30
0.0
 70
    32
  0
SEQEND
  5
5498
  8
0
  0
POLYLINE
  5
5499
  8
0
 66
     1
 10
0.0
 20
0.0
 30
0.0
 70
     8
  0
VERTEX
  5
549A
  8
0
 10
209.33083428428631
 20
296.99200851245217
 30
0.0
 70
    32
  0
VERTEX
  5
549B
  8
0
 10
209.33011670839619
 20
296.85892144083158
 30
0.0
 70
    32
  0
VERTEX
  5
549C
  8
0
 10
209.32443624280691
 20
296.59450782366389
 30
0.0
 70
    32
  0
VERTEX
  5
549D
  8
0
 10
209.3132177220707
 20
296.33208018383442
 30
0.0
 70
    32
  0
VERTEX
  5
549E
  8
0
 10
209.30557273146431
 20
296.20148052220082
 30
0.0
 70
    32
  0
VERTEX
  5
549F
  8
0
 10
209.2965900239445
 20
296.07122303870023
 30
0.0
 70
    32
  0
VERTEX
  5
54A0
  8
0
 10
209.27466282033549
 20
295.81153917977059
 30
0.0
 70
    32
  0
VERTEX
  5
54A1
  8
0
 10
209.2475278550846
 20
295.55264712412992
 30
0.0
 70
    32
  0
VERTEX
  5
54A2
  8
0
 10
209.21526004016869
 20
295.29417879219699
 30
0.0
 70
    32
  0
VERTEX
  5
54A3
  8
0
 10
209.17791839026299
 20
295.03577737794512
 30
0.0
 70
    32
  0
VERTEX
  5
54A4
  8
0
 10
209.13554681242729
 20
294.77709538208461
 30
0.0
 70
    32
  0
VERTEX
  5
54A5
  8
0
 10
209.11248455513081
 20
294.64754266461682
 30
0.0
 70
    32
  0
VERTEX
  5
54A6
  8
0
 10
209.08817476495869
 20
294.51779278234687
 30
0.0
 70
    32
  0
VERTEX
  5
54A7
  8
0
 10
209.03581779712721
 20
294.25753531801467
 30
0.0
 70
    32
  0
VERTEX
  5
54A8
  8
0
 10
208.97847797948779
 20
293.99599286832398
 30
0.0
 70
    32
  0
VERTEX
  5
54A9
  8
0
 10
208.9161442327046
 20
293.73283790639641
 30
0.0
 70
    32
  0
VERTEX
  5
54AA
  8
0
 10
208.848792561262
 20
293.46774401201111
 30
0.0
 70
    32
  0
VERTEX
  5
54AB
  8
0
 10
208.77638619705249
 20
293.20038442784391
 30
0.0
 70
    32
  0
VERTEX
  5
54AC
  8
0
 10
208.73827253842251
 20
293.06575244974113
 30
0.0
 70
    32
  0
VERTEX
  5
54AD
  8
0
 10
208.69887565656811
 20
292.93043064482828
 30
0.0
 70
    32
  0
VERTEX
  5
54AE
  8
0
 10
208.6161987142676
 20
292.65755100305938
 30
0.0
 70
    32
  0
VERTEX
  5
54AF
  8
0
 10
208.52828029361049
 20
292.3814092951983
 30
0.0
 70
    32
  0
VERTEX
  5
54B0
  8
0
 10
208.48232850825451
 20
292.24200851245217
 30
0.0
 70
    32
  0
SEQEND
  5
54B1
  8
0
  0
POLYLINE
  5
54B2
  8
0
 66
     1
 10
0.0
 20
0.0
 30
0.0
 70
     8
  0
VERTEX
  5
54B3
  8
0
 10
200.1793400603182
 20
292.24200851245217
 30
0.0
 70
    32
  0
VERTEX
  5
54B4
  8
0
 10
200.13338827496219
 20
292.3814092951983
 30
0.0
 70
    32
  0
VERTEX
  5
54B5
  8
0
 10
200.045469854305
 20
292.65755100305938
 30
0.0
 70
    32
  0
VERTEX
  5
54B6
  8
0
 10
199.96279291200449
 20
292.93043064482828
 30
0.0
 70
    32
  0
VERTEX
  5
54B7
  8
0
 10
199.92339603015009
 20
293.06575244974113
 30
0.0
 70
    32
  0
VERTEX
  5
54B8
  8
0
 10
199.88528237152011
 20
293.20038442784391
 30
0.0
 70
    32
  0
VERTEX
  5
54B9
  8
0
 10
199.81287600731059
 20
293.46774401201111
 30
0.0
 70
    32
  0
VERTEX
  5
54BA
  8
0
 10
199.745524335868
 20
293.73283790639641
 30
0.0
 70
    32
  0
VERTEX
  5
54BB
  8
0
 10
199.68319058908469
 20
293.99599286832392
 30
0.0
 70
    32
  0
VERTEX
  5
54BC
  8
0
 10
199.6258507714453
 20
294.25753531801467
 30
0.0
 70
    32
  0
VERTEX
  5
54BD
  8
0
 10
199.5734938036139
 20
294.51779278234687
 30
0.0
 70
    32
  0
VERTEX
  5
54BE
  8
0
 10
199.54918401344179
 20
294.64754266461682
 30
0.0
 70
    32
  0
VERTEX
  5
54BF
  8
0
 10
199.52612175614539
 20
294.77709538208461
 30
0.0
 70
    32
  0
VERTEX
  5
54C0
  8
0
 10
199.48375017830961
 20
295.03577737794512
 30
0.0
 70
    32
  0
VERTEX
  5
54C1
  8
0
 10
199.44640852840391
 20
295.29417879219699
 30
0.0
 70
    32
  0
VERTEX
  5
54C2
  8
0
 10
199.414140713488
 20
295.55264712412992
 30
0.0
 70
    32
  0
VERTEX
  5
54C3
  8
0
 10
199.38700574823719
 20
295.81153917977059
 30
0.0
 70
    32
  0
VERTEX
  5
54C4
  8
0
 10
199.36507854462809
 20
296.07122303870023
 30
0.0
 70
    32
  0
VERTEX
  5
54C5
  8
0
 10
199.35609583710831
 20
296.20148052220082
 30
0.0
 70
    32
  0
VERTEX
  5
54C6
  8
0
 10
199.34845084650189
 20
296.33208018383442
 30
0.0
 70
    32
  0
VERTEX
  5
54C7
  8
0
 10
199.33723232576571
 20
296.59450782366389
 30
0.0
 70
    32
  0
VERTEX
  5
54C8
  8
0
 10
199.3315518601764
 20
296.85892144083158
 30
0.0
 70
    32
  0
VERTEX
  5
54C9
  8
0
 10
199.33083428428631
 20
296.99200851245217
 30
0.0
 70
    32
  0
SEQEND
  5
54CA
  8
0
  0
POLYLINE
  5
54CB
  8
0
 66
     1
 10
0.0
 20
0.0
 30
0.0
 70
     8
  0
VERTEX
  5
54CC
  8
0
 10
199.33083428428631
 20
296.99200851245217
 30
0.0
 70
    32
  0
VERTEX
  5
54CD
  8
0
 10
199.3315518601764
 20
297.12509558407282
 30
0.0
 70
    32
  0
VERTEX
  5
54CE
  8
0
 10
199.33723232576571
 20
297.38950920124063
 30
0.0
 70
    32
  0
VERTEX
  5
54CF
  8
0
 10
199.34845084650189
 20
297.65193684106998
 30
0.0
 70
    32
  0
VERTEX
  5
54D0
  8
0
 10
199.35609583710831
 20
297.78253650270369
 30
0.0
 70
    32
  0
VERTEX
  5
54D1
  8
0
 10
199.36507854462809
 20
297.91279398620429
 30
0.0
 70
    32
  0
VERTEX
  5
54D2
  8
0
 10
199.3870057482371
 20
298.17247784513393
 30
0.0
 70
    32
  0
VERTEX
  5
54D3
  8
0
 10
199.414140713488
 20
298.4313699007746
 30
0.0
 70
    32
  0
VERTEX
  5
54D4
  8
0
 10
199.44640852840391
 20
298.68983823270747
 30
0.0
 70
    32
  0
VERTEX
  5
54D5
  8
0
 10
199.48375017830961
 20
298.94823964695928
 30
0.0
 70
    32
  0
VERTEX
  5
54D6
  8
0
 10
199.52612175614539
 20
299.20692164281991
 30
0.0
 70
    32
  0
VERTEX
  5
54D7
  8
0
 10
199.54918401344179
 20
299.33647436028758
 30
0.0
 70
    32
  0
VERTEX
  5
54D8
  8
0
 10
199.5734938036139
 20
299.46622424255759
 30
0.0
 70
    32
  0
VERTEX
  5
54D9
  8
0
 10
199.6258507714453
 20
299.72648170688979
 30
0.0
 70
    32
  0
VERTEX
  5
54DA
  8
0
 10
199.68319058908469
 20
299.98802415658048
 30
0.0
 70
    32
  0
VERTEX
  5
54DB
  8
0
 10
199.745524335868
 20
300.25117911850811
 30
0.0
 70
    32
  0
VERTEX
  5
54DC
  8
0
 10
199.81287600731059
 20
300.51627301289341
 30
0.0
 70
    32
  0
VERTEX
  5
54DD
  8
0
 10
199.88528237152011
 20
300.78363259706049
 30
0.0
 70
    32
  0
VERTEX
  5
54DE
  8
0
 10
199.92339603015009
 20
300.91826457516328
 30
0.0
 70
    32
  0
VERTEX
  5
54DF
  8
0
 10
199.96279291200449
 20
301.05358638007618
 30
0.0
 70
    32
  0
VERTEX
  5
54E0
  8
0
 10
200.045469854305
 20
301.32646602184502
 30
0.0
 70
    32
  0
VERTEX
  5
54E1
  8
0
 10
200.13338827496219
 20
301.60260772970622
 30
0.0
 70
    32
  0
VERTEX
  5
54E2
  8
0
 10
200.1793400603182
 20
301.74200851245217
 30
0.0
 70
    32
  0
SEQEND
  5
54E3
  8
0
  0
LINE
  5
54E4
  8
0
 10
199.33083428428631
 20
292.24200851245217
 30
0.0
 11
209.33083428428631
 21
292.24200851245217
 31
0.0
  0
LINE
  5
54E5
  8
0
 10
209.33083428428631
 20
311.24200851245217
 30
0.0
 11
199.33083428428631
 21
311.24200851245217
 31
0.0
  0
POLYLINE
  5
54E6
  8
0
 66
     1
 10
0.0
 20
0.0
 30
0.0
 70
     8
  0
VERTEX
  5
54E7
  8
0
 10
199.33083428428631
 20
306.49200851245217
 30
0.0
 70
    32
  0
VERTEX
  5
54E8
  8
0
 10
199.3315518601764
 20
306.62509558407282
 30
0.0
 70
    32
  0
VERTEX
  5
54E9
  8
0
 10
199.33723232576571
 20
306.88950920124063
 30
0.0
 70
    32
  0
VERTEX
  5
54EA
  8
0
 10
199.34845084650189
 20
307.15193684106998
 30
0.0
 70
    32
  0
VERTEX
  5
54EB
  8
0
 10
199.35609583710831
 20
307.28253650270369
 30
0.0
 70
    32
  0
VERTEX
  5
54EC
  8
0
 10
199.36507854462809
 20
307.41279398620429
 30
0.0
 70
    32
  0
VERTEX
  5
54ED
  8
0
 10
199.38700574823719
 20
307.67247784513381
 30
0.0
 70
    32
  0
VERTEX
  5
54EE
  8
0
 10
199.414140713488
 20
307.9313699007746
 30
0.0
 70
    32
  0
VERTEX
  5
54EF
  8
0
 10
199.44640852840391
 20
308.18983823270747
 30
0.0
 70
    32
  0
VERTEX
  5
54F0
  8
0
 10
199.48375017830961
 20
308.44823964695928
 30
0.0
 70
    32
  0
VERTEX
  5
54F1
  8
0
 10
199.52612175614539
 20
308.70692164281979
 30
0.0
 70
    32
  0
VERTEX
  5
54F2
  8
0
 10
199.54918401344179
 20
308.83647436028758
 30
0.0
 70
    32
  0
VERTEX
  5
54F3
  8
0
 10
199.5734938036139
 20
308.96622424255759
 30
0.0
 70
    32
  0
VERTEX
  5
54F4
  8
0
 10
199.6258507714453
 20
309.22648170688979
 30
0.0
 70
    32
  0
VERTEX
  5
54F5
  8
0
 10
199.68319058908469
 20
309.48802415658048
 30
0.0
 70
    32
  0
VERTEX
  5
54F6
  8
0
 10
199.745524335868
 20
309.75117911850811
 30
0.0
 70
    32
  0
VERTEX
  5
54F7
  8
0
 10
199.81287600731059
 20
310.01627301289341
 30
0.0
 70
    32
  0
VERTEX
  5
54F8
  8
0
 10
199.88528237152011
 20
310.28363259706049
 30
0.0
 70
    32
  0
VERTEX
  5
54F9
  8
0
 10
199.92339603015009
 20
310.41826457516328
 30
0.0
 70
    32
  0
VERTEX
  5
54FA
  8
0
 10
199.96279291200449
 20
310.5535863800763
 30
0.0
 70
    32
  0
VERTEX
  5
54FB
  8
0
 10
200.045469854305
 20
310.82646602184502
 30
0.0
 70
    32
  0
VERTEX
  5
54FC
  8
0
 10
200.13338827496219
 20
311.10260772970622
 30
0.0
 70
    32
  0
VERTEX
  5
54FD
  8
0
 10
200.1793400603182
 20
311.24200851245217
 30
0.0
 70
    32
  0
SEQEND
  5
54FE
  8
0
  0
POLYLINE
  5
54FF
  8
0
 66
     1
 10
0.0
 20
0.0
 30
0.0
 70
     8
  0
VERTEX
  5
5500
  8
0
 10
208.48232850825451
 20
311.24200851245217
 30
0.0
 70
    32
  0
VERTEX
  5
5501
  8
0
 10
208.52828029361049
 20
311.10260772970622
 30
0.0
 70
    32
  0
VERTEX
  5
5502
  8
0
 10
208.6161987142676
 20
310.82646602184502
 30
0.0
 70
    32
  0
VERTEX
  5
5503
  8
0
 10
208.69887565656811
 20
310.55358638007618
 30
0.0
 70
    32
  0
VERTEX
  5
5504
  8
0
 10
208.73827253842251
 20
310.41826457516328
 30
0.0
 70
    32
  0
VERTEX
  5
5505
  8
0
 10
208.77638619705249
 20
310.28363259706049
 30
0.0
 70
    32
  0
VERTEX
  5
5506
  8
0
 10
208.848792561262
 20
310.01627301289341
 30
0.0
 70
    32
  0
VERTEX
  5
5507
  8
0
 10
208.9161442327046
 20
309.75117911850799
 30
0.0
 70
    32
  0
VERTEX
  5
5508
  8
0
 10
208.97847797948779
 20
309.48802415658048
 30
0.0
 70
    32
  0
VERTEX
  5
5509
  8
0
 10
209.03581779712721
 20
309.22648170688979
 30
0.0
 70
    32
  0
VERTEX
  5
550A
  8
0
 10
209.08817476495869
 20
308.96622424255759
 30
0.0
 70
    32
  0
VERTEX
  5
550B
  8
0
 10
209.11248455513081
 20
308.83647436028758
 30
0.0
 70
    32
  0
VERTEX
  5
550C
  8
0
 10
209.13554681242729
 20
308.70692164281979
 30
0.0
 70
    32
  0
VERTEX
  5
550D
  8
0
 10
209.17791839026299
 20
308.44823964695928
 30
0.0
 70
    32
  0
VERTEX
  5
550E
  8
0
 10
209.21526004016869
 20
308.18983823270742
 30
0.0
 70
    32
  0
VERTEX
  5
550F
  8
0
 10
209.2475278550846
 20
307.9313699007746
 30
0.0
 70
    32
  0
VERTEX
  5
5510
  8
0
 10
209.27466282033549
 20
307.67247784513381
 30
0.0
 70
    32
  0
VERTEX
  5
5511
  8
0
 10
209.2965900239445
 20
307.41279398620429
 30
0.0
 70
    32
  0
VERTEX
  5
5512
  8
0
 10
209.30557273146431
 20
307.28253650270369
 30
0.0
 70
    32
  0
VERTEX
  5
5513
  8
0
 10
209.3132177220707
 20
307.15193684106998
 30
0.0
 70
    32
  0
VERTEX
  5
5514
  8
0
 10
209.32443624280691
 20
306.88950920124063
 30
0.0
 70
    32
  0
VERTEX
  5
5515
  8
0
 10
209.33011670839619
 20
306.62509558407282
 30
0.0
 70
    32
  0
VERTEX
  5
5516
  8
0
 10
209.33083428428631
 20
306.49200851245217
 30
0.0
 70
    32
  0
SEQEND
  5
5517
  8
0
  0
POLYLINE
  5
5518
  8
0
 66
     1
 10
0.0
 20
0.0
 30
0.0
 70
     8
  0
VERTEX
  5
5519
  8
0
 10
209.33083428428631
 20
306.49200851245217
 30
0.0
 70
    32
  0
VERTEX
  5
551A
  8
0
 10
209.33011670839619
 20
306.35892144083158
 30
0.0
 70
    32
  0
VERTEX
  5
551B
  8
0
 10
209.32443624280691
 20
306.09450782366389
 30
0.0
 70
    32
  0
VERTEX
  5
551C
  8
0
 10
209.3132177220707
 20
305.83208018383442
 30
0.0
 70
    32
  0
VERTEX
  5
551D
  8
0
 10
209.30557273146431
 20
305.70148052220082
 30
0.0
 70
    32
  0
VERTEX
  5
551E
  8
0
 10
209.2965900239445
 20
305.57122303870023
 30
0.0
 70
    32
  0
VERTEX
  5
551F
  8
0
 10
209.27466282033549
 20
305.3115391797707
 30
0.0
 70
    32
  0
VERTEX
  5
5520
  8
0
 10
209.2475278550846
 20
305.05264712412981
 30
0.0
 70
    32
  0
VERTEX
  5
5521
  8
0
 10
209.21526004016869
 20
304.79417879219699
 30
0.0
 70
    32
  0
VERTEX
  5
5522
  8
0
 10
209.17791839026299
 20
304.53577737794512
 30
0.0
 70
    32
  0
VERTEX
  5
5523
  8
0
 10
209.13554681242729
 20
304.27709538208461
 30
0.0
 70
    32
  0
VERTEX
  5
5524
  8
0
 10
209.11248455513081
 20
304.14754266461682
 30
0.0
 70
    32
  0
VERTEX
  5
5525
  8
0
 10
209.08817476495869
 20
304.01779278234687
 30
0.0
 70
    32
  0
VERTEX
  5
5526
  8
0
 10
209.03581779712721
 20
303.75753531801467
 30
0.0
 70
    32
  0
VERTEX
  5
5527
  8
0
 10
208.97847797948779
 20
303.49599286832398
 30
0.0
 70
    32
  0
VERTEX
  5
5528
  8
0
 10
208.9161442327046
 20
303.2328379063963
 30
0.0
 70
    32
  0
VERTEX
  5
5529
  8
0
 10
208.848792561262
 20
302.967744012011
 30
0.0
 70
    32
  0
VERTEX
  5
552A
  8
0
 10
208.77638619705249
 20
302.70038442784391
 30
0.0
 70
    32
  0
VERTEX
  5
552B
  8
0
 10
208.73827253842251
 20
302.56575244974118
 30
0.0
 70
    32
  0
VERTEX
  5
552C
  8
0
 10
208.69887565656811
 20
302.43043064482828
 30
0.0
 70
    32
  0
VERTEX
  5
552D
  8
0
 10
208.6161987142676
 20
302.15755100305938
 30
0.0
 70
    32
  0
VERTEX
  5
552E
  8
0
 10
208.52828029361049
 20
301.8814092951983
 30
0.0
 70
    32
  0
VERTEX
  5
552F
  8
0
 10
208.48232850825451
 20
301.74200851245217
 30
0.0
 70
    32
  0
SEQEND
  5
5530
  8
0
  0
LINE
  5
5531
  8
0
 10
208.48232850825451
 20
301.74200851245217
 30
0.0
 11
200.1793400603182
 21
301.74200851245217
 31
0.0
  0
POLYLINE
  5
5532
  8
0
 66
     1
 10
0.0
 20
0.0
 30
0.0
 70
     8
  0
VERTEX
  5
5533
  8
0
 10
200.1793400603182
 20
301.74200851245217
 30
0.0
 70
    32
  0
VERTEX
  5
5534
  8
0
 10
200.13338827496219
 20
301.8814092951983
 30
0.0
 70
    32
  0
VERTEX
  5
5535
  8
0
 10
200.045469854305
 20
302.15755100305938
 30
0.0
 70
    32
  0
VERTEX
  5
5536
  8
0
 10
199.96279291200449
 20
302.43043064482828
 30
0.0
 70
    32
  0
VERTEX
  5
5537
  8
0
 10
199.92339603015009
 20
302.56575244974113
 30
0.0
 70
    32
  0
VERTEX
  5
5538
  8
0
 10
199.88528237152011
 20
302.70038442784391
 30
0.0
 70
    32
  0
VERTEX
  5
5539
  8
0
 10
199.81287600731059
 20
302.967744012011
 30
0.0
 70
    32
  0
VERTEX
  5
553A
  8
0
 10
199.745524335868
 20
303.2328379063963
 30
0.0
 70
    32
  0
VERTEX
  5
553B
  8
0
 10
199.68319058908469
 20
303.49599286832398
 30
0.0
 70
    32
  0
VERTEX
  5
553C
  8
0
 10
199.6258507714453
 20
303.75753531801467
 30
0.0
 70
    32
  0
VERTEX
  5
553D
  8
0
 10
199.5734938036139
 20
304.01779278234687
 30
0.0
 70
    32
  0
VERTEX
  5
553E
  8
0
 10
199.54918401344179
 20
304.14754266461682
 30
0.0
 70
    32
  0
VERTEX
  5
553F
  8
0
 10
199.52612175614539
 20
304.27709538208461
 30
0.0
 70
    32
  0
VERTEX
  5
5540
  8
0
 10
199.48375017830961
 20
304.53577737794512
 30
0.0
 70
    32
  0
VERTEX
  5
5541
  8
0
 10
199.44640852840391
 20
304.79417879219699
 30
0.0
 70
    32
  0
VERTEX
  5
5542
  8
0
 10
199.414140713488
 20
305.05264712412981
 30
0.0
 70
    32
  0
VERTEX
  5
5543
  8
0
 10
199.3870057482371
 20
305.31153917977059
 30
0.0
 70
    32
  0
VERTEX
  5
5544
  8
0
 10
199.36507854462809
 20
305.57122303870023
 30
0.0
 70
    32
  0
VERTEX
  5
5545
  8
0
 10
199.35609583710831
 20
305.70148052220082
 30
0.0
 70
    32
  0
VERTEX
  5
5546
  8
0
 10
199.34845084650189
 20
305.83208018383442
 30
0.0
 70
    32
  0
VERTEX
  5
5547
  8
0
 10
199.33723232576571
 20
306.09450782366389
 30
0.0
 70
    32
  0
VERTEX
  5
5548
  8
0
 10
199.3315518601764
 20
306.35892144083158
 30
0.0
 70
    32
  0
VERTEX
  5
5549
  8
0
 10
199.33083428428631
 20
306.49200851245217
 30
0.0
 70
    32
  0
SEQEND
  5
554A
  8
0
  0
POLYLINE
  5
5673
  8
0
 66
     1
 10
0.0
 20
0.0
 30
0.0
 70
     8
  0
VERTEX
  5
5674
  8
0
 10
162.90175630580779
 20
311.74200851245217
 30
0.0
 70
    32
  0
VERTEX
  5
5675
  8
0
 10
162.90238738257011
 20
311.74096720149072
 30
0.0
 70
    32
  0
VERTEX
  5
5676
  8
0
 10
162.90747411472569
 20
311.73257130936452
 30
0.0
 70
    32
  0
VERTEX
  5
5677
  8
0
 10
162.91772933788931
 20
311.71563097768819
 30
0.0
 70
    32
  0
VERTEX
  5
5678
  8
0
 10
162.9248138262935
 20
311.70391764038652
 30
0.0
 70
    32
  0
VERTEX
  5
5679
  8
0
 10
162.93320897284991
 20
311.69002596608971
 30
0.0
 70
    32
  0
VERTEX
  5
567A
  8
0
 10
162.95393777655531
 20
311.65567253597158
 30
0.0
 70
    32
  0
VERTEX
  5
567B
  8
0
 10
162.97990969800429
 20
311.61252248135099
 30
0.0
 70
    32
  0
VERTEX
  5
567C
  8
0
 10
163.01108905084041
 20
311.56056100572027
 30
0.0
 70
    32
  0
VERTEX
  5
567D
  8
0
 10
163.0474123676498
 20
311.49980363468978
 30
0.0
 70
    32
  0
VERTEX
  5
567E
  8
0
 10
163.08878888041031
 20
311.43029557581269
 30
0.0
 70
    32
  0
VERTEX
  5
567F
  8
0
 10
163.1113358692634
 20
311.39228301628799
 30
0.0
 70
    32
  0
VERTEX
  5
5680
  8
0
 10
163.1350991285118
 20
311.35211442881308
 30
0.0
 70
    32
  0
VERTEX
  5
5681
  8
0
 10
163.18619545993761
 20
311.2653699749884
 30
0.0
 70
    32
  0
VERTEX
  5
5682
  8
0
 10
163.24190349669311
 20
311.1702025501379
 30
0.0
 70
    32
  0
VERTEX
  5
5683
  8
0
 10
163.30202416276819
 20
311.06678063179231
 30
0.0
 70
    32
  0
VERTEX
  5
5684
  8
0
 10
163.3663362262065
 20
310.9552976715571
 30
0.0
 70
    32
  0
VERTEX
  5
5685
  8
0
 10
163.43462089785811
 20
310.8359302811831
 30
0.0
 70
    32
  0
VERTEX
  5
5686
  8
0
 10
163.47018080829471
 20
310.77334827092437
 30
0.0
 70
    32
  0
VERTEX
  5
5687
  8
0
 10
163.5066413914048
 20
310.70887408198519
 30
0.0
 70
    32
  0
VERTEX
  5
5688
  8
0
 10
163.5821237981223
 20
310.57437924053067
 30
0.0
 70
    32
  0
VERTEX
  5
5689
  8
0
 10
163.66077494513911
 20
310.43272161305089
 30
0.0
 70
    32
  0
VERTEX
  5
568A
  8
0
 10
163.70119250260711
 20
310.35929948690449
 30
0.0
 70
    32
  0
VERTEX
  5
568B
  8
0
 10
163.74228481625209
 20
310.28420069784619
 30
0.0
 70
    32
  0
VERTEX
  5
568C
  8
0
 10
163.82632922025579
 20
310.12913727606042
 30
0.0
 70
    32
  0
VERTEX
  5
568D
  8
0
 10
163.91257264734901
 20
309.9678708019307
 30
0.0
 70
    32
  0
VERTEX
  5
568E
  8
0
 10
163.9564116517426
 20
309.88502217342932
 30
0.0
 70
    32
  0
VERTEX
  5
568F
  8
0
 10
164.0006703362973
 20
309.80075835596108
 30
0.0
 70
    32
  0
VERTEX
  5
5690
  8
0
 10
164.0902671755087
 20
309.6281799148037
 30
0.0
 70
    32
  0
VERTEX
  5
5691
  8
0
 10
164.18099864090999
 20
309.45054040208868
 30
0.0
 70
    32
  0
VERTEX
  5
5692
  8
0
 10
164.27249369194601
 20
309.26826835643828
 30
0.0
 70
    32
  0
VERTEX
  5
5693
  8
0
 10
164.36437789211911
 20
309.08181433798131
 30
0.0
 70
    32
  0
VERTEX
  5
5694
  8
0
 10
164.4562766751267
 20
308.89164916014238
 30
0.0
 70
    32
  0
VERTEX
  5
5695
  8
0
 10
164.5021237686974
 20
308.79530913988327
 30
0.0
 70
    32
  0
VERTEX
  5
5696
  8
0
 10
164.5481722858074
 20
308.69750693019438
 30
0.0
 70
    32
  0
VERTEX
  5
5697
  8
0
 10
164.64120699451391
 20
308.49654890918828
 30
0.0
 70
    32
  0
VERTEX
  5
5698
  8
0
 10
164.73520011921869
 20
308.28860078434258
 30
0.0
 70
    32
  0
VERTEX
  5
5699
  8
0
 10
164.8297865481959
 20
308.07385679054249
 30
0.0
 70
    32
  0
VERTEX
  5
569A
  8
0
 10
164.92458656592629
 20
307.85252761293287
 30
0.0
 70
    32
  0
VERTEX
  5
569B
  8
0
 10
165.01920862570799
 20
307.62483757425088
 30
0.0
 70
    32
  0
VERTEX
  5
569C
  8
0
 10
165.06632801899769
 20
307.5086803573098
 30
0.0
 70
    32
  0
VERTEX
  5
569D
  8
0
 10
165.11325216049491
 20
307.39102176351003
 30
0.0
 70
    32
  0
VERTEX
  5
569E
  8
0
 10
165.20631030488701
 20
307.15132336417412
 30
0.0
 70
    32
  0
VERTEX
  5
569F
  8
0
 10
165.2979707174984
 20
306.90599611129511
 30
0.0
 70
    32
  0
VERTEX
  5
56A0
  8
0
 10
165.38781584902461
 20
306.65530955414158
 30
0.0
 70
    32
  0
VERTEX
  5
56A1
  8
0
 10
165.4754259539892
 20
306.39954832097612
 30
0.0
 70
    32
  0
VERTEX
  5
56A2
  8
0
 10
165.5603826620769
 20
306.13901025743348
 30
0.0
 70
    32
  0
VERTEX
  5
56A3
  8
0
 10
165.60173653922831
 20
306.00704609235498
 30
0.0
 70
    32
  0
VERTEX
  5
56A4
  8
0
 10
165.64227269283151
 20
305.87400431300227
 30
0.0
 70
    32
  0
VERTEX
  5
56A5
  8
0
 10
165.72069172633289
 20
305.60484788625013
 30
0.0
 70
    32
  0
VERTEX
  5
56A6
  8
0
 10
165.7952683757089
 20
305.33178758530983
 30
0.0
 70
    32
  0
VERTEX
  5
56A7
  8
0
 10
165.86563505880849
 20
305.05510048423128
 30
0.0
 70
    32
  0
VERTEX
  5
56A8
  8
0
 10
165.9314201407359
 20
304.7751515028242
 30
0.0
 70
    32
  0
VERTEX
  5
56A9
  8
0
 10
165.9922730931286
 20
304.49232486355191
 30
0.0
 70
    32
  0
VERTEX
  5
56AA
  8
0
 10
166.02074757324951
 20
304.34995688249359
 30
0.0
 70
    32
  0
VERTEX
  5
56AB
  8
0
 10
166.04786984675161
 20
304.20702039099677
 30
0.0
 70
    32
  0
VERTEX
  5
56AC
  8
0
 10
166.0979178940126
 20
303.91964863128641
 30
0.0
 70
    32
  0
VERTEX
  5
56AD
  8
0
 10
166.1421608841666
 20
303.63062460515238
 30
0.0
 70
    32
  0
VERTEX
  5
56AE
  8
0
 10
166.180382037285
 20
303.3403631503088
 30
0.0
 70
    32
  0
VERTEX
  5
56AF
  8
0
 10
166.21240465534541
 20
303.04929461715727
 30
0.0
 70
    32
  0
VERTEX
  5
56B0
  8
0
 10
166.23809483665741
 20
302.75787428822832
 30
0.0
 70
    32
  0
VERTEX
  5
56B1
  8
0
 10
166.24853625862789
 20
302.61217953560401
 30
0.0
 70
    32
  0
VERTEX
  5
56B2
  8
0
 10
166.2573659940125
 20
302.46657505102428
 30
0.0
 70
    32
  0
VERTEX
  5
56B3
  8
0
 10
166.27018203243529
 20
302.17587819000289
 30
0.0
 70
    32
  0
VERTEX
  5
56B4
  8
0
 10
166.2765588041452
 20
301.88626334824261
 30
0.0
 70
    32
  0
VERTEX
  5
56B5
  8
0
 10
166.277351557401
 20
301.74200851245217
 30
0.0
 70
    32
  0
VERTEX
  5
56B6
  8
0
 10
166.2765588041452
 20
301.59775367666191
 30
0.0
 70
    32
  0
VERTEX
  5
56B7
  8
0
 10
166.27018203243529
 20
301.30813883490163
 30
0.0
 70
    32
  0
VERTEX
  5
56B8
  8
0
 10
166.2573659940125
 20
301.01744197388018
 30
0.0
 70
    32
  0
VERTEX
  5
56B9
  8
0
 10
166.24853625862789
 20
300.8718374893005
 30
0.0
 70
    32
  0
VERTEX
  5
56BA
  8
0
 10
166.23809483665741
 20
300.72614273667608
 30
0.0
 70
    32
  0
VERTEX
  5
56BB
  8
0
 10
166.21240465534541
 20
300.43472240774707
 30
0.0
 70
    32
  0
VERTEX
  5
56BC
  8
0
 10
166.180382037285
 20
300.1436538745956
 30
0.0
 70
    32
  0
VERTEX
  5
56BD
  8
0
 10
166.1421608841666
 20
299.85339241975203
 30
0.0
 70
    32
  0
VERTEX
  5
56BE
  8
0
 10
166.0979178940126
 20
299.56436839361811
 30
0.0
 70
    32
  0
VERTEX
  5
56BF
  8
0
 10
166.04786984675161
 20
299.27699663390769
 30
0.0
 70
    32
  0
VERTEX
  5
56C0
  8
0
 10
166.02074757324951
 20
299.13406014241087
 30
0.0
 70
    32
  0
VERTEX
  5
56C1
  8
0
 10
165.9922730931286
 20
298.99169216135249
 30
0.0
 70
    32
  0
VERTEX
  5
56C2
  8
0
 10
165.9314201407359
 20
298.7088655220802
 30
0.0
 70
    32
  0
VERTEX
  5
56C3
  8
0
 10
165.86563505880849
 20
298.42891654067319
 30
0.0
 70
    32
  0
VERTEX
  5
56C4
  8
0
 10
165.7952683757089
 20
298.15222943959458
 30
0.0
 70
    32
  0
VERTEX
  5
56C5
  8
0
 10
165.72069172633289
 20
297.87916913865428
 30
0.0
 70
    32
  0
VERTEX
  5
56C6
  8
0
 10
165.64227269283151
 20
297.61001271190207
 30
0.0
 70
    32
  0
VERTEX
  5
56C7
  8
0
 10
165.60173653922831
 20
297.47697093254942
 30
0.0
 70
    32
  0
VERTEX
  5
56C8
  8
0
 10
165.5603826620769
 20
297.34500676747092
 30
0.0
 70
    32
  0
VERTEX
  5
56C9
  8
0
 10
165.4754259539892
 20
297.08446870392828
 30
0.0
 70
    32
  0
VERTEX
  5
56CA
  8
0
 10
165.38781584902461
 20
296.82870747076288
 30
0.0
 70
    32
  0
VERTEX
  5
56CB
  8
0
 10
165.2979707174984
 20
296.57802091360929
 30
0.0
 70
    32
  0
VERTEX
  5
56CC
  8
0
 10
165.20631030488701
 20
296.3326936607304
 30
0.0
 70
    32
  0
VERTEX
  5
56CD
  8
0
 10
165.11325216049491
 20
296.09299526139449
 30
0.0
 70
    32
  0
VERTEX
  5
56CE
  8
0
 10
165.06632801899769
 20
295.9753366675946
 30
0.0
 70
    32
  0
VERTEX
  5
56CF
  8
0
 10
165.01920862570799
 20
295.85917945065353
 30
0.0
 70
    32
  0
VERTEX
  5
56D0
  8
0
 10
164.92458656592629
 20
295.63148941197147
 30
0.0
 70
    32
  0
VERTEX
  5
56D1
  8
0
 10
164.8297865481959
 20
295.41016023436191
 30
0.0
 70
    32
  0
VERTEX
  5
56D2
  8
0
 10
164.73520011921869
 20
295.19541624056188
 30
0.0
 70
    32
  0
VERTEX
  5
56D3
  8
0
 10
164.64120699451391
 20
294.98746811571618
 30
0.0
 70
    32
  0
VERTEX
  5
56D4
  8
0
 10
164.5481722858074
 20
294.78651009471008
 30
0.0
 70
    32
  0
VERTEX
  5
56D5
  8
0
 10
164.5021237686974
 20
294.68870788502119
 30
0.0
 70
    32
  0
VERTEX
  5
56D6
  8
0
 10
164.4562766751267
 20
294.59236786476208
 30
0.0
 70
    32
  0
VERTEX
  5
56D7
  8
0
 10
164.36437789211911
 20
294.4022026869232
 30
0.0
 70
    32
  0
VERTEX
  5
56D8
  8
0
 10
164.27249369194601
 20
294.21574866846618
 30
0.0
 70
    32
  0
VERTEX
  5
56D9
  8
0
 10
164.18099864090999
 20
294.03347662281578
 30
0.0
 70
    32
  0
VERTEX
  5
56DA
  8
0
 10
164.0902671755087
 20
293.85583711010082
 30
0.0
 70
    32
  0
VERTEX
  5
56DB
  8
0
 10
164.0006703362973
 20
293.68325866894338
 30
0.0
 70
    32
  0
VERTEX
  5
56DC
  8
0
 10
163.9564116517426
 20
293.59899485147508
 30
0.0
 70
    32
  0
VERTEX
  5
56DD
  8
0
 10
163.91257264734901
 20
293.5161462229737
 30
0.0
 70
    32
  0
VERTEX
  5
56DE
  8
0
 10
163.82632922025579
 20
293.3548797488441
 30
0.0
 70
    32
  0
VERTEX
  5
56DF
  8
0
 10
163.74228481625221
 20
293.19981632705827
 30
0.0
 70
    32
  0
VERTEX
  5
56E0
  8
0
 10
163.70119250260711
 20
293.12471753799991
 30
0.0
 70
    32
  0
VERTEX
  5
56E1
  8
0
 10
163.66077494513911
 20
293.05129541185352
 30
0.0
 70
    32
  0
VERTEX
  5
56E2
  8
0
 10
163.5821237981223
 20
292.90963778437367
 30
0.0
 70
    32
  0
VERTEX
  5
56E3
  8
0
 10
163.5066413914048
 20
292.77514294291927
 30
0.0
 70
    32
  0
VERTEX
  5
56E4
  8
0
 10
163.47018080829471
 20
292.71066875398009
 30
0.0
 70
    32
  0
VERTEX
  5
56E5
  8
0
 10
163.43462089785811
 20
292.64808674372142
 30
0.0
 70
    32
  0
VERTEX
  5
56E6
  8
0
 10
163.3663362262065
 20
292.52871935334741
 30
0.0
 70
    32
  0
VERTEX
  5
56E7
  8
0
 10
163.30202416276819
 20
292.4172363931122
 30
0.0
 70
    32
  0
VERTEX
  5
56E8
  8
0
 10
163.24190349669311
 20
292.31381447476662
 30
0.0
 70
    32
  0
VERTEX
  5
56E9
  8
0
 10
163.18619545993761
 20
292.21864704991611
 30
0.0
 70
    32
  0
VERTEX
  5
56EA
  8
0
 10
163.1350991285118
 20
292.13190259609138
 30
0.0
 70
    32
  0
VERTEX
  5
56EB
  8
0
 10
163.1113358692634
 20
292.09173400861653
 30
0.0
 70
    32
  0
VERTEX
  5
56EC
  8
0
 10
163.08878888041031
 20
292.05372144909182
 30
0.0
 70
    32
  0
VERTEX
  5
56ED
  8
0
 10
163.0474123676498
 20
291.98421339021468
 30
0.0
 70
    32
  0
VERTEX
  5
56EE
  8
0
 10
163.01108905084041
 20
291.92345601918407
 30
0.0
 70
    32
  0
VERTEX
  5
56EF
  8
0
 10
162.97990969800429
 20
291.87149454355352
 30
0.0
 70
    32
  0
VERTEX
  5
56F0
  8
0
 10
162.95393777655531
 20
291.82834448893288
 30
0.0
 70
    32
  0
VERTEX
  5
56F1
  8
0
 10
162.93320897284991
 20
291.79399105881481
 30
0.0
 70
    32
  0
VERTEX
  5
56F2
  8
0
 10
162.9248138262935
 20
291.780099384518
 30
0.0
 70
    32
  0
VERTEX
  5
56F3
  8
0
 10
162.9177293378894
 20
291.76838604721621
 30
0.0
 70
    32
  0
VERTEX
  5
56F4
  8
0
 10
162.90747411472569
 20
291.75144571554
 30
0.0
 70
    32
  0
VERTEX
  5
56F5
  8
0
 10
162.90238738257011
 20
291.7430498234138
 30
0.0
 70
    32
  0
VERTEX
  5
56F6
  8
0
 10
162.90175630580779
 20
291.74200851245217
 30
0.0
 70
    32
  0
SEQEND
  5
56F7
  8
0
  0
LINE
  5
56F8
  8
0
 10
165.90175630580779
 20
298.57841220789209
 30
0.0
 11
165.90175630580779
 21
304.90560481701232
 31
0.0
  0
LINE
  5
5712
  8
0
 10
179.40175630580779
 20
318.78022774705119
 30
0.0
 11
179.40175630580779
 21
157.70378927785319
 31
0.0
  0
POLYLINE
  5
5713
  8
0
 66
     1
 10
0.0
 20
0.0
 30
0.0
 70
     8
  0
VERTEX
  5
5714
  8
0
 10
162.90175630580779
 20
184.7420085124522
 30
0.0
 70
    32
  0
VERTEX
  5
5715
  8
0
 10
162.90238738257011
 20
184.74096720149069
 30
0.0
 70
    32
  0
VERTEX
  5
5716
  8
0
 10
162.90747411472569
 20
184.73257130936449
 30
0.0
 70
    32
  0
VERTEX
  5
5717
  8
0
 10
162.91772933788931
 20
184.71563097768819
 30
0.0
 70
    32
  0
VERTEX
  5
5718
  8
0
 10
162.9248138262935
 20
184.70391764038649
 30
0.0
 70
    32
  0
VERTEX
  5
5719
  8
0
 10
162.93320897284991
 20
184.69002596608959
 30
0.0
 70
    32
  0
VERTEX
  5
571A
  8
0
 10
162.95393777655531
 20
184.6556725359716
 30
0.0
 70
    32
  0
VERTEX
  5
571B
  8
0
 10
162.97990969800429
 20
184.61252248135099
 30
0.0
 70
    32
  0
VERTEX
  5
571C
  8
0
 10
163.01108905084041
 20
184.5605610057203
 30
0.0
 70
    32
  0
VERTEX
  5
571D
  8
0
 10
163.0474123676498
 20
184.49980363468981
 30
0.0
 70
    32
  0
VERTEX
  5
571E
  8
0
 10
163.08878888041031
 20
184.43029557581269
 30
0.0
 70
    32
  0
VERTEX
  5
571F
  8
0
 10
163.1113358692634
 20
184.39228301628799
 30
0.0
 70
    32
  0
VERTEX
  5
5720
  8
0
 10
163.1350991285118
 20
184.352114428813
 30
0.0
 70
    32
  0
VERTEX
  5
5721
  8
0
 10
163.18619545993761
 20
184.26536997498829
 30
0.0
 70
    32
  0
VERTEX
  5
5722
  8
0
 10
163.24190349669311
 20
184.1702025501379
 30
0.0
 70
    32
  0
VERTEX
  5
5723
  8
0
 10
163.30202416276819
 20
184.06678063179231
 30
0.0
 70
    32
  0
VERTEX
  5
5724
  8
0
 10
163.3663362262065
 20
183.9552976715571
 30
0.0
 70
    32
  0
VERTEX
  5
5725
  8
0
 10
163.43462089785811
 20
183.8359302811831
 30
0.0
 70
    32
  0
VERTEX
  5
5726
  8
0
 10
163.47018080829471
 20
183.7733482709244
 30
0.0
 70
    32
  0
VERTEX
  5
5727
  8
0
 10
163.5066413914048
 20
183.70887408198519
 30
0.0
 70
    32
  0
VERTEX
  5
5728
  8
0
 10
163.5821237981223
 20
183.5743792405307
 30
0.0
 70
    32
  0
VERTEX
  5
5729
  8
0
 10
163.66077494513911
 20
183.432721613051
 30
0.0
 70
    32
  0
VERTEX
  5
572A
  8
0
 10
163.70119250260711
 20
183.35929948690449
 30
0.0
 70
    32
  0
VERTEX
  5
572B
  8
0
 10
163.74228481625209
 20
183.28420069784619
 30
0.0
 70
    32
  0
VERTEX
  5
572C
  8
0
 10
163.82632922025579
 20
183.1291372760605
 30
0.0
 70
    32
  0
VERTEX
  5
572D
  8
0
 10
163.91257264734901
 20
182.9678708019307
 30
0.0
 70
    32
  0
VERTEX
  5
572E
  8
0
 10
163.9564116517426
 20
182.88502217342929
 30
0.0
 70
    32
  0
VERTEX
  5
572F
  8
0
 10
164.0006703362973
 20
182.80075835596099
 30
0.0
 70
    32
  0
VERTEX
  5
5730
  8
0
 10
164.0902671755087
 20
182.6281799148037
 30
0.0
 70
    32
  0
VERTEX
  5
5731
  8
0
 10
164.18099864090999
 20
182.45054040208871
 30
0.0
 70
    32
  0
VERTEX
  5
5732
  8
0
 10
164.27249369194601
 20
182.26826835643831
 30
0.0
 70
    32
  0
VERTEX
  5
5733
  8
0
 10
164.36437789211911
 20
182.0818143379812
 30
0.0
 70
    32
  0
VERTEX
  5
5734
  8
0
 10
164.4562766751267
 20
181.89164916014241
 30
0.0
 70
    32
  0
VERTEX
  5
5735
  8
0
 10
164.5021237686974
 20
181.79530913988319
 30
0.0
 70
    32
  0
VERTEX
  5
5736
  8
0
 10
164.5481722858074
 20
181.69750693019429
 30
0.0
 70
    32
  0
VERTEX
  5
5737
  8
0
 10
164.64120699451391
 20
181.49654890918819
 30
0.0
 70
    32
  0
VERTEX
  5
5738
  8
0
 10
164.73520011921869
 20
181.28860078434261
 30
0.0
 70
    32
  0
VERTEX
  5
5739
  8
0
 10
164.8297865481959
 20
181.07385679054261
 30
0.0
 70
    32
  0
VERTEX
  5
573A
  8
0
 10
164.92458656592629
 20
180.8525276129329
 30
0.0
 70
    32
  0
VERTEX
  5
573B
  8
0
 10
165.01920862570799
 20
180.6248375742509
 30
0.0
 70
    32
  0
VERTEX
  5
573C
  8
0
 10
165.06632801899769
 20
180.5086803573098
 30
0.0
 70
    32
  0
VERTEX
  5
573D
  8
0
 10
165.11325216049491
 20
180.39102176350991
 30
0.0
 70
    32
  0
VERTEX
  5
573E
  8
0
 10
165.20631030488701
 20
180.15132336417409
 30
0.0
 70
    32
  0
VERTEX
  5
573F
  8
0
 10
165.2979707174984
 20
179.90599611129511
 30
0.0
 70
    32
  0
VERTEX
  5
5740
  8
0
 10
165.38781584902461
 20
179.65530955414161
 30
0.0
 70
    32
  0
VERTEX
  5
5741
  8
0
 10
165.4754259539892
 20
179.39954832097609
 30
0.0
 70
    32
  0
VERTEX
  5
5742
  8
0
 10
165.5603826620769
 20
179.13901025743351
 30
0.0
 70
    32
  0
VERTEX
  5
5743
  8
0
 10
165.60173653922831
 20
179.00704609235501
 30
0.0
 70
    32
  0
VERTEX
  5
5744
  8
0
 10
165.64227269283151
 20
178.8740043130023
 30
0.0
 70
    32
  0
VERTEX
  5
5745
  8
0
 10
165.72069172633289
 20
178.6048478862501
 30
0.0
 70
    32
  0
VERTEX
  5
5746
  8
0
 10
165.7952683757089
 20
178.3317875853098
 30
0.0
 70
    32
  0
VERTEX
  5
5747
  8
0
 10
165.86563505880849
 20
178.0551004842313
 30
0.0
 70
    32
  0
VERTEX
  5
5748
  8
0
 10
165.9314201407359
 20
177.7751515028242
 30
0.0
 70
    32
  0
VERTEX
  5
5749
  8
0
 10
165.9922730931286
 20
177.49232486355189
 30
0.0
 70
    32
  0
VERTEX
  5
574A
  8
0
 10
166.02074757324951
 20
177.34995688249359
 30
0.0
 70
    32
  0
VERTEX
  5
574B
  8
0
 10
166.04786984675161
 20
177.2070203909968
 30
0.0
 70
    32
  0
VERTEX
  5
574C
  8
0
 10
166.0979178940126
 20
176.91964863128629
 30
0.0
 70
    32
  0
VERTEX
  5
574D
  8
0
 10
166.1421608841666
 20
176.63062460515241
 30
0.0
 70
    32
  0
VERTEX
  5
574E
  8
0
 10
166.180382037285
 20
176.3403631503088
 30
0.0
 70
    32
  0
VERTEX
  5
574F
  8
0
 10
166.21240465534541
 20
176.0492946171573
 30
0.0
 70
    32
  0
VERTEX
  5
5750
  8
0
 10
166.23809483665741
 20
175.75787428822829
 30
0.0
 70
    32
  0
VERTEX
  5
5751
  8
0
 10
166.24853625862789
 20
175.61217953560401
 30
0.0
 70
    32
  0
VERTEX
  5
5752
  8
0
 10
166.2573659940125
 20
175.46657505102419
 30
0.0
 70
    32
  0
VERTEX
  5
5753
  8
0
 10
166.27018203243529
 20
175.17587819000289
 30
0.0
 70
    32
  0
VERTEX
  5
5754
  8
0
 10
166.2765588041452
 20
174.88626334824249
 30
0.0
 70
    32
  0
VERTEX
  5
5755
  8
0
 10
166.277351557401
 20
174.7420085124522
 30
0.0
 70
    32
  0
VERTEX
  5
5756
  8
0
 10
166.2765588041452
 20
174.59775367666191
 30
0.0
 70
    32
  0
VERTEX
  5
5757
  8
0
 10
166.27018203243529
 20
174.30813883490151
 30
0.0
 70
    32
  0
VERTEX
  5
5758
  8
0
 10
166.2573659940125
 20
174.01744197388021
 30
0.0
 70
    32
  0
VERTEX
  5
5759
  8
0
 10
166.24853625862789
 20
173.8718374893005
 30
0.0
 70
    32
  0
VERTEX
  5
575A
  8
0
 10
166.23809483665741
 20
173.72614273667619
 30
0.0
 70
    32
  0
VERTEX
  5
575B
  8
0
 10
166.21240465534541
 20
173.43472240774719
 30
0.0
 70
    32
  0
VERTEX
  5
575C
  8
0
 10
166.180382037285
 20
173.1436538745956
 30
0.0
 70
    32
  0
VERTEX
  5
575D
  8
0
 10
166.1421608841666
 20
172.85339241975211
 30
0.0
 70
    32
  0
VERTEX
  5
575E
  8
0
 10
166.0979178940126
 20
172.56436839361811
 30
0.0
 70
    32
  0
VERTEX
  5
575F
  8
0
 10
166.04786984675161
 20
172.27699663390769
 30
0.0
 70
    32
  0
VERTEX
  5
5760
  8
0
 10
166.02074757324951
 20
172.1340601424109
 30
0.0
 70
    32
  0
VERTEX
  5
5761
  8
0
 10
165.9922730931286
 20
171.99169216135249
 30
0.0
 70
    32
  0
VERTEX
  5
5762
  8
0
 10
165.9314201407359
 20
171.7088655220802
 30
0.0
 70
    32
  0
VERTEX
  5
5763
  8
0
 10
165.86563505880849
 20
171.4289165406731
 30
0.0
 70
    32
  0
VERTEX
  5
5764
  8
0
 10
165.7952683757089
 20
171.15222943959461
 30
0.0
 70
    32
  0
VERTEX
  5
5765
  8
0
 10
165.72069172633289
 20
170.87916913865431
 30
0.0
 70
    32
  0
VERTEX
  5
5766
  8
0
 10
165.64227269283151
 20
170.61001271190219
 30
0.0
 70
    32
  0
VERTEX
  5
5767
  8
0
 10
165.60173653922831
 20
170.47697093254939
 30
0.0
 70
    32
  0
VERTEX
  5
5768
  8
0
 10
165.5603826620769
 20
170.34500676747089
 30
0.0
 70
    32
  0
VERTEX
  5
5769
  8
0
 10
165.4754259539892
 20
170.08446870392831
 30
0.0
 70
    32
  0
VERTEX
  5
576A
  8
0
 10
165.38781584902461
 20
169.82870747076291
 30
0.0
 70
    32
  0
VERTEX
  5
576B
  8
0
 10
165.2979707174984
 20
169.57802091360929
 30
0.0
 70
    32
  0
VERTEX
  5
576C
  8
0
 10
165.20631030488701
 20
169.33269366073031
 30
0.0
 70
    32
  0
VERTEX
  5
576D
  8
0
 10
165.11325216049491
 20
169.09299526139449
 30
0.0
 70
    32
  0
VERTEX
  5
576E
  8
0
 10
165.06632801899769
 20
168.9753366675946
 30
0.0
 70
    32
  0
VERTEX
  5
576F
  8
0
 10
165.01920862570799
 20
168.8591794506535
 30
0.0
 70
    32
  0
VERTEX
  5
5770
  8
0
 10
164.92458656592629
 20
168.63148941197159
 30
0.0
 70
    32
  0
VERTEX
  5
5771
  8
0
 10
164.8297865481959
 20
168.41016023436191
 30
0.0
 70
    32
  0
VERTEX
  5
5772
  8
0
 10
164.73520011921869
 20
168.19541624056191
 30
0.0
 70
    32
  0
VERTEX
  5
5773
  8
0
 10
164.64120699451391
 20
167.98746811571621
 30
0.0
 70
    32
  0
VERTEX
  5
5774
  8
0
 10
164.5481722858074
 20
167.78651009471011
 30
0.0
 70
    32
  0
VERTEX
  5
5775
  8
0
 10
164.5021237686974
 20
167.68870788502119
 30
0.0
 70
    32
  0
VERTEX
  5
5776
  8
0
 10
164.4562766751267
 20
167.592367864762
 30
0.0
 70
    32
  0
VERTEX
  5
5777
  8
0
 10
164.36437789211911
 20
167.4022026869232
 30
0.0
 70
    32
  0
VERTEX
  5
5778
  8
0
 10
164.27249369194601
 20
167.2157486684662
 30
0.0
 70
    32
  0
VERTEX
  5
5779
  8
0
 10
164.18099864090999
 20
167.0334766228157
 30
0.0
 70
    32
  0
VERTEX
  5
577A
  8
0
 10
164.0902671755087
 20
166.85583711010071
 30
0.0
 70
    32
  0
VERTEX
  5
577B
  8
0
 10
164.0006703362973
 20
166.68325866894341
 30
0.0
 70
    32
  0
VERTEX
  5
577C
  8
0
 10
163.9564116517426
 20
166.59899485147511
 30
0.0
 70
    32
  0
VERTEX
  5
577D
  8
0
 10
163.91257264734901
 20
166.51614622297379
 30
0.0
 70
    32
  0
VERTEX
  5
577E
  8
0
 10
163.82632922025579
 20
166.35487974884401
 30
0.0
 70
    32
  0
VERTEX
  5
577F
  8
0
 10
163.74228481625221
 20
166.19981632705819
 30
0.0
 70
    32
  0
VERTEX
  5
5780
  8
0
 10
163.70119250260711
 20
166.12471753799991
 30
0.0
 70
    32
  0
VERTEX
  5
5781
  8
0
 10
163.66077494513911
 20
166.05129541185349
 30
0.0
 70
    32
  0
VERTEX
  5
5782
  8
0
 10
163.5821237981223
 20
165.90963778437381
 30
0.0
 70
    32
  0
VERTEX
  5
5783
  8
0
 10
163.5066413914048
 20
165.7751429429193
 30
0.0
 70
    32
  0
VERTEX
  5
5784
  8
0
 10
163.47018080829471
 20
165.71066875398009
 30
0.0
 70
    32
  0
VERTEX
  5
5785
  8
0
 10
163.43462089785811
 20
165.64808674372131
 30
0.0
 70
    32
  0
VERTEX
  5
5786
  8
0
 10
163.3663362262065
 20
165.5287193533473
 30
0.0
 70
    32
  0
VERTEX
  5
5787
  8
0
 10
163.30202416276819
 20
165.4172363931122
 30
0.0
 70
    32
  0
VERTEX
  5
5788
  8
0
 10
163.24190349669311
 20
165.31381447476659
 30
0.0
 70
    32
  0
VERTEX
  5
5789
  8
0
 10
163.18619545993761
 20
165.21864704991609
 30
0.0
 70
    32
  0
VERTEX
  5
578A
  8
0
 10
163.1350991285118
 20
165.13190259609141
 30
0.0
 70
    32
  0
VERTEX
  5
578B
  8
0
 10
163.1113358692634
 20
165.0917340086165
 30
0.0
 70
    32
  0
VERTEX
  5
578C
  8
0
 10
163.08878888041031
 20
165.05372144909171
 30
0.0
 70
    32
  0
VERTEX
  5
578D
  8
0
 10
163.0474123676498
 20
164.98421339021459
 30
0.0
 70
    32
  0
VERTEX
  5
578E
  8
0
 10
163.01108905084041
 20
164.9234560191841
 30
0.0
 70
    32
  0
VERTEX
  5
578F
  8
0
 10
162.97990969800429
 20
164.8714945435535
 30
0.0
 70
    32
  0
VERTEX
  5
5790
  8
0
 10
162.95393777655531
 20
164.82834448893291
 30
0.0
 70
    32
  0
VERTEX
  5
5791
  8
0
 10
162.93320897284991
 20
164.79399105881481
 30
0.0
 70
    32
  0
VERTEX
  5
5792
  8
0
 10
162.9248138262935
 20
164.78009938451791
 30
0.0
 70
    32
  0
VERTEX
  5
5793
  8
0
 10
162.9177293378894
 20
164.76838604721621
 30
0.0
 70
    32
  0
VERTEX
  5
5794
  8
0
 10
162.90747411472569
 20
164.75144571553989
 30
0.0
 70
    32
  0
VERTEX
  5
5795
  8
0
 10
162.90238738257011
 20
164.7430498234138
 30
0.0
 70
    32
  0
VERTEX
  5
5796
  8
0
 10
162.90175630580779
 20
164.7420085124522
 30
0.0
 70
    32
  0
SEQEND
  5
5797
  8
0
  0
LINE
  5
5798
  8
0
 10
165.90175630580779
 20
171.5784122078922
 30
0.0
 11
165.90175630580779
 21
177.90560481701229
 31
0.0
  0
LINE
  5
57B2
  8
3
 10
215.90175630580779
 20
306.66850851245232
 30
0.0
 11
209.36310448704509
 21
306.66850851245232
 31
0.0
  0
LINE
  5
57B3
  8
3
 10
215.90175630580779
 20
296.8155085124522
 30
0.0
 11
209.36310448704509
 21
296.8155085124522
 31
0.0
  0
LINE
  5
59DD
  8
1
 10
70.0
 20
108.4653699702277
 30
0.0
 11
70.0
 21
45.465369970227762
 31
0.0
  0
LINE
  5
59DE
  8
1
 10
48.5
 20
86.965369970227798
 30
0.0
 11
91.5
 21
86.965369970227798
 31
0.0
  0
LINE
  5
59DF
  8
0
 10
76.0
 20
51.538869970227772
 30
0.0
 11
76.0
 21
57.036291991749252
 31
0.0
  0
LINE
  5
59E0
  8
0
 10
64.0
 20
57.036291991749252
 30
0.0
 11
64.0
 21
51.538869970227772
 31
0.0
  0
LINE
  5
59E1
  8
0
 10
74.926500000000033
 20
50.465369970227762
 30
0.0
 11
76.0
 21
51.538869970227772
 31
0.0
  0
LINE
  5
59E2
  8
0
 10
64.0
 20
51.538869970227772
 30
0.0
 11
65.073499999999967
 21
50.465369970227762
 31
0.0
  0
LINE
  5
59E5
  8
0
 10
59.030344885397199
 20
57.88479776778113
 30
0.0
 11
60.5
 21
57.036291991749252
 31
0.0
  0
LINE
  5
59E6
  8
0
 10
79.5
 20
57.036291991749252
 30
0.0
 11
80.969655114602915
 21
57.88479776778113
 31
0.0
  0
LINE
  5
59E7
  8
0
 10
60.5
 20
67.036291991749252
 30
0.0
 11
59.030344885397199
 21
66.187786215717367
 31
0.0
  0
LINE
  5
59E8
  8
0
 10
80.969655114602915
 20
66.187786215717381
 30
0.0
 11
79.5
 21
67.036291991749252
 31
0.0
  0
LINE
  5
59E9
  8
0
 10
86.5
 20
86.965369970227769
 30
0.0
 11
86.5
 21
70.465369970227755
 31
0.0
  0
LINE
  5
59EA
  8
0
 10
86.5
 20
70.465369970227755
 30
0.0
 11
53.5
 21
70.465369970227755
 31
0.0
  0
LINE
  5
59EB
  8
0
 10
53.5
 20
70.465369970227755
 30
0.0
 11
53.5
 21
86.965369970227769
 31
0.0
  0
LINE
  5
59EC
  8
0
 10
86.5
 20
81.465369970227755
 30
0.0
 11
53.5
 21
81.465369970227755
 31
0.0
  0
LINE
  5
59ED
  8
0
 10
64.0
 20
51.538869970227772
 30
0.0
 11
76.0
 21
51.538869970227772
 31
0.0
  0
LINE
  5
59EE
  8
0
 10
65.073499999999967
 20
50.465369970227762
 30
0.0
 11
74.926500000000033
 21
50.465369970227762
 31
0.0
  0
LINE
  5
59EF
  8
0
 10
60.5
 20
57.036291991749252
 30
0.0
 11
79.5
 21
57.036291991749252
 31
0.0
  0
LINE
  5
59F0
  8
0
 10
60.5
 20
67.036291991749252
 30
0.0
 11
79.5
 21
67.036291991749252
 31
0.0
  0
POLYLINE
  5
59F1
  8
0
 66
     1
 10
0.0
 20
0.0
 30
0.0
 70
     8
  0
VERTEX
  5
59F2
  8
0
 10
80.969655114602915
 20
57.88479776778113
 30
0.0
 70
    32
  0
VERTEX
  5
59F3
  8
0
 10
80.889172035159163
 20
57.838845982425042
 30
0.0
 70
    32
  0
VERTEX
  5
59F4
  8
0
 10
80.729741545791043
 20
57.750927561767902
 30
0.0
 70
    32
  0
VERTEX
  5
59F5
  8
0
 10
80.572194411159558
 20
57.6682506194674
 30
0.0
 70
    32
  0
VERTEX
  5
59F6
  8
0
 10
80.494066330665859
 20
57.628853737613063
 30
0.0
 70
    32
  0
VERTEX
  5
59F7
  8
0
 10
80.416336521866697
 20
57.590740078983011
 30
0.0
 70
    32
  0
VERTEX
  5
59F8
  8
0
 10
80.261976393977406
 20
57.518333714773561
 30
0.0
 70
    32
  0
VERTEX
  5
59F9
  8
0
 10
80.108924362693415
 20
57.450982043330953
 30
0.0
 70
    32
  0
VERTEX
  5
59FA
  8
0
 10
79.956991774585958
 20
57.388648296547679
 30
0.0
 70
    32
  0
VERTEX
  5
59FB
  8
0
 10
79.80599017085251
 20
57.33130847890834
 30
0.0
 70
    32
  0
VERTEX
  5
59FC
  8
0
 10
79.655730453761734
 20
57.278951511076848
 30
0.0
 70
    32
  0
VERTEX
  5
59FD
  8
0
 10
79.580819324305821
 20
57.254641720904793
 30
0.0
 70
    32
  0
VERTEX
  5
59FE
  8
0
 10
79.506022028001553
 20
57.231579463608291
 30
0.0
 70
    32
  0
VERTEX
  5
59FF
  8
0
 10
79.356671908057024
 20
57.189207885772532
 30
0.0
 70
    32
  0
VERTEX
  5
5A00
  8
0
 10
79.207483781979704
 20
57.151866235866848
 30
0.0
 70
    32
  0
VERTEX
  5
5A01
  8
0
 10
79.058257020961264
 20
57.119598420950943
 30
0.0
 70
    32
  0
VERTEX
  5
5A02
  8
0
 10
78.90878562294597
 20
57.092463455700113
 30
0.0
 70
    32
  0
VERTEX
  5
5A03
  8
0
 10
78.758857077088805
 20
57.070536252091031
 30
0.0
 70
    32
  0
VERTEX
  5
5A04
  8
0
 10
78.683652883925774
 20
57.061553544571332
 30
0.0
 70
    32
  0
VERTEX
  5
5A05
  8
0
 10
78.608251134125567
 20
57.053908553964881
 30
0.0
 70
    32
  0
VERTEX
  5
5A06
  8
0
 10
78.456738465627268
 20
57.042690033228681
 30
0.0
 70
    32
  0
VERTEX
  5
5A07
  8
0
 10
78.304079192578001
 20
57.03700956763933
 30
0.0
 70
    32
  0
VERTEX
  5
5A08
  8
0
 10
78.227241335952144
 20
57.036291991749252
 30
0.0
 70
    32
  0
SEQEND
  5
5A09
  8
0
  0
POLYLINE
  5
5A0A
  8
0
 66
     1
 10
0.0
 20
0.0
 30
0.0
 70
     8
  0
VERTEX
  5
5A0B
  8
0
 10
78.227241335952144
 20
57.036291991749252
 30
0.0
 70
    32
  0
VERTEX
  5
5A0C
  8
0
 10
78.150403479326314
 20
57.03700956763933
 30
0.0
 70
    32
  0
VERTEX
  5
5A0D
  8
0
 10
77.997744206277162
 20
57.042690033228702
 30
0.0
 70
    32
  0
VERTEX
  5
5A0E
  8
0
 10
77.846231537778863
 20
57.053908553964881
 30
0.0
 70
    32
  0
VERTEX
  5
5A0F
  8
0
 10
77.770829787978528
 20
57.061553544571339
 30
0.0
 70
    32
  0
VERTEX
  5
5A10
  8
0
 10
77.69562559481551
 20
57.070536252091053
 30
0.0
 70
    32
  0
VERTEX
  5
5A11
  8
0
 10
77.545697048958345
 20
57.092463455700113
 30
0.0
 70
    32
  0
VERTEX
  5
5A12
  8
0
 10
77.396225650943052
 20
57.119598420950943
 30
0.0
 70
    32
  0
VERTEX
  5
5A13
  8
0
 10
77.246998889924726
 20
57.151866235866848
 30
0.0
 70
    32
  0
VERTEX
  5
5A14
  8
0
 10
77.097810763847406
 20
57.189207885772532
 30
0.0
 70
    32
  0
VERTEX
  5
5A15
  8
0
 10
76.948460643902763
 20
57.231579463608298
 30
0.0
 70
    32
  0
VERTEX
  5
5A16
  8
0
 10
76.873663347598495
 20
57.254641720904793
 30
0.0
 70
    32
  0
VERTEX
  5
5A17
  8
0
 10
76.798752218142681
 20
57.278951511076848
 30
0.0
 70
    32
  0
VERTEX
  5
5A18
  8
0
 10
76.648492501051805
 20
57.331308478908348
 30
0.0
 70
    32
  0
VERTEX
  5
5A19
  8
0
 10
76.497490897318357
 20
57.388648296547693
 30
0.0
 70
    32
  0
VERTEX
  5
5A1A
  8
0
 10
76.345558309210901
 20
57.450982043330953
 30
0.0
 70
    32
  0
VERTEX
  5
5A1B
  8
0
 10
76.192506277927009
 20
57.518333714773568
 30
0.0
 70
    32
  0
VERTEX
  5
5A1C
  8
0
 10
76.038146150037733
 20
57.590740078983018
 30
0.0
 70
    32
  0
VERTEX
  5
5A1D
  8
0
 10
75.960416341238556
 20
57.628853737613071
 30
0.0
 70
    32
  0
VERTEX
  5
5A1E
  8
0
 10
75.882288260744872
 20
57.668250619467408
 30
0.0
 70
    32
  0
VERTEX
  5
5A1F
  8
0
 10
75.724741126113258
 20
57.750927561767909
 30
0.0
 70
    32
  0
VERTEX
  5
5A20
  8
0
 10
75.565310636745153
 20
57.838845982425049
 30
0.0
 70
    32
  0
VERTEX
  5
5A21
  8
0
 10
75.484827557301514
 20
57.884797767781137
 30
0.0
 70
    32
  0
SEQEND
  5
5A22
  8
0
  0
POLYLINE
  5
5A23
  8
0
 66
     1
 10
0.0
 20
0.0
 30
0.0
 70
     8
  0
VERTEX
  5
5A24
  8
0
 10
75.484827557301514
 20
66.187786215717367
 30
0.0
 70
    32
  0
VERTEX
  5
5A25
  8
0
 10
75.565310636745153
 20
66.233738001073434
 30
0.0
 70
    32
  0
VERTEX
  5
5A26
  8
0
 10
75.724741126113258
 20
66.321656421730594
 30
0.0
 70
    32
  0
VERTEX
  5
5A27
  8
0
 10
75.882288260744872
 20
66.404333364031089
 30
0.0
 70
    32
  0
VERTEX
  5
5A28
  8
0
 10
75.960416341238556
 20
66.443730245885448
 30
0.0
 70
    32
  0
VERTEX
  5
5A29
  8
0
 10
76.038146150037733
 20
66.481843904515486
 30
0.0
 70
    32
  0
VERTEX
  5
5A2A
  8
0
 10
76.192506277927123
 20
66.554250268724942
 30
0.0
 70
    32
  0
VERTEX
  5
5A2B
  8
0
 10
76.345558309210901
 20
66.621601940167551
 30
0.0
 70
    32
  0
VERTEX
  5
5A2C
  8
0
 10
76.497490897318357
 20
66.683935686950818
 30
0.0
 70
    32
  0
VERTEX
  5
5A2D
  8
0
 10
76.648492501051805
 20
66.741275504590163
 30
0.0
 70
    32
  0
VERTEX
  5
5A2E
  8
0
 10
76.798752218142681
 20
66.793632472421635
 30
0.0
 70
    32
  0
VERTEX
  5
5A2F
  8
0
 10
76.873663347598495
 20
66.817942262593718
 30
0.0
 70
    32
  0
VERTEX
  5
5A30
  8
0
 10
76.948460643902763
 20
66.841004519890205
 30
0.0
 70
    32
  0
VERTEX
  5
5A31
  8
0
 10
77.097810763847406
 20
66.883376097725971
 30
0.0
 70
    32
  0
VERTEX
  5
5A32
  8
0
 10
77.246998889924726
 20
66.920717747631642
 30
0.0
 70
    32
  0
VERTEX
  5
5A33
  8
0
 10
77.396225650943052
 20
66.952985562547568
 30
0.0
 70
    32
  0
VERTEX
  5
5A34
  8
0
 10
77.545697048958345
 20
66.980120527798377
 30
0.0
 70
    32
  0
VERTEX
  5
5A35
  8
0
 10
77.69562559481551
 20
67.002047731407458
 30
0.0
 70
    32
  0
VERTEX
  5
5A36
  8
0
 10
77.770829787978528
 20
67.011030438927179
 30
0.0
 70
    32
  0
VERTEX
  5
5A37
  8
0
 10
77.846231537778863
 20
67.018675429533616
 30
0.0
 70
    32
  0
VERTEX
  5
5A38
  8
0
 10
77.997744206277275
 20
67.029893950269809
 30
0.0
 70
    32
  0
VERTEX
  5
5A39
  8
0
 10
78.150403479326314
 20
67.035574415859173
 30
0.0
 70
    32
  0
VERTEX
  5
5A3A
  8
0
 10
78.227241335952144
 20
67.036291991749252
 30
0.0
 70
    32
  0
SEQEND
  5
5A3B
  8
0
  0
POLYLINE
  5
5A3C
  8
0
 66
     1
 10
0.0
 20
0.0
 30
0.0
 70
     8
  0
VERTEX
  5
5A3D
  8
0
 10
78.227241335952144
 20
67.036291991749252
 30
0.0
 70
    32
  0
VERTEX
  5
5A3E
  8
0
 10
78.304079192578001
 20
67.035574415859173
 30
0.0
 70
    32
  0
VERTEX
  5
5A3F
  8
0
 10
78.456738465627268
 20
67.029893950269809
 30
0.0
 70
    32
  0
VERTEX
  5
5A40
  8
0
 10
78.608251134125567
 20
67.018675429533616
 30
0.0
 70
    32
  0
VERTEX
  5
5A41
  8
0
 10
78.683652883925774
 20
67.011030438927179
 30
0.0
 70
    32
  0
VERTEX
  5
5A42
  8
0
 10
78.758857077088805
 20
67.002047731407458
 30
0.0
 70
    32
  0
VERTEX
  5
5A43
  8
0
 10
78.90878562294597
 20
66.980120527798377
 30
0.0
 70
    32
  0
VERTEX
  5
5A44
  8
0
 10
79.058257020961264
 20
66.952985562547568
 30
0.0
 70
    32
  0
VERTEX
  5
5A45
  8
0
 10
79.207483781979704
 20
66.920717747631642
 30
0.0
 70
    32
  0
VERTEX
  5
5A46
  8
0
 10
79.356671908057024
 20
66.883376097725971
 30
0.0
 70
    32
  0
VERTEX
  5
5A47
  8
0
 10
79.506022028001553
 20
66.841004519890205
 30
0.0
 70
    32
  0
VERTEX
  5
5A48
  8
0
 10
79.580819324305821
 20
66.817942262593718
 30
0.0
 70
    32
  0
VERTEX
  5
5A49
  8
0
 10
79.655730453761734
 20
66.793632472421635
 30
0.0
 70
    32
  0
VERTEX
  5
5A4A
  8
0
 10
79.80599017085251
 20
66.741275504590163
 30
0.0
 70
    32
  0
VERTEX
  5
5A4B
  8
0
 10
79.956991774585958
 20
66.683935686950818
 30
0.0
 70
    32
  0
VERTEX
  5
5A4C
  8
0
 10
80.108924362693415
 20
66.621601940167551
 30
0.0
 70
    32
  0
VERTEX
  5
5A4D
  8
0
 10
80.261976393977406
 20
66.554250268724942
 30
0.0
 70
    32
  0
VERTEX
  5
5A4E
  8
0
 10
80.416336521866697
 20
66.481843904515486
 30
0.0
 70
    32
  0
VERTEX
  5
5A4F
  8
0
 10
80.494066330665859
 20
66.443730245885462
 30
0.0
 70
    32
  0
VERTEX
  5
5A50
  8
0
 10
80.572194411159558
 20
66.404333364031103
 30
0.0
 70
    32
  0
VERTEX
  5
5A51
  8
0
 10
80.729741545791043
 20
66.321656421730609
 30
0.0
 70
    32
  0
VERTEX
  5
5A52
  8
0
 10
80.889172035159163
 20
66.233738001073462
 30
0.0
 70
    32
  0
VERTEX
  5
5A53
  8
0
 10
80.969655114602915
 20
66.187786215717381
 30
0.0
 70
    32
  0
SEQEND
  5
5A54
  8
0
  0
LINE
  5
5A55
  8
0
 10
75.484827557301514
 20
57.884797767781137
 30
0.0
 11
75.484827557301514
 21
66.187786215717367
 31
0.0
  0
POLYLINE
  5
5A56
  8
0
 66
     1
 10
0.0
 20
0.0
 30
0.0
 70
     8
  0
VERTEX
  5
5A57
  8
0
 10
75.484827557301514
 20
57.884797767781137
 30
0.0
 70
    32
  0
VERTEX
  5
5A58
  8
0
 10
75.323861398414124
 20
57.838845982425049
 30
0.0
 70
    32
  0
VERTEX
  5
5A59
  8
0
 10
75.005000419677799
 20
57.750927561767909
 30
0.0
 70
    32
  0
VERTEX
  5
5A5A
  8
0
 10
74.689906150414686
 20
57.668250619467408
 30
0.0
 70
    32
  0
VERTEX
  5
5A5B
  8
0
 10
74.533649989427303
 20
57.628853737613063
 30
0.0
 70
    32
  0
VERTEX
  5
5A5C
  8
0
 10
74.378190371828964
 20
57.590740078983018
 30
0.0
 70
    32
  0
VERTEX
  5
5A5D
  8
0
 10
74.069470116050297
 20
57.518333714773561
 30
0.0
 70
    32
  0
VERTEX
  5
5A5E
  8
0
 10
73.763366053482514
 20
57.45098204333096
 30
0.0
 70
    32
  0
VERTEX
  5
5A5F
  8
0
 10
73.459500877267601
 20
57.388648296547679
 30
0.0
 70
    32
  0
VERTEX
  5
5A60
  8
0
 10
73.157497669800705
 20
57.33130847890834
 30
0.0
 70
    32
  0
VERTEX
  5
5A61
  8
0
 10
72.856978235619181
 20
57.278951511076848
 30
0.0
 70
    32
  0
VERTEX
  5
5A62
  8
0
 10
72.707155976707327
 20
57.254641720904793
 30
0.0
 70
    32
  0
VERTEX
  5
5A63
  8
0
 10
72.557561384098776
 20
57.231579463608298
 30
0.0
 70
    32
  0
VERTEX
  5
5A64
  8
0
 10
72.258861144209618
 20
57.189207885772532
 30
0.0
 70
    32
  0
VERTEX
  5
5A65
  8
0
 10
71.960484892055092
 20
57.151866235866862
 30
0.0
 70
    32
  0
VERTEX
  5
5A66
  8
0
 10
71.662031370018212
 20
57.119598420950943
 30
0.0
 70
    32
  0
VERTEX
  5
5A67
  8
0
 10
71.363088573987625
 20
57.092463455700113
 30
0.0
 70
    32
  0
VERTEX
  5
5A68
  8
0
 10
71.063231482273295
 20
57.070536252091053
 30
0.0
 70
    32
  0
VERTEX
  5
5A69
  8
0
 10
70.91282309594726
 20
57.061553544571332
 30
0.0
 70
    32
  0
VERTEX
  5
5A6A
  8
0
 10
70.762019596346704
 20
57.053908553964888
 30
0.0
 70
    32
  0
VERTEX
  5
5A6B
  8
0
 10
70.458994259349993
 20
57.042690033228702
 30
0.0
 70
    32
  0
VERTEX
  5
5A6C
  8
0
 10
70.153675713251687
 20
57.03700956763933
 30
0.0
 70
    32
  0
VERTEX
  5
5A6D
  8
0
 10
70.0
 20
57.036291991749252
 30
0.0
 70
    32
  0
SEQEND
  5
5A6E
  8
0
  0
POLYLINE
  5
5A6F
  8
0
 66
     1
 10
0.0
 20
0.0
 30
0.0
 70
     8
  0
VERTEX
  5
5A70
  8
0
 10
70.0
 20
57.036291991749252
 30
0.0
 70
    32
  0
VERTEX
  5
5A71
  8
0
 10
69.846324286748427
 20
57.03700956763933
 30
0.0
 70
    32
  0
VERTEX
  5
5A72
  8
0
 10
69.541005740650007
 20
57.042690033228681
 30
0.0
 70
    32
  0
VERTEX
  5
5A73
  8
0
 10
69.237980403653395
 20
57.053908553964881
 30
0.0
 70
    32
  0
VERTEX
  5
5A74
  8
0
 10
69.08717690405274
 20
57.061553544571332
 30
0.0
 70
    32
  0
VERTEX
  5
5A75
  8
0
 10
68.936768517726705
 20
57.070536252091053
 30
0.0
 70
    32
  0
VERTEX
  5
5A76
  8
0
 10
68.636911426012375
 20
57.092463455700113
 30
0.0
 70
    32
  0
VERTEX
  5
5A77
  8
0
 10
68.337968629981901
 20
57.119598420950929
 30
0.0
 70
    32
  0
VERTEX
  5
5A78
  8
0
 10
68.039515107945022
 20
57.151866235866848
 30
0.0
 70
    32
  0
VERTEX
  5
5A79
  8
0
 10
67.741138855790496
 20
57.189207885772532
 30
0.0
 70
    32
  0
VERTEX
  5
5A7A
  8
0
 10
67.44243861590121
 20
57.231579463608298
 30
0.0
 70
    32
  0
VERTEX
  5
5A7B
  8
0
 10
67.292844023292673
 20
57.254641720904793
 30
0.0
 70
    32
  0
VERTEX
  5
5A7C
  8
0
 10
67.143021764380933
 20
57.278951511076848
 30
0.0
 70
    32
  0
VERTEX
  5
5A7D
  8
0
 10
66.842502330199295
 20
57.33130847890834
 30
0.0
 70
    32
  0
VERTEX
  5
5A7E
  8
0
 10
66.540499122732399
 20
57.388648296547693
 30
0.0
 70
    32
  0
VERTEX
  5
5A7F
  8
0
 10
66.236633946517486
 20
57.45098204333096
 30
0.0
 70
    32
  0
VERTEX
  5
5A80
  8
0
 10
65.930529883949703
 20
57.518333714773568
 30
0.0
 70
    32
  0
VERTEX
  5
5A81
  8
0
 10
65.621809628171036
 20
57.590740078983011
 30
0.0
 70
    32
  0
VERTEX
  5
5A82
  8
0
 10
65.466350010572796
 20
57.628853737613063
 30
0.0
 70
    32
  0
VERTEX
  5
5A83
  8
0
 10
65.310093849585428
 20
57.668250619467408
 30
0.0
 70
    32
  0
VERTEX
  5
5A84
  8
0
 10
64.994999580322201
 20
57.750927561767909
 30
0.0
 70
    32
  0
VERTEX
  5
5A85
  8
0
 10
64.67613860158599
 20
57.838845982425049
 30
0.0
 70
    32
  0
VERTEX
  5
5A86
  8
0
 10
64.515172442698599
 20
57.884797767781137
 30
0.0
 70
    32
  0
SEQEND
  5
5A87
  8
0
  0
POLYLINE
  5
5A88
  8
0
 66
     1
 10
0.0
 20
0.0
 30
0.0
 70
     8
  0
VERTEX
  5
5A89
  8
0
 10
64.515172442698599
 20
66.187786215717367
 30
0.0
 70
    32
  0
VERTEX
  5
5A8A
  8
0
 10
64.67613860158599
 20
66.233738001073434
 30
0.0
 70
    32
  0
VERTEX
  5
5A8B
  8
0
 10
64.994999580322201
 20
66.321656421730594
 30
0.0
 70
    32
  0
VERTEX
  5
5A8C
  8
0
 10
65.310093849585428
 20
66.404333364031089
 30
0.0
 70
    32
  0
VERTEX
  5
5A8D
  8
0
 10
65.466350010572796
 20
66.443730245885448
 30
0.0
 70
    32
  0
VERTEX
  5
5A8E
  8
0
 10
65.621809628171036
 20
66.481843904515486
 30
0.0
 70
    32
  0
VERTEX
  5
5A8F
  8
0
 10
65.930529883949703
 20
66.554250268724914
 30
0.0
 70
    32
  0
VERTEX
  5
5A90
  8
0
 10
66.236633946517486
 20
66.621601940167551
 30
0.0
 70
    32
  0
VERTEX
  5
5A91
  8
0
 10
66.540499122732399
 20
66.683935686950818
 30
0.0
 70
    32
  0
VERTEX
  5
5A92
  8
0
 10
66.842502330199295
 20
66.741275504590163
 30
0.0
 70
    32
  0
VERTEX
  5
5A93
  8
0
 10
67.143021764380933
 20
66.793632472421635
 30
0.0
 70
    32
  0
VERTEX
  5
5A94
  8
0
 10
67.292844023292673
 20
66.817942262593718
 30
0.0
 70
    32
  0
VERTEX
  5
5A95
  8
0
 10
67.44243861590121
 20
66.841004519890205
 30
0.0
 70
    32
  0
VERTEX
  5
5A96
  8
0
 10
67.741138855790496
 20
66.883376097725971
 30
0.0
 70
    32
  0
VERTEX
  5
5A97
  8
0
 10
68.039515107945022
 20
66.920717747631642
 30
0.0
 70
    32
  0
VERTEX
  5
5A98
  8
0
 10
68.337968629981901
 20
66.952985562547568
 30
0.0
 70
    32
  0
VERTEX
  5
5A99
  8
0
 10
68.636911426012375
 20
66.980120527798377
 30
0.0
 70
    32
  0
VERTEX
  5
5A9A
  8
0
 10
68.936768517726705
 20
67.002047731407458
 30
0.0
 70
    32
  0
VERTEX
  5
5A9B
  8
0
 10
69.08717690405274
 20
67.011030438927179
 30
0.0
 70
    32
  0
VERTEX
  5
5A9C
  8
0
 10
69.237980403653296
 20
67.018675429533616
 30
0.0
 70
    32
  0
VERTEX
  5
5A9D
  8
0
 10
69.541005740650007
 20
67.029893950269809
 30
0.0
 70
    32
  0
VERTEX
  5
5A9E
  8
0
 10
69.846324286748427
 20
67.035574415859173
 30
0.0
 70
    32
  0
VERTEX
  5
5A9F
  8
0
 10
70.0
 20
67.036291991749252
 30
0.0
 70
    32
  0
SEQEND
  5
5AA0
  8
0
  0
POLYLINE
  5
5AA1
  8
0
 66
     1
 10
0.0
 20
0.0
 30
0.0
 70
     8
  0
VERTEX
  5
5AA2
  8
0
 10
70.0
 20
67.036291991749252
 30
0.0
 70
    32
  0
VERTEX
  5
5AA3
  8
0
 10
70.153675713251687
 20
67.035574415859173
 30
0.0
 70
    32
  0
VERTEX
  5
5AA4
  8
0
 10
70.458994259349993
 20
67.029893950269809
 30
0.0
 70
    32
  0
VERTEX
  5
5AA5
  8
0
 10
70.762019596346818
 20
67.018675429533616
 30
0.0
 70
    32
  0
VERTEX
  5
5AA6
  8
0
 10
70.91282309594726
 20
67.011030438927179
 30
0.0
 70
    32
  0
VERTEX
  5
5AA7
  8
0
 10
71.063231482273295
 20
67.002047731407458
 30
0.0
 70
    32
  0
VERTEX
  5
5AA8
  8
0
 10
71.363088573987724
 20
66.980120527798377
 30
0.0
 70
    32
  0
VERTEX
  5
5AA9
  8
0
 10
71.662031370018212
 20
66.952985562547568
 30
0.0
 70
    32
  0
VERTEX
  5
5AAA
  8
0
 10
71.960484892055092
 20
66.920717747631642
 30
0.0
 70
    32
  0
VERTEX
  5
5AAB
  8
0
 10
72.258861144209618
 20
66.883376097725971
 30
0.0
 70
    32
  0
VERTEX
  5
5AAC
  8
0
 10
72.557561384098776
 20
66.841004519890205
 30
0.0
 70
    32
  0
VERTEX
  5
5AAD
  8
0
 10
72.707155976707327
 20
66.817942262593718
 30
0.0
 70
    32
  0
VERTEX
  5
5AAE
  8
0
 10
72.856978235619181
 20
66.793632472421635
 30
0.0
 70
    32
  0
VERTEX
  5
5AAF
  8
0
 10
73.157497669800705
 20
66.741275504590163
 30
0.0
 70
    32
  0
VERTEX
  5
5AB0
  8
0
 10
73.459500877267601
 20
66.683935686950818
 30
0.0
 70
    32
  0
VERTEX
  5
5AB1
  8
0
 10
73.763366053482514
 20
66.621601940167551
 30
0.0
 70
    32
  0
VERTEX
  5
5AB2
  8
0
 10
74.069470116050297
 20
66.554250268724914
 30
0.0
 70
    32
  0
VERTEX
  5
5AB3
  8
0
 10
74.378190371829078
 20
66.481843904515486
 30
0.0
 70
    32
  0
VERTEX
  5
5AB4
  8
0
 10
74.533649989427303
 20
66.443730245885448
 30
0.0
 70
    32
  0
VERTEX
  5
5AB5
  8
0
 10
74.689906150414686
 20
66.404333364031089
 30
0.0
 70
    32
  0
VERTEX
  5
5AB6
  8
0
 10
75.005000419677913
 20
66.321656421730594
 30
0.0
 70
    32
  0
VERTEX
  5
5AB7
  8
0
 10
75.323861398414124
 20
66.233738001073434
 30
0.0
 70
    32
  0
VERTEX
  5
5AB8
  8
0
 10
75.484827557301514
 20
66.187786215717367
 30
0.0
 70
    32
  0
SEQEND
  5
5AB9
  8
0
  0
LINE
  5
5ABA
  8
0
 10
64.515172442698599
 20
57.884797767781137
 30
0.0
 11
64.515172442698599
 21
66.187786215717367
 31
0.0
  0
POLYLINE
  5
5ABB
  8
0
 66
     1
 10
0.0
 20
0.0
 30
0.0
 70
     8
  0
VERTEX
  5
5ABC
  8
0
 10
64.515172442698599
 20
57.884797767781137
 30
0.0
 70
    32
  0
VERTEX
  5
5ABD
  8
0
 10
64.434689363254833
 20
57.838845982425049
 30
0.0
 70
    32
  0
VERTEX
  5
5ABE
  8
0
 10
64.275258873886742
 20
57.750927561767909
 30
0.0
 70
    32
  0
VERTEX
  5
5ABF
  8
0
 10
64.117711739255114
 20
57.6682506194674
 30
0.0
 70
    32
  0
VERTEX
  5
5AC0
  8
0
 10
64.039583658761558
 20
57.628853737613063
 30
0.0
 70
    32
  0
VERTEX
  5
5AC1
  8
0
 10
63.961853849962381
 20
57.590740078983018
 30
0.0
 70
    32
  0
VERTEX
  5
5AC2
  8
0
 10
63.807493722072991
 20
57.518333714773561
 30
0.0
 70
    32
  0
VERTEX
  5
5AC3
  8
0
 10
63.654441690789099
 20
57.450982043330953
 30
0.0
 70
    32
  0
VERTEX
  5
5AC4
  8
0
 10
63.502509102681643
 20
57.388648296547693
 30
0.0
 70
    32
  0
VERTEX
  5
5AC5
  8
0
 10
63.351507498948187
 20
57.33130847890834
 30
0.0
 70
    32
  0
VERTEX
  5
5AC6
  8
0
 10
63.201247781857319
 20
57.278951511076848
 30
0.0
 70
    32
  0
VERTEX
  5
5AC7
  8
0
 10
63.126336652401498
 20
57.254641720904793
 30
0.0
 70
    32
  0
VERTEX
  5
5AC8
  8
0
 10
63.05153935609723
 20
57.231579463608298
 30
0.0
 70
    32
  0
VERTEX
  5
5AC9
  8
0
 10
62.902189236152701
 20
57.189207885772532
 30
0.0
 70
    32
  0
VERTEX
  5
5ACA
  8
0
 10
62.753001110075381
 20
57.151866235866862
 30
0.0
 70
    32
  0
VERTEX
  5
5ACB
  8
0
 10
62.603774349056948
 20
57.119598420950943
 30
0.0
 70
    32
  0
VERTEX
  5
5ACC
  8
0
 10
62.454302951041647
 20
57.092463455700113
 30
0.0
 70
    32
  0
VERTEX
  5
5ACD
  8
0
 10
62.30437440518449
 20
57.070536252091053
 30
0.0
 70
    32
  0
VERTEX
  5
5ACE
  8
0
 10
62.229170212021472
 20
57.061553544571332
 30
0.0
 70
    32
  0
VERTEX
  5
5ACF
  8
0
 10
62.153768462221251
 20
57.053908553964881
 30
0.0
 70
    32
  0
VERTEX
  5
5AD0
  8
0
 10
62.002255793722838
 20
57.042690033228681
 30
0.0
 70
    32
  0
VERTEX
  5
5AD1
  8
0
 10
61.849596520673693
 20
57.03700956763933
 30
0.0
 70
    32
  0
VERTEX
  5
5AD2
  8
0
 10
61.772758664047842
 20
57.036291991749252
 30
0.0
 70
    32
  0
SEQEND
  5
5AD3
  8
0
  0
POLYLINE
  5
5AD4
  8
0
 66
     1
 10
0.0
 20
0.0
 30
0.0
 70
     8
  0
VERTEX
  5
5AD5
  8
0
 10
61.772758664047842
 20
57.036291991749252
 30
0.0
 70
    32
  0
VERTEX
  5
5AD6
  8
0
 10
61.695920807421999
 20
57.03700956763933
 30
0.0
 70
    32
  0
VERTEX
  5
5AD7
  8
0
 10
61.543261534372853
 20
57.042690033228702
 30
0.0
 70
    32
  0
VERTEX
  5
5AD8
  8
0
 10
61.39174886587444
 20
57.053908553964888
 30
0.0
 70
    32
  0
VERTEX
  5
5AD9
  8
0
 10
61.316347116074212
 20
57.061553544571332
 30
0.0
 70
    32
  0
VERTEX
  5
5ADA
  8
0
 10
61.241142922911187
 20
57.070536252091053
 30
0.0
 70
    32
  0
VERTEX
  5
5ADB
  8
0
 10
61.09121437705403
 20
57.092463455700113
 30
0.0
 70
    32
  0
VERTEX
  5
5ADC
  8
0
 10
60.941742979038729
 20
57.119598420950943
 30
0.0
 70
    32
  0
VERTEX
  5
5ADD
  8
0
 10
60.79251621802041
 20
57.151866235866862
 30
0.0
 70
    32
  0
VERTEX
  5
5ADE
  8
0
 10
60.64332809194309
 20
57.189207885772532
 30
0.0
 70
    32
  0
VERTEX
  5
5ADF
  8
0
 10
60.49397797199844
 20
57.231579463608298
 30
0.0
 70
    32
  0
VERTEX
  5
5AE0
  8
0
 10
60.419180675694179
 20
57.254641720904793
 30
0.0
 70
    32
  0
VERTEX
  5
5AE1
  8
0
 10
60.344269546238358
 20
57.278951511076848
 30
0.0
 70
    32
  0
VERTEX
  5
5AE2
  8
0
 10
60.19400982914749
 20
57.33130847890834
 30
0.0
 70
    32
  0
VERTEX
  5
5AE3
  8
0
 10
60.043008225414042
 20
57.388648296547693
 30
0.0
 70
    32
  0
VERTEX
  5
5AE4
  8
0
 10
59.891075637306592
 20
57.450982043330953
 30
0.0
 70
    32
  0
VERTEX
  5
5AE5
  8
0
 10
59.738023606022693
 20
57.518333714773561
 30
0.0
 70
    32
  0
VERTEX
  5
5AE6
  8
0
 10
59.583663478133303
 20
57.590740078983018
 30
0.0
 70
    32
  0
VERTEX
  5
5AE7
  8
0
 10
59.50593366933424
 20
57.628853737613063
 30
0.0
 70
    32
  0
VERTEX
  5
5AE8
  8
0
 10
59.427805588840563
 20
57.668250619467408
 30
0.0
 70
    32
  0
VERTEX
  5
5AE9
  8
0
 10
59.270258454208943
 20
57.750927561767902
 30
0.0
 70
    32
  0
VERTEX
  5
5AEA
  8
0
 10
59.110827964840837
 20
57.838845982425049
 30
0.0
 70
    32
  0
VERTEX
  5
5AEB
  8
0
 10
59.030344885397199
 20
57.884797767781137
 30
0.0
 70
    32
  0
SEQEND
  5
5AEC
  8
0
  0
POLYLINE
  5
5AED
  8
0
 66
     1
 10
0.0
 20
0.0
 30
0.0
 70
     8
  0
VERTEX
  5
5AEE
  8
0
 10
59.030344885397199
 20
66.187786215717367
 30
0.0
 70
    32
  0
VERTEX
  5
5AEF
  8
0
 10
59.110827964840837
 20
66.233738001073434
 30
0.0
 70
    32
  0
VERTEX
  5
5AF0
  8
0
 10
59.270258454208943
 20
66.321656421730594
 30
0.0
 70
    32
  0
VERTEX
  5
5AF1
  8
0
 10
59.427805588840563
 20
66.404333364031089
 30
0.0
 70
    32
  0
VERTEX
  5
5AF2
  8
0
 10
59.50593366933424
 20
66.443730245885448
 30
0.0
 70
    32
  0
VERTEX
  5
5AF3
  8
0
 10
59.583663478133303
 20
66.481843904515486
 30
0.0
 70
    32
  0
VERTEX
  5
5AF4
  8
0
 10
59.738023606022693
 20
66.554250268724942
 30
0.0
 70
    32
  0
VERTEX
  5
5AF5
  8
0
 10
59.891075637306592
 20
66.621601940167551
 30
0.0
 70
    32
  0
VERTEX
  5
5AF6
  8
0
 10
60.043008225414042
 20
66.683935686950818
 30
0.0
 70
    32
  0
VERTEX
  5
5AF7
  8
0
 10
60.19400982914749
 20
66.741275504590163
 30
0.0
 70
    32
  0
VERTEX
  5
5AF8
  8
0
 10
60.344269546238358
 20
66.793632472421635
 30
0.0
 70
    32
  0
VERTEX
  5
5AF9
  8
0
 10
60.419180675694179
 20
66.817942262593718
 30
0.0
 70
    32
  0
VERTEX
  5
5AFA
  8
0
 10
60.49397797199844
 20
66.841004519890205
 30
0.0
 70
    32
  0
VERTEX
  5
5AFB
  8
0
 10
60.64332809194309
 20
66.883376097725971
 30
0.0
 70
    32
  0
VERTEX
  5
5AFC
  8
0
 10
60.79251621802041
 20
66.920717747631642
 30
0.0
 70
    32
  0
VERTEX
  5
5AFD
  8
0
 10
60.941742979038729
 20
66.952985562547568
 30
0.0
 70
    32
  0
VERTEX
  5
5AFE
  8
0
 10
61.09121437705403
 20
66.980120527798377
 30
0.0
 70
    32
  0
VERTEX
  5
5AFF
  8
0
 10
61.241142922911187
 20
67.002047731407458
 30
0.0
 70
    32
  0
VERTEX
  5
5B00
  8
0
 10
61.316347116074212
 20
67.011030438927179
 30
0.0
 70
    32
  0
VERTEX
  5
5B01
  8
0
 10
61.39174886587444
 20
67.018675429533616
 30
0.0
 70
    32
  0
VERTEX
  5
5B02
  8
0
 10
61.543261534372853
 20
67.029893950269809
 30
0.0
 70
    32
  0
VERTEX
  5
5B03
  8
0
 10
61.695920807421999
 20
67.035574415859173
 30
0.0
 70
    32
  0
VERTEX
  5
5B04
  8
0
 10
61.772758664047842
 20
67.036291991749252
 30
0.0
 70
    32
  0
SEQEND
  5
5B05
  8
0
  0
POLYLINE
  5
5B06
  8
0
 66
     1
 10
0.0
 20
0.0
 30
0.0
 70
     8
  0
VERTEX
  5
5B07
  8
0
 10
61.772758664047842
 20
67.036291991749252
 30
0.0
 70
    32
  0
VERTEX
  5
5B08
  8
0
 10
61.849596520673693
 20
67.035574415859173
 30
0.0
 70
    32
  0
VERTEX
  5
5B09
  8
0
 10
62.002255793722838
 20
67.029893950269809
 30
0.0
 70
    32
  0
VERTEX
  5
5B0A
  8
0
 10
62.153768462221251
 20
67.018675429533616
 30
0.0
 70
    32
  0
VERTEX
  5
5B0B
  8
0
 10
62.229170212021472
 20
67.011030438927179
 30
0.0
 70
    32
  0
VERTEX
  5
5B0C
  8
0
 10
62.30437440518449
 20
67.002047731407458
 30
0.0
 70
    32
  0
VERTEX
  5
5B0D
  8
0
 10
62.454302951041647
 20
66.980120527798377
 30
0.0
 70
    32
  0
VERTEX
  5
5B0E
  8
0
 10
62.603774349056948
 20
66.952985562547568
 30
0.0
 70
    32
  0
VERTEX
  5
5B0F
  8
0
 10
62.753001110075381
 20
66.920717747631642
 30
0.0
 70
    32
  0
VERTEX
  5
5B10
  8
0
 10
62.902189236152701
 20
66.883376097725971
 30
0.0
 70
    32
  0
VERTEX
  5
5B11
  8
0
 10
63.05153935609723
 20
66.841004519890205
 30
0.0
 70
    32
  0
VERTEX
  5
5B12
  8
0
 10
63.126336652401498
 20
66.817942262593704
 30
0.0
 70
    32
  0
VERTEX
  5
5B13
  8
0
 10
63.201247781857433
 20
66.793632472421635
 30
0.0
 70
    32
  0
VERTEX
  5
5B14
  8
0
 10
63.351507498948187
 20
66.741275504590163
 30
0.0
 70
    32
  0
VERTEX
  5
5B15
  8
0
 10
63.502509102681643
 20
66.683935686950818
 30
0.0
 70
    32
  0
VERTEX
  5
5B16
  8
0
 10
63.654441690789099
 20
66.621601940167551
 30
0.0
 70
    32
  0
VERTEX
  5
5B17
  8
0
 10
63.807493722072991
 20
66.554250268724942
 30
0.0
 70
    32
  0
VERTEX
  5
5B18
  8
0
 10
63.961853849962381
 20
66.481843904515486
 30
0.0
 70
    32
  0
VERTEX
  5
5B19
  8
0
 10
64.039583658761558
 20
66.443730245885448
 30
0.0
 70
    32
  0
VERTEX
  5
5B1A
  8
0
 10
64.117711739255114
 20
66.404333364031089
 30
0.0
 70
    32
  0
VERTEX
  5
5B1B
  8
0
 10
64.275258873886742
 20
66.321656421730594
 30
0.0
 70
    32
  0
VERTEX
  5
5B1C
  8
0
 10
64.434689363254833
 20
66.233738001073434
 30
0.0
 70
    32
  0
VERTEX
  5
5B1D
  8
0
 10
64.515172442698599
 20
66.187786215717367
 30
0.0
 70
    32
  0
SEQEND
  5
5B1E
  8
0
  0
LINE
  5
5B1F
  8
0
 10
59.030344885397199
 20
57.884797767781137
 30
0.0
 11
59.030344885397199
 21
66.187786215717367
 31
0.0
  0
LINE
  5
5B20
  8
0
 10
80.969655114602915
 20
57.88479776778113
 30
0.0
 11
80.969655114602915
 21
66.187786215717381
 31
0.0
  0
ARC
  5
5B21
  8
0
 10
70.0
 20
86.965369970227755
 30
0.0
 40
16.500000000000021
 50
125.2865868208889
 51
180.0
  0
ARC
  5
5B22
  8
0
 10
70.0
 20
86.965369970227783
 30
0.0
 40
16.499999999999989
 50
54.903198772417227
 51
125.0968012275828
  0
ARC
  5
5B23
  8
0
 10
70.0
 20
86.965369970227769
 30
0.0
 40
16.500000000000011
 50
0.0
 51
54.71341317908027
  0
LINE
  5
5BFE
  8
3
 10
65.073499999999967
 20
50.465369970227762
 30
0.0
 11
65.073500000000081
 21
57.036291991749252
 31
0.0
  0
LINE
  5
5BFF
  8
3
 10
74.926500000000033
 20
50.465369970227762
 30
0.0
 11
74.926500000000033
 21
57.036291991749252
 31
0.0
  0
LINE
  5
5C01
  8
0
 10
67.000000000000114
 20
303.47405932002118
 30
0.0
 11
67.0
 21
300.00995770488328
 31
0.0
  0
LINE
  5
5C02
  8
0
 10
73.0
 20
303.47405932002113
 30
0.0
 11
73.0
 21
300.00995770488339
 31
0.0
  0
LINE
  5
5C03
  8
0
 10
67.0
 20
300.00995770488328
 30
0.0
 11
70.0
 21
298.27790689731449
 31
0.0
  0
LINE
  5
5C05
  8
0
 10
73.0
 20
300.00995770488339
 30
0.0
 11
70.0
 21
298.27790689731438
 31
0.0
  0
LINE
  5
5C06
  8
0
 10
70.0
 20
305.20611012759002
 30
0.0
 11
67.000000000000114
 21
303.47405932002113
 31
0.0
  0
LINE
  5
5C07
  8
0
 10
70.0
 20
305.20611012759008
 30
0.0
 11
73.0
 21
303.47405932002118
 31
0.0
  0
CIRCLE
  5
5C1D
  8
0
 10
70.0
 20
301.74200851245217
 30
0.0
 40
10.0
  0
LINE
  5
5C1E
  8
0
 10
67.000000000000114
 20
176.47405932002121
 30
0.0
 11
67.0
 21
173.00995770488319
 31
0.0
  0
LINE
  5
5C1F
  8
0
 10
73.0
 20
176.47405932002101
 30
0.0
 11
73.0
 21
173.00995770488339
 31
0.0
  0
LINE
  5
5C20
  8
0
 10
67.0
 20
173.00995770488331
 30
0.0
 11
70.0
 21
171.27790689731449
 31
0.0
  0
LINE
  5
5C21
  8
0
 10
70.0
 20
178.20611012759011
 30
0.0
 11
73.0
 21
176.47405932002121
 31
0.0
  0
LINE
  5
5C22
  8
0
 10
73.0
 20
173.00995770488339
 30
0.0
 11
70.0
 21
171.27790689731441
 31
0.0
  0
LINE
  5
5C23
  8
0
 10
70.0
 20
178.20611012758999
 30
0.0
 11
67.000000000000114
 21
176.4740593200211
 31
0.0
  0
CIRCLE
  5
5C26
  8
0
 10
70.0
 20
174.7420085124522
 30
0.0
 40
10.0
  0
LINE
  5
5C39
  8
0
 10
199.0328562465327
 20
172.9038341790519
 30
0.0
 11
196.53553723927709
 21
170.29973220055021
 31
0.0
  0
LINE
  5
5C3A
  8
0
 10
196.20136007396059
 20
170.67165373467739
 30
0.0
 11
198.69867907430211
 21
173.27575570696669
 31
0.0
  0
LINE
  5
5C3B
  8
0
 10
197.88090148458539
 20
171.70262293370601
 30
0.0
 11
197.88090136318141
 21
169.525730023101
 31
0.0
  0
LINE
  5
5C3C
  8
0
 10
196.53553723927709
 20
170.29973220055021
 30
0.0
 11
196.20136007396059
 21
170.67165373467739
 31
0.0
  0
LINE
  5
5C3D
  8
0
 10
199.14603932183331
 20
169.75749769359609
 30
0.0
 11
199.33083428428631
 21
169.29290020413001
 31
0.0
  0
LINE
  5
5C3E
  8
0
 10
199.33083428428631
 20
169.29290020413001
 30
0.0
 11
196.0865512596242
 21
167.714110479586
 31
0.0
  0
LINE
  5
5C3F
  8
0
 10
196.0865512596242
 20
167.714110479586
 30
0.0
 11
195.90175630580779
 21
168.17870797248759
 31
0.0
  0
LINE
  5
5C40
  8
0
 10
195.90175630580779
 20
168.17870797248759
 30
0.0
 11
199.14603932183331
 21
169.75749769359609
 31
0.0
  0
LINE
  5
5C41
  8
0
 10
197.10605425355109
 20
170.8946439764681
 30
0.0
 11
197.10605423081779
 21
170.40548881025489
 31
0.0
  0
LINE
  5
5C42
  8
0
 10
196.78587391399401
 20
168.05442709575891
 30
0.0
 11
197.8809012262989
 21
167.07129143491099
 31
0.0
  0
LINE
  5
5C43
  8
0
 10
199.33083428428631
 20
169.29290020413001
 30
0.0
 11
197.8809012157603
 21
166.882324001227
 31
0.0
  0
LINE
  5
5C44
  8
0
 10
196.8793142976867
 20
170.6629285557726
 30
0.0
 11
198.11757696031799
 21
169.25700935861229
 31
0.0
  0
LINE
  5
5C45
  8
0
 10
197.68949629040301
 20
169.04868925887709
 30
0.0
 11
196.58645523714489
 21
170.35282740328731
 31
0.0
  0
LINE
  5
5C46
  8
0
 10
197.10605419981991
 20
169.7384995638848
 30
0.0
 11
197.10605415456601
 21
168.76476444640829
 31
0.0
  0
LINE
  5
5C47
  8
0
 10
197.88090108764911
 20
164.5851637093038
 30
0.0
 11
197.1060539603213
 21
164.5851637789772
 31
0.0
  0
LINE
  5
5C48
  8
0
 10
197.88090131084621
 20
168.58730847173689
 30
0.0
 11
197.88090108764911
 21
164.58516368905839
 31
0.0
  0
LINE
  5
5C49
  8
0
 10
197.1060540799653
 20
167.1595663510395
 30
0.0
 11
197.1060539603213
 21
164.5851637789772
 31
0.0
  0
LINE
  5
5C4A
  8
0
 10
197.8809011908329
 20
166.43535235447959
 30
0.0
 11
196.37559689440761
 21
167.84229112377079
 31
0.0
  0
LINE
  5
5C4B
  8
0
 10
198.94750035141189
 20
182.18820642647779
 30
0.0
 11
199.2055569580086
 21
181.7599462331861
 31
0.0
  0
LINE
  5
5C4C
  8
0
 10
196.0039668474048
 20
180.1016878470403
 30
0.0
 11
198.94750035141189
 21
182.18820642647779
 31
0.0
  0
LINE
  5
5C4D
  8
0
 10
198.3457991199657
 20
181.7616915602552
 30
0.0
 11
197.1060548267121
 21
183.227455520147
 31
0.0
  0
LINE
  5
5C4E
  8
0
 10
196.1507417241539
 20
180.2057289618823
 30
0.0
 11
197.10614545203839
 21
182.8550900436621
 31
0.0
  0
LINE
  5
5C4F
  8
0
 10
197.10605491304821
 20
185.08516377897709
 30
0.0
 11
197.10605471775011
 21
180.8829009076417
 31
0.0
  0
LINE
  5
5C50
  8
0
 10
199.2055569580086
 20
181.7599462331861
 30
0.0
 11
196.2620234460405
 21
179.67342764895139
 31
0.0
  0
LINE
  5
5C51
  8
0
 10
196.2620234460405
 20
179.67342764895139
 30
0.0
 11
196.0039668474048
 21
180.1016878470403
 31
0.0
  0
LINE
  5
5C52
  8
0
 10
198.551790113735
 20
179.518674284664
 30
0.0
 11
198.9148181391547
 21
179.1748565158878
 31
0.0
  0
LINE
  5
5C53
  8
0
 10
198.9148181391547
 20
179.1748565158878
 30
0.0
 11
196.6351991891386
 21
176.37820015852739
 31
0.0
  0
LINE
  5
5C54
  8
0
 10
196.6351991891386
 20
176.37820015852739
 30
0.0
 11
196.27217117011031
 21
176.7220179340523
 31
0.0
  0
LINE
  5
5C55
  8
0
 10
196.27217117011031
 20
176.7220179340523
 30
0.0
 11
198.551790113735
 21
179.518674284664
 31
0.0
  0
LINE
  5
5C56
  8
0
 10
198.66189784866279
 20
176.3476684351464
 30
0.0
 11
199.0066243578317
 21
175.98550322527279
 31
0.0
  0
LINE
  5
5C57
  8
0
 10
197.88090183056829
 20
177.9064389948955
 30
0.0
 11
197.88090170354761
 21
175.6288334567414
 31
0.0
  0
LINE
  5
5C58
  8
0
 10
197.10605453524249
 20
176.9558495929075
 30
0.0
 11
197.10605451445639
 21
176.5085923083038
 31
0.0
  0
LINE
  5
5C59
  8
0
 10
197.88090199310969
 20
180.8209668770067
 30
0.0
 11
197.8809018745805
 21
178.6956227567633
 31
0.0
  0
LINE
  5
5C5A
  8
0
 10
197.10605468934571
 20
180.27171772027921
 30
0.0
 11
197.10605465066729
 21
179.43947093441579
 31
0.0
  0
LINE
  5
5C5B
  8
0
 10
197.52756497865349
 20
178.26214597913639
 30
0.0
 11
196.3069602433531
 21
179.7052810191706
 31
0.0
  0
LINE
  5
5C5C
  8
0
 10
196.6581034550004
 20
179.9480731917439
 30
0.0
 11
197.82336635282709
 21
178.62503767817029
 31
0.0
  0
LINE
  5
5C5D
  8
0
 10
197.61820042270369
 20
175.23400729358329
 30
0.0
 11
196.6556680945807
 21
176.37202035359201
 31
0.0
  0
LINE
  5
5C5E
  8
0
 10
196.91671565283761
 20
176.72356700499111
 30
0.0
 11
197.92761625795259
 21
175.5757939112502
 31
0.0
  0
LINE
  5
5C5F
  8
0
 10
197.10605461911271
 20
178.76050253306309
 30
0.0
 11
197.1060545719194
 21
177.74503334540469
 31
0.0
  0
LINE
  5
5C60
  8
0
 10
196.58516667390651
 20
173.3107150049841
 30
0.0
 11
196.2404401714702
 21
173.67288022126601
 31
0.0
  0
LINE
  5
5C61
  8
0
 10
198.69867907430211
 20
173.27575570696669
 30
0.0
 11
199.0328562465327
 21
172.9038341790519
 31
0.0
  0
LINE
  5
5C62
  8
0
 10
197.88090165408991
 20
174.7420085124522
 30
0.0
 11
197.88090152935141
 21
172.50532228848829
 31
0.0
  0
LINE
  5
5C63
  8
0
 10
197.10605439257731
 20
173.8860974877106
 30
0.0
 11
197.10605436929291
 21
173.38508110708699
 31
0.0
  0
LINE
  5
5C64
  8
0
 10
197.60026305485829
 20
172.13037246908749
 30
0.0
 11
196.6272972768086
 21
173.28072111713871
 31
0.0
  0
LINE
  5
5C65
  8
0
 10
196.8823879120487
 20
173.63903123858191
 30
0.0
 11
197.91869107529081
 21
172.4624161671203
 31
0.0
  0
LINE
  5
5C66
  8
0
 10
197.10605433813629
 20
172.71468112820159
 30
0.0
 11
197.1060542870307
 21
171.61503180702309
 31
0.0
  0
LINE
  5
5C67
  8
0
 10
199.0066243578317
 20
175.98550322527279
 30
0.0
 11
196.58516667390651
 21
173.3107150049841
 31
0.0
  0
LINE
  5
5C68
  8
0
 10
196.2404401714702
 20
173.67288022126601
 30
0.0
 11
198.66189784866279
 21
176.3476684351464
 31
0.0
  0
LINE
  5
5C69
  8
0
 10
197.1060544833617
 20
175.83952333763969
 30
0.0
 11
197.10605442710579
 21
174.62905419471539
 31
0.0
  0
LINE
  5
5C6A
  8
0
 10
197.88090223092129
 20
185.08516372740229
 30
0.0
 11
197.10605491304821
 21
185.08516375621079
 31
0.0
  0
LINE
  5
5C6B
  8
0
 10
197.88090223092129
 20
185.08516375621079
 30
0.0
 11
197.8809021143897
 21
182.99563571393759
 31
0.0
  0
LINE
  5
5C6C
  8
0
 10
197.10605485682481
 20
183.87539464324479
 30
0.0
 11
198.7286667673954
 21
182.0330866229377
 31
0.0
  0
LINE
  5
5C6D
  8
0
 10
199.3308341778679
 20
180.74200851245209
 30
0.0
 11
197.8809019887062
 21
180.74200851245209
 31
0.0
  0
LINE
  5
5C6E
  8
0
 10
196.34413306115439
 20
180.7420085124522
 30
0.0
 11
195.90175630580779
 21
180.7420085124522
 31
0.0
  0
LINE
  5
5C6F
  8
3
 10
199.33083418667039
 20
179.66850851245221
 30
0.0
 11
197.88090193589281
 21
179.66850851245221
 31
0.0
  0
LINE
  5
5C70
  8
3
 10
197.1060546671911
 20
179.66850851245221
 30
0.0
 11
196.90432991300511
 21
179.66850851245221
 31
0.0
  0
LINE
  5
5C71
  8
3
 10
196.33806245803439
 20
179.66850851245221
 30
0.0
 11
195.90175630580779
 21
179.66850851245221
 31
0.0
  0
LINE
  5
5C72
  8
0
 10
199.33083428940671
 20
168.7420085124524
 30
0.0
 11
198.99947944888319
 21
168.7420085124524
 31
0.0
  0
LINE
  5
5C73
  8
0
 10
197.05929258203969
 20
168.74200851245209
 30
0.0
 11
195.90175630580779
 21
168.74200851245209
 31
0.0
  0
LINE
  5
5C74
  8
3
 10
199.3308342842864
 20
169.8155085124526
 30
0.0
 11
197.88090137228679
 21
169.8155085124524
 31
0.0
  0
LINE
  5
5C75
  8
3
 10
197.04091997143911
 20
169.81550851245231
 30
0.0
 11
195.90175630580779
 21
169.8155085124522
 31
0.0
  0
LINE
  5
5C76
  8
0
 10
214.8282563058078
 20
180.7420085124522
 30
0.0
 11
209.36310448704509
 21
180.7420085124522
 31
0.0
  0
LINE
  5
5C77
  8
0
 10
209.36310448704509
 20
168.7420085124522
 30
0.0
 11
214.8282563058078
 21
168.7420085124522
 31
0.0
  0
LINE
  5
5C78
  8
0
 10
215.90175630580779
 20
179.66850851245221
 30
0.0
 11
214.8282563058078
 21
180.7420085124522
 31
0.0
  0
LINE
  5
5C79
  8
0
 10
214.8282563058078
 20
168.7420085124522
 30
0.0
 11
215.90175630580779
 21
169.8155085124522
 31
0.0
  0
LINE
  5
5C7A
  8
0
 10
214.8282563058078
 20
168.7420085124522
 30
0.0
 11
214.8282563058078
 21
180.7420085124522
 31
0.0
  0
LINE
  5
5C7B
  8
0
 10
215.90175630580779
 20
169.8155085124522
 30
0.0
 11
215.90175630580779
 21
179.66850851245221
 31
0.0
  0
LINE
  5
5C7C
  8
0
 10
209.33083428428631
 20
165.2420085124522
 30
0.0
 11
209.33083428428631
 21
184.2420085124522
 31
0.0
  0
LINE
  5
5C7D
  8
0
 10
199.33083428428631
 20
165.2420085124522
 30
0.0
 11
199.33083428428631
 21
184.2420085124522
 31
0.0
  0
POLYLINE
  5
5C7E
  8
0
 66
     1
 10
0.0
 20
0.0
 30
0.0
 70
     8
  0
VERTEX
  5
5C7F
  8
0
 10
208.48232850825451
 20
174.7420085124522
 30
0.0
 70
    32
  0
VERTEX
  5
5C80
  8
0
 10
208.52828029361049
 20
174.60260772970611
 30
0.0
 70
    32
  0
VERTEX
  5
5C81
  8
0
 10
208.6161987142676
 20
174.32646602184499
 30
0.0
 70
    32
  0
VERTEX
  5
5C82
  8
0
 10
208.69887565656811
 20
174.05358638007621
 30
0.0
 70
    32
  0
VERTEX
  5
5C83
  8
0
 10
208.73827253842251
 20
173.91826457516331
 30
0.0
 70
    32
  0
VERTEX
  5
5C84
  8
0
 10
208.77638619705249
 20
173.78363259706049
 30
0.0
 70
    32
  0
VERTEX
  5
5C85
  8
0
 10
208.848792561262
 20
173.51627301289341
 30
0.0
 70
    32
  0
VERTEX
  5
5C86
  8
0
 10
208.9161442327046
 20
173.25117911850811
 30
0.0
 70
    32
  0
VERTEX
  5
5C87
  8
0
 10
208.97847797948779
 20
172.98802415658051
 30
0.0
 70
    32
  0
VERTEX
  5
5C88
  8
0
 10
209.03581779712721
 20
172.7264817068897
 30
0.0
 70
    32
  0
VERTEX
  5
5C89
  8
0
 10
209.08817476495869
 20
172.46622424255759
 30
0.0
 70
    32
  0
VERTEX
  5
5C8A
  8
0
 10
209.11248455513081
 20
172.33647436028761
 30
0.0
 70
    32
  0
VERTEX
  5
5C8B
  8
0
 10
209.13554681242729
 20
172.20692164281979
 30
0.0
 70
    32
  0
VERTEX
  5
5C8C
  8
0
 10
209.17791839026299
 20
171.94823964695931
 30
0.0
 70
    32
  0
VERTEX
  5
5C8D
  8
0
 10
209.21526004016869
 20
171.68983823270739
 30
0.0
 70
    32
  0
VERTEX
  5
5C8E
  8
0
 10
209.2475278550846
 20
171.4313699007746
 30
0.0
 70
    32
  0
VERTEX
  5
5C8F
  8
0
 10
209.27466282033549
 20
171.1724778451339
 30
0.0
 70
    32
  0
VERTEX
  5
5C90
  8
0
 10
209.2965900239445
 20
170.91279398620429
 30
0.0
 70
    32
  0
VERTEX
  5
5C91
  8
0
 10
209.30557273146431
 20
170.78253650270369
 30
0.0
 70
    32
  0
VERTEX
  5
5C92
  8
0
 10
209.3132177220707
 20
170.65193684107001
 30
0.0
 70
    32
  0
VERTEX
  5
5C93
  8
0
 10
209.32443624280691
 20
170.3895092012406
 30
0.0
 70
    32
  0
VERTEX
  5
5C94
  8
0
 10
209.33011670839619
 20
170.1250955840728
 30
0.0
 70
    32
  0
VERTEX
  5
5C95
  8
0
 10
209.33083428428631
 20
169.9920085124522
 30
0.0
 70
    32
  0
SEQEND
  5
5C96
  8
0
  0
POLYLINE
  5
5C97
  8
0
 66
     1
 10
0.0
 20
0.0
 30
0.0
 70
     8
  0
VERTEX
  5
5C98
  8
0
 10
209.33083428428631
 20
169.9920085124522
 30
0.0
 70
    32
  0
VERTEX
  5
5C99
  8
0
 10
209.33011670839619
 20
169.85892144083161
 30
0.0
 70
    32
  0
VERTEX
  5
5C9A
  8
0
 10
209.32443624280691
 20
169.59450782366389
 30
0.0
 70
    32
  0
VERTEX
  5
5C9B
  8
0
 10
209.3132177220707
 20
169.33208018383439
 30
0.0
 70
    32
  0
VERTEX
  5
5C9C
  8
0
 10
209.30557273146431
 20
169.20148052220071
 30
0.0
 70
    32
  0
VERTEX
  5
5C9D
  8
0
 10
209.2965900239445
 20
169.07122303870011
 30
0.0
 70
    32
  0
VERTEX
  5
5C9E
  8
0
 10
209.27466282033549
 20
168.81153917977059
 30
0.0
 70
    32
  0
VERTEX
  5
5C9F
  8
0
 10
209.2475278550846
 20
168.55264712412981
 30
0.0
 70
    32
  0
VERTEX
  5
5CA0
  8
0
 10
209.21526004016869
 20
168.29417879219699
 30
0.0
 70
    32
  0
VERTEX
  5
5CA1
  8
0
 10
209.17791839026299
 20
168.0357773779451
 30
0.0
 70
    32
  0
VERTEX
  5
5CA2
  8
0
 10
209.13554681242729
 20
167.77709538208461
 30
0.0
 70
    32
  0
VERTEX
  5
5CA3
  8
0
 10
209.11248455513081
 20
167.64754266461679
 30
0.0
 70
    32
  0
VERTEX
  5
5CA4
  8
0
 10
209.08817476495869
 20
167.5177927823469
 30
0.0
 70
    32
  0
VERTEX
  5
5CA5
  8
0
 10
209.03581779712721
 20
167.2575353180147
 30
0.0
 70
    32
  0
VERTEX
  5
5CA6
  8
0
 10
208.97847797948779
 20
166.99599286832401
 30
0.0
 70
    32
  0
VERTEX
  5
5CA7
  8
0
 10
208.9161442327046
 20
166.7328379063963
 30
0.0
 70
    32
  0
VERTEX
  5
5CA8
  8
0
 10
208.848792561262
 20
166.467744012011
 30
0.0
 70
    32
  0
VERTEX
  5
5CA9
  8
0
 10
208.77638619705249
 20
166.20038442784389
 30
0.0
 70
    32
  0
VERTEX
  5
5CAA
  8
0
 10
208.73827253842251
 20
166.0657524497411
 30
0.0
 70
    32
  0
VERTEX
  5
5CAB
  8
0
 10
208.69887565656811
 20
165.93043064482831
 30
0.0
 70
    32
  0
VERTEX
  5
5CAC
  8
0
 10
208.6161987142676
 20
165.65755100305941
 30
0.0
 70
    32
  0
VERTEX
  5
5CAD
  8
0
 10
208.52828029361049
 20
165.3814092951983
 30
0.0
 70
    32
  0
VERTEX
  5
5CAE
  8
0
 10
208.48232850825451
 20
165.2420085124522
 30
0.0
 70
    32
  0
SEQEND
  5
5CAF
  8
0
  0
POLYLINE
  5
5CB0
  8
0
 66
     1
 10
0.0
 20
0.0
 30
0.0
 70
     8
  0
VERTEX
  5
5CB1
  8
0
 10
200.1793400603182
 20
165.2420085124522
 30
0.0
 70
    32
  0
VERTEX
  5
5CB2
  8
0
 10
200.13338827496219
 20
165.3814092951983
 30
0.0
 70
    32
  0
VERTEX
  5
5CB3
  8
0
 10
200.045469854305
 20
165.65755100305941
 30
0.0
 70
    32
  0
VERTEX
  5
5CB4
  8
0
 10
199.96279291200449
 20
165.93043064482831
 30
0.0
 70
    32
  0
VERTEX
  5
5CB5
  8
0
 10
199.92339603015009
 20
166.0657524497411
 30
0.0
 70
    32
  0
VERTEX
  5
5CB6
  8
0
 10
199.88528237152011
 20
166.20038442784389
 30
0.0
 70
    32
  0
VERTEX
  5
5CB7
  8
0
 10
199.81287600731059
 20
166.467744012011
 30
0.0
 70
    32
  0
VERTEX
  5
5CB8
  8
0
 10
199.745524335868
 20
166.7328379063963
 30
0.0
 70
    32
  0
VERTEX
  5
5CB9
  8
0
 10
199.68319058908469
 20
166.9959928683239
 30
0.0
 70
    32
  0
VERTEX
  5
5CBA
  8
0
 10
199.6258507714453
 20
167.2575353180147
 30
0.0
 70
    32
  0
VERTEX
  5
5CBB
  8
0
 10
199.5734938036139
 20
167.5177927823469
 30
0.0
 70
    32
  0
VERTEX
  5
5CBC
  8
0
 10
199.54918401344179
 20
167.64754266461679
 30
0.0
 70
    32
  0
VERTEX
  5
5CBD
  8
0
 10
199.52612175614539
 20
167.77709538208461
 30
0.0
 70
    32
  0
VERTEX
  5
5CBE
  8
0
 10
199.48375017830961
 20
168.0357773779451
 30
0.0
 70
    32
  0
VERTEX
  5
5CBF
  8
0
 10
199.44640852840391
 20
168.29417879219699
 30
0.0
 70
    32
  0
VERTEX
  5
5CC0
  8
0
 10
199.414140713488
 20
168.55264712412981
 30
0.0
 70
    32
  0
VERTEX
  5
5CC1
  8
0
 10
199.38700574823719
 20
168.81153917977059
 30
0.0
 70
    32
  0
VERTEX
  5
5CC2
  8
0
 10
199.36507854462809
 20
169.07122303870011
 30
0.0
 70
    32
  0
VERTEX
  5
5CC3
  8
0
 10
199.35609583710831
 20
169.20148052220071
 30
0.0
 70
    32
  0
VERTEX
  5
5CC4
  8
0
 10
199.34845084650189
 20
169.33208018383439
 30
0.0
 70
    32
  0
VERTEX
  5
5CC5
  8
0
 10
199.33723232576571
 20
169.59450782366389
 30
0.0
 70
    32
  0
VERTEX
  5
5CC6
  8
0
 10
199.3315518601764
 20
169.85892144083161
 30
0.0
 70
    32
  0
VERTEX
  5
5CC7
  8
0
 10
199.33083428428631
 20
169.9920085124522
 30
0.0
 70
    32
  0
SEQEND
  5
5CC8
  8
0
  0
POLYLINE
  5
5CC9
  8
0
 66
     1
 10
0.0
 20
0.0
 30
0.0
 70
     8
  0
VERTEX
  5
5CCA
  8
0
 10
199.33083428428631
 20
169.9920085124522
 30
0.0
 70
    32
  0
VERTEX
  5
5CCB
  8
0
 10
199.3315518601764
 20
170.1250955840728
 30
0.0
 70
    32
  0
VERTEX
  5
5CCC
  8
0
 10
199.33723232576571
 20
170.3895092012406
 30
0.0
 70
    32
  0
VERTEX
  5
5CCD
  8
0
 10
199.34845084650189
 20
170.65193684107001
 30
0.0
 70
    32
  0
VERTEX
  5
5CCE
  8
0
 10
199.35609583710831
 20
170.78253650270369
 30
0.0
 70
    32
  0
VERTEX
  5
5CCF
  8
0
 10
199.36507854462809
 20
170.91279398620429
 30
0.0
 70
    32
  0
VERTEX
  5
5CD0
  8
0
 10
199.3870057482371
 20
171.1724778451339
 30
0.0
 70
    32
  0
VERTEX
  5
5CD1
  8
0
 10
199.414140713488
 20
171.4313699007746
 30
0.0
 70
    32
  0
VERTEX
  5
5CD2
  8
0
 10
199.44640852840391
 20
171.68983823270739
 30
0.0
 70
    32
  0
VERTEX
  5
5CD3
  8
0
 10
199.48375017830961
 20
171.94823964695931
 30
0.0
 70
    32
  0
VERTEX
  5
5CD4
  8
0
 10
199.52612175614539
 20
172.20692164281979
 30
0.0
 70
    32
  0
VERTEX
  5
5CD5
  8
0
 10
199.54918401344179
 20
172.33647436028761
 30
0.0
 70
    32
  0
VERTEX
  5
5CD6
  8
0
 10
199.5734938036139
 20
172.46622424255759
 30
0.0
 70
    32
  0
VERTEX
  5
5CD7
  8
0
 10
199.6258507714453
 20
172.7264817068897
 30
0.0
 70
    32
  0
VERTEX
  5
5CD8
  8
0
 10
199.68319058908469
 20
172.98802415658051
 30
0.0
 70
    32
  0
VERTEX
  5
5CD9
  8
0
 10
199.745524335868
 20
173.25117911850811
 30
0.0
 70
    32
  0
VERTEX
  5
5CDA
  8
0
 10
199.81287600731059
 20
173.51627301289341
 30
0.0
 70
    32
  0
VERTEX
  5
5CDB
  8
0
 10
199.88528237152011
 20
173.78363259706049
 30
0.0
 70
    32
  0
VERTEX
  5
5CDC
  8
0
 10
199.92339603015009
 20
173.91826457516331
 30
0.0
 70
    32
  0
VERTEX
  5
5CDD
  8
0
 10
199.96279291200449
 20
174.05358638007621
 30
0.0
 70
    32
  0
VERTEX
  5
5CDE
  8
0
 10
200.045469854305
 20
174.32646602184499
 30
0.0
 70
    32
  0
VERTEX
  5
5CDF
  8
0
 10
200.13338827496219
 20
174.60260772970611
 30
0.0
 70
    32
  0
VERTEX
  5
5CE0
  8
0
 10
200.1793400603182
 20
174.7420085124522
 30
0.0
 70
    32
  0
SEQEND
  5
5CE1
  8
0
  0
LINE
  5
5CE2
  8
0
 10
199.33083428428631
 20
165.2420085124522
 30
0.0
 11
209.33083428428631
 21
165.2420085124522
 31
0.0
  0
LINE
  5
5CE3
  8
0
 10
209.33083428428631
 20
184.2420085124522
 30
0.0
 11
199.33083428428631
 21
184.2420085124522
 31
0.0
  0
POLYLINE
  5
5CE4
  8
0
 66
     1
 10
0.0
 20
0.0
 30
0.0
 70
     8
  0
VERTEX
  5
5CE5
  8
0
 10
199.33083428428631
 20
179.4920085124522
 30
0.0
 70
    32
  0
VERTEX
  5
5CE6
  8
0
 10
199.3315518601764
 20
179.6250955840728
 30
0.0
 70
    32
  0
VERTEX
  5
5CE7
  8
0
 10
199.33723232576571
 20
179.8895092012406
 30
0.0
 70
    32
  0
VERTEX
  5
5CE8
  8
0
 10
199.34845084650189
 20
180.15193684107001
 30
0.0
 70
    32
  0
VERTEX
  5
5CE9
  8
0
 10
199.35609583710831
 20
180.28253650270369
 30
0.0
 70
    32
  0
VERTEX
  5
5CEA
  8
0
 10
199.36507854462809
 20
180.41279398620429
 30
0.0
 70
    32
  0
VERTEX
  5
5CEB
  8
0
 10
199.38700574823719
 20
180.67247784513381
 30
0.0
 70
    32
  0
VERTEX
  5
5CEC
  8
0
 10
199.414140713488
 20
180.9313699007746
 30
0.0
 70
    32
  0
VERTEX
  5
5CED
  8
0
 10
199.44640852840391
 20
181.18983823270739
 30
0.0
 70
    32
  0
VERTEX
  5
5CEE
  8
0
 10
199.48375017830961
 20
181.44823964695931
 30
0.0
 70
    32
  0
VERTEX
  5
5CEF
  8
0
 10
199.52612175614539
 20
181.70692164281979
 30
0.0
 70
    32
  0
VERTEX
  5
5CF0
  8
0
 10
199.54918401344179
 20
181.83647436028761
 30
0.0
 70
    32
  0
VERTEX
  5
5CF1
  8
0
 10
199.5734938036139
 20
181.96622424255759
 30
0.0
 70
    32
  0
VERTEX
  5
5CF2
  8
0
 10
199.6258507714453
 20
182.22648170688981
 30
0.0
 70
    32
  0
VERTEX
  5
5CF3
  8
0
 10
199.68319058908469
 20
182.48802415658039
 30
0.0
 70
    32
  0
VERTEX
  5
5CF4
  8
0
 10
199.745524335868
 20
182.75117911850811
 30
0.0
 70
    32
  0
VERTEX
  5
5CF5
  8
0
 10
199.81287600731059
 20
183.01627301289341
 30
0.0
 70
    32
  0
VERTEX
  5
5CF6
  8
0
 10
199.88528237152011
 20
183.28363259706049
 30
0.0
 70
    32
  0
VERTEX
  5
5CF7
  8
0
 10
199.92339603015009
 20
183.41826457516319
 30
0.0
 70
    32
  0
VERTEX
  5
5CF8
  8
0
 10
199.96279291200449
 20
183.55358638007621
 30
0.0
 70
    32
  0
VERTEX
  5
5CF9
  8
0
 10
200.045469854305
 20
183.82646602184499
 30
0.0
 70
    32
  0
VERTEX
  5
5CFA
  8
0
 10
200.13338827496219
 20
184.10260772970619
 30
0.0
 70
    32
  0
VERTEX
  5
5CFB
  8
0
 10
200.1793400603182
 20
184.2420085124522
 30
0.0
 70
    32
  0
SEQEND
  5
5CFC
  8
0
  0
POLYLINE
  5
5CFD
  8
0
 66
     1
 10
0.0
 20
0.0
 30
0.0
 70
     8
  0
VERTEX
  5
5CFE
  8
0
 10
208.48232850825451
 20
184.2420085124522
 30
0.0
 70
    32
  0
VERTEX
  5
5CFF
  8
0
 10
208.52828029361049
 20
184.10260772970619
 30
0.0
 70
    32
  0
VERTEX
  5
5D00
  8
0
 10
208.6161987142676
 20
183.82646602184499
 30
0.0
 70
    32
  0
VERTEX
  5
5D01
  8
0
 10
208.69887565656811
 20
183.55358638007621
 30
0.0
 70
    32
  0
VERTEX
  5
5D02
  8
0
 10
208.73827253842251
 20
183.41826457516319
 30
0.0
 70
    32
  0
VERTEX
  5
5D03
  8
0
 10
208.77638619705249
 20
183.28363259706049
 30
0.0
 70
    32
  0
VERTEX
  5
5D04
  8
0
 10
208.848792561262
 20
183.01627301289341
 30
0.0
 70
    32
  0
VERTEX
  5
5D05
  8
0
 10
208.9161442327046
 20
182.75117911850799
 30
0.0
 70
    32
  0
VERTEX
  5
5D06
  8
0
 10
208.97847797948779
 20
182.48802415658039
 30
0.0
 70
    32
  0
VERTEX
  5
5D07
  8
0
 10
209.03581779712721
 20
182.22648170688981
 30
0.0
 70
    32
  0
VERTEX
  5
5D08
  8
0
 10
209.08817476495869
 20
181.96622424255759
 30
0.0
 70
    32
  0
VERTEX
  5
5D09
  8
0
 10
209.11248455513081
 20
181.83647436028761
 30
0.0
 70
    32
  0
VERTEX
  5
5D0A
  8
0
 10
209.13554681242729
 20
181.70692164281979
 30
0.0
 70
    32
  0
VERTEX
  5
5D0B
  8
0
 10
209.17791839026299
 20
181.44823964695931
 30
0.0
 70
    32
  0
VERTEX
  5
5D0C
  8
0
 10
209.21526004016869
 20
181.18983823270739
 30
0.0
 70
    32
  0
VERTEX
  5
5D0D
  8
0
 10
209.2475278550846
 20
180.9313699007746
 30
0.0
 70
    32
  0
VERTEX
  5
5D0E
  8
0
 10
209.27466282033549
 20
180.67247784513381
 30
0.0
 70
    32
  0
VERTEX
  5
5D0F
  8
0
 10
209.2965900239445
 20
180.41279398620429
 30
0.0
 70
    32
  0
VERTEX
  5
5D10
  8
0
 10
209.30557273146431
 20
180.28253650270369
 30
0.0
 70
    32
  0
VERTEX
  5
5D11
  8
0
 10
209.3132177220707
 20
180.15193684107001
 30
0.0
 70
    32
  0
VERTEX
  5
5D12
  8
0
 10
209.32443624280691
 20
179.8895092012406
 30
0.0
 70
    32
  0
VERTEX
  5
5D13
  8
0
 10
209.33011670839619
 20
179.6250955840728
 30
0.0
 70
    32
  0
VERTEX
  5
5D14
  8
0
 10
209.33083428428631
 20
179.4920085124522
 30
0.0
 70
    32
  0
SEQEND
  5
5D15
  8
0
  0
POLYLINE
  5
5D16
  8
0
 66
     1
 10
0.0
 20
0.0
 30
0.0
 70
     8
  0
VERTEX
  5
5D17
  8
0
 10
209.33083428428631
 20
179.4920085124522
 30
0.0
 70
    32
  0
VERTEX
  5
5D18
  8
0
 10
209.33011670839619
 20
179.35892144083161
 30
0.0
 70
    32
  0
VERTEX
  5
5D19
  8
0
 10
209.32443624280691
 20
179.09450782366389
 30
0.0
 70
    32
  0
VERTEX
  5
5D1A
  8
0
 10
209.3132177220707
 20
178.83208018383439
 30
0.0
 70
    32
  0
VERTEX
  5
5D1B
  8
0
 10
209.30557273146431
 20
178.70148052220071
 30
0.0
 70
    32
  0
VERTEX
  5
5D1C
  8
0
 10
209.2965900239445
 20
178.57122303870011
 30
0.0
 70
    32
  0
VERTEX
  5
5D1D
  8
0
 10
209.27466282033549
 20
178.31153917977059
 30
0.0
 70
    32
  0
VERTEX
  5
5D1E
  8
0
 10
209.2475278550846
 20
178.05264712412981
 30
0.0
 70
    32
  0
VERTEX
  5
5D1F
  8
0
 10
209.21526004016869
 20
177.79417879219699
 30
0.0
 70
    32
  0
VERTEX
  5
5D20
  8
0
 10
209.17791839026299
 20
177.5357773779451
 30
0.0
 70
    32
  0
VERTEX
  5
5D21
  8
0
 10
209.13554681242729
 20
177.27709538208461
 30
0.0
 70
    32
  0
VERTEX
  5
5D22
  8
0
 10
209.11248455513081
 20
177.14754266461679
 30
0.0
 70
    32
  0
VERTEX
  5
5D23
  8
0
 10
209.08817476495869
 20
177.0177927823469
 30
0.0
 70
    32
  0
VERTEX
  5
5D24
  8
0
 10
209.03581779712721
 20
176.7575353180147
 30
0.0
 70
    32
  0
VERTEX
  5
5D25
  8
0
 10
208.97847797948779
 20
176.4959928683239
 30
0.0
 70
    32
  0
VERTEX
  5
5D26
  8
0
 10
208.9161442327046
 20
176.2328379063963
 30
0.0
 70
    32
  0
VERTEX
  5
5D27
  8
0
 10
208.848792561262
 20
175.967744012011
 30
0.0
 70
    32
  0
VERTEX
  5
5D28
  8
0
 10
208.77638619705249
 20
175.70038442784389
 30
0.0
 70
    32
  0
VERTEX
  5
5D29
  8
0
 10
208.73827253842251
 20
175.56575244974121
 30
0.0
 70
    32
  0
VERTEX
  5
5D2A
  8
0
 10
208.69887565656811
 20
175.43043064482831
 30
0.0
 70
    32
  0
VERTEX
  5
5D2B
  8
0
 10
208.6161987142676
 20
175.15755100305941
 30
0.0
 70
    32
  0
VERTEX
  5
5D2C
  8
0
 10
208.52828029361049
 20
174.8814092951983
 30
0.0
 70
    32
  0
VERTEX
  5
5D2D
  8
0
 10
208.48232850825451
 20
174.7420085124522
 30
0.0
 70
    32
  0
SEQEND
  5
5D2E
  8
0
  0
LINE
  5
5D2F
  8
0
 10
208.48232850825451
 20
174.7420085124522
 30
0.0
 11
200.1793400603182
 21
174.7420085124522
 31
0.0
  0
POLYLINE
  5
5D30
  8
0
 66
     1
 10
0.0
 20
0.0
 30
0.0
 70
     8
  0
VERTEX
  5
5D31
  8
0
 10
200.1793400603182
 20
174.7420085124522
 30
0.0
 70
    32
  0
VERTEX
  5
5D32
  8
0
 10
200.13338827496219
 20
174.8814092951983
 30
0.0
 70
    32
  0
VERTEX
  5
5D33
  8
0
 10
200.045469854305
 20
175.15755100305941
 30
0.0
 70
    32
  0
VERTEX
  5
5D34
  8
0
 10
199.96279291200449
 20
175.43043064482831
 30
0.0
 70
    32
  0
VERTEX
  5
5D35
  8
0
 10
199.92339603015009
 20
175.5657524497411
 30
0.0
 70
    32
  0
VERTEX
  5
5D36
  8
0
 10
199.88528237152011
 20
175.70038442784389
 30
0.0
 70
    32
  0
VERTEX
  5
5D37
  8
0
 10
199.81287600731059
 20
175.967744012011
 30
0.0
 70
    32
  0
VERTEX
  5
5D38
  8
0
 10
199.745524335868
 20
176.2328379063963
 30
0.0
 70
    32
  0
VERTEX
  5
5D39
  8
0
 10
199.68319058908469
 20
176.4959928683239
 30
0.0
 70
    32
  0
VERTEX
  5
5D3A
  8
0
 10
199.6258507714453
 20
176.7575353180147
 30
0.0
 70
    32
  0
VERTEX
  5
5D3B
  8
0
 10
199.5734938036139
 20
177.0177927823469
 30
0.0
 70
    32
  0
VERTEX
  5
5D3C
  8
0
 10
199.54918401344179
 20
177.14754266461679
 30
0.0
 70
    32
  0
VERTEX
  5
5D3D
  8
0
 10
199.52612175614539
 20
177.27709538208461
 30
0.0
 70
    32
  0
VERTEX
  5
5D3E
  8
0
 10
199.48375017830961
 20
177.5357773779451
 30
0.0
 70
    32
  0
VERTEX
  5
5D3F
  8
0
 10
199.44640852840391
 20
177.79417879219699
 30
0.0
 70
    32
  0
VERTEX
  5
5D40
  8
0
 10
199.414140713488
 20
178.05264712412981
 30
0.0
 70
    32
  0
VERTEX
  5
5D41
  8
0
 10
199.3870057482371
 20
178.31153917977059
 30
0.0
 70
    32
  0
VERTEX
  5
5D42
  8
0
 10
199.36507854462809
 20
178.57122303870011
 30
0.0
 70
    32
  0
VERTEX
  5
5D43
  8
0
 10
199.35609583710831
 20
178.70148052220071
 30
0.0
 70
    32
  0
VERTEX
  5
5D44
  8
0
 10
199.34845084650189
 20
178.83208018383439
 30
0.0
 70
    32
  0
VERTEX
  5
5D45
  8
0
 10
199.33723232576571
 20
179.09450782366389
 30
0.0
 70
    32
  0
VERTEX
  5
5D46
  8
0
 10
199.3315518601764
 20
179.35892144083161
 30
0.0
 70
    32
  0
VERTEX
  5
5D47
  8
0
 10
199.33083428428631
 20
179.4920085124522
 30
0.0
 70
    32
  0
SEQEND
  5
5D48
  8
0
  0
LINE
  5
5D49
  8
3
 10
215.90175630580779
 20
179.66850851245221
 30
0.0
 11
209.36310448704509
 21
179.66850851245221
 31
0.0
  0
LINE
  5
5D4A
  8
3
 10
215.90175630580779
 20
169.8155085124522
 30
0.0
 11
209.36310448704509
 21
169.8155085124522
 31
0.0
  0
TEXT
  5
61B0
  8
0
 62
     3
 10
0.0
 20
0.0
 30
0.0
 40
10.0
  1
CLR-127GL
  7
STANDARD1
  0
ENDSEC
  0
EOF
