  0
SECTION
  2
HEADER
  9
$ACADVER
  1
AC1009
  9
$INSBASE
 10
1083.0223905356249
 20
150.8947753650427
 30
0.0
  9
$EXTMIN
 10
0.0
 20
-1.4802182810368341
 30
0.0
  9
$EXTMAX
 10
130.35814798237419
 20
140.25148076885711
 30
0.0
  9
$LIMMIN
 10
0.0
 20
0.0
  9
$LIMMAX
 10
4205.0
 20
2970.0
  9
$ORTHOMODE
 70
     0
  9
$REGENMODE
 70
     1
  9
$FILLMODE
 70
     1
  9
$QTEXTMODE
 70
     0
  9
$MIRRTEXT
 70
     0
  9
$DRAGMODE
 70
     2
  9
$LTSCALE
 40
10.0
  9
$OSMODE
 70
  3071
  9
$ATTMODE
 70
     1
  9
$TEXTSIZE
 40
3.0
  9
$TRACEWID
 40
0.05
  9
$TEXTSTYLE
  7
STANDARD
  9
$CLAYER
  8
0
  9
$CELTYPE
  6
BYLAYER
  9
$CECOLOR
 62
   256
  9
$DIMSCALE
 40
5.0
  9
$DIMASZ
 40
1.5
  9
$DIMEXO
 40
2.0
  9
$DIMDLI
 40
10.0
  9
$DIMRND
 40
0.0
  9
$DIMDLE
 40
0.0
  9
$DIMEXE
 40
2.0
  9
$DIMTP
 40
0.0
  9
$DIMTM
 40
0.0
  9
$DIMTXT
 40
1.5
  9
$DIMCEN
 40
0.0
  9
$DIMTSZ
 40
0.0
  9
$DIMTOL
 70
     0
  9
$DIMLIM
 70
     0
  9
$DIMTIH
 70
     0
  9
$DIMTOH
 70
     0
  9
$DIMSE1
 70
     0
  9
$DIMSE2
 70
     0
  9
$DIMTAD
 70
     1
  9
$DIMZIN
 70
     0
  9
$DIMBLK
  1

  9
$DIMASO
 70
     0
  9
$DIMSHO
 70
     0
  9
$DIMPOST
  1

  9
$DIMAPOST
  1

  9
$DIMALT
 70
     0
  9
$DIMALTD
 70
     2
  9
$DIMALTF
 40
25.399999999999999
  9
$DIMLFAC
 40
1.0
  9
$DIMTOFL
 70
     1
  9
$DIMTVP
 40
1.6000000000000001
  9
$DIMTIX
 70
     1
  9
$DIMSOXD
 70
     0
  9
$DIMSAH
 70
     0
  9
$DIMBLK1
  1

  9
$DIMBLK2
  1

  9
$DIMSTYLE
  2
STANDARD
  9
$DIMCLRD
 70
     0
  9
$DIMCLRE
 70
     0
  9
$DIMCLRT
 70
     0
  9
$DIMTFAC
 40
1.0
  9
$DIMGAP
 40
0.09
  9
$LUNITS
 70
     2
  9
$LUPREC
 70
     2
  9
$SKETCHINC
 40
0.1
  9
$FILLETRAD
 40
0.0
  9
$AUNITS
 70
     0
  9
$AUPREC
 70
     2
  9
$MENU
  1
ME
  9
$ELEVATION
 40
0.0
  9
$PELEVATION
 40
0.0
  9
$THICKNESS
 40
0.0
  9
$LIMCHECK
 70
     0
  9
$BLIPMODE
 70
     0
  9
$CHAMFERA
 40
3.0
  9
$CHAMFERB
 40
3.0
  9
$SKPOLY
 70
     0
  9
$TDCREATE
 40
2451920.3634869209
  9
$TDUPDATE
 40
2456598.592206378
  9
$TDINDWG
 40
0.7609587731
  9
$TDUSRTIMER
 40
0.7609566898
  9
$USRTIMER
 70
     1
  9
$ANGBASE
 50
0.0
  9
$ANGDIR
 70
     0
  9
$PDMODE
 70
     0
  9
$PDSIZE
 40
0.0
  9
$PLINEWID
 40
0.0
  9
$COORDS
 70
     1
  9
$SPLFRAME
 70
     0
  9
$SPLINETYPE
 70
     6
  9
$SPLINESEGS
 70
     8
  9
$ATTDIA
 70
     0
  9
$ATTREQ
 70
     1
  9
$HANDLING
 70
     1
  9
$HANDSEED
  5
303
  9
$SURFTAB1
 70
     6
  9
$SURFTAB2
 70
     6
  9
$SURFTYPE
 70
     6
  9
$SURFU
 70
     6
  9
$SURFV
 70
     6
  9
$UCSNAME
  2

  9
$UCSORG
 10
0.0
 20
0.0
 30
0.0
  9
$UCSXDIR
 10
1.0
 20
0.0
 30
0.0
  9
$UCSYDIR
 10
0.0
 20
1.0
 30
0.0
  9
$PUCSNAME
  2

  9
$PUCSORG
 10
0.0
 20
0.0
 30
0.0
  9
$PUCSXDIR
 10
1.0
 20
0.0
 30
0.0
  9
$PUCSYDIR
 10
0.0
 20
1.0
 30
0.0
  9
$USERI1
 70
     1
  9
$USERI2
 70
     1
  9
$USERI3
 70
     5
  9
$USERI4
 70
     1
  9
$USERI5
 70
     0
  9
$USERR1
 40
5.0
  9
$USERR2
 40
3.0
  9
$USERR3
 40
1.5
  9
$USERR4
 40
1.5
  9
$USERR5
 40
10.0
  9
$WORLDVIEW
 70
     1
  9
$SHADEDGE
 70
     3
  9
$SHADEDIF
 70
    70
  9
$TILEMODE
 70
     1
  9
$MAXACTVP
 70
    16
  9
$PLIMCHECK
 70
     0
  9
$PEXTMIN
 10
1.0000000000000000E+020
 20
1.0000000000000000E+020
 30
1.0000000000000000E+020
  9
$PEXTMAX
 10
-1.0000000000000000E+020
 20
-1.0000000000000000E+020
 30
-1.0000000000000000E+020
  9
$PLIMMIN
 10
0.0
 20
0.0
  9
$PLIMMAX
 10
12.0
 20
9.0
  9
$UNITMODE
 70
     0
  9
$VISRETAIN
 70
     0
  9
$PLINEGEN
 70
     0
  9
$PSLTSCALE
 70
     0
  0
ENDSEC
  0
SECTION
  2
TABLES
  0
TABLE
  2
VPORT
 70
     1
  0
VPORT
  2
*ACTIVE
 70
     0
 10
0.0
 20
0.0
 11
1.0
 21
1.0
 12
2184.7740339677171
 22
1484.229499377275
 13
0.0
 23
0.0
 14
5.0
 24
5.0
 15
10.0
 25
10.0
 16
0.0
 26
0.0
 36
1.0
 17
0.0
 27
0.0
 37
0.0
 40
2998.1915931848721
 41
1.831871345029239
 42
50.0
 43
0.0
 44
0.0
 50
0.0
 51
0.0
 71
     0
 72
  1000
 73
     1
 74
     0
 75
     0
 76
     0
 77
     0
 78
     1
  0
ENDTAB
  0
TABLE
  2
LTYPE
 70
     4
  0
LTYPE
  2
CONTINUOUS
 70
     0
  3
Solid Line
 72
    65
 73
     0
 40
0.0
  0
LTYPE
  2
CENTER
 70
     0
  3
____ _ ____ _ ____ _ ____ _ ____ _ ____ _ ____
 72
    65
 73
     4
 40
2.0
 49
1.25
 49
-0.25
 49
0.25
 49
-0.25
  0
LTYPE
  2
HIDDEN
 70
     0
  3
_ _ _ _ _ _ _ _ _ _ _ _ _ _ _ _ _ _ _ _ _ _ _
 72
    65
 73
     2
 40
0.375
 49
0.25
 49
-0.125
  0
LTYPE
  2
PHANTOM2
 70
     0
  3
___ _ _ ___ _ _ ___ _ _ ___ _ _
 72
    65
 73
     6
 40
1.25
 49
0.625
 49
-0.125
 49
0.125
 49
-0.125
 49
0.125
 49
-0.125
  0
ENDTAB
  0
TABLE
  2
LAYER
 70
     4
  0
LAYER
  2
0
 70
     0
 62
     7
  6
CONTINUOUS
  0
LAYER
  2
1
 70
     0
 62
     1
  6
CENTER
  0
LAYER
  2
3
 70
     0
 62
     3
  6
CONTINUOUS
  0
LAYER
  2
2
 70
     0
 62
     2
  6
HIDDEN
  0
ENDTAB
  0
TABLE
  2
STYLE
 70
     2
  0
STYLE
  2
STANDARD
 70
     0
 40
0.0
 41
1.0
 50
0.0
 71
     0
 42
3.0
  3
C:/r13/com/fonts/Romans
  4
C:/r13/com/fonts/Extfont
  0
STYLE
  2
STANDARD1
 70
     0
 40
0.0
 41
1.0
 50
0.0
 71
     0
 42
3.0
  3
txt
  4

  0
ENDTAB
  0
TABLE
  2
VIEW
 70
     0
  0
ENDTAB
  0
TABLE
  2
UCS
 70
     0
  0
ENDTAB
  0
TABLE
  2
APPID
 70
     3
  0
APPID
  2
ACAD
 70
     0
  0
APPID
  2
ACAD_MLEADERVER
 70
     0
  0
APPID
  2
ACAD_NAV_VCDISPLAY
 70
     0
  0
ENDTAB
  0
TABLE
  2
DIMSTYLE
 70
     1
  0
DIMSTYLE
  2
STANDARD
 70
     0
  3

  4

  5

  6

  7

 40
1.0
 41
0.18
 42
0.0625
 43
0.38
 44
0.18
 45
0.0
 46
0.0
 47
0.0
 48
0.0
140
0.18
141
0.09
142
0.0
143
25.399999999999999
144
1.0
145
0.0
146
1.0
147
0.09
 71
     0
 72
     0
 73
     1
 74
     1
 75
     0
 76
     0
 77
     0
 78
     0
170
     0
171
     2
172
     0
173
     0
174
     0
175
     0
176
     0
177
     0
178
     0
  0
ENDTAB
  0
ENDSEC
  0
SECTION
  2
BLOCKS
  0
BLOCK
  8
0
  2
$MODEL_SPACE
 70
     0
 10
0.0
 20
0.0
 30
0.0
  3
$MODEL_SPACE
  1

  0
ENDBLK
  5
1A8
  8
0
  0
BLOCK
 67
     1
  8
0
  2
$PAPER_SPACE
 70
     0
 10
0.0
 20
0.0
 30
0.0
  3
$PAPER_SPACE
  1

  0
ENDBLK
  5
1A6
 67
     1
  8
0
  0
ENDSEC
  0
SECTION
  2
ENTITIES
  0
LINE
  5
2B
  8
0
 10
110.85814798237421
 20
36.180602299534492
 30
0.0
 11
127.85814798237421
 21
36.180602299534492
 31
0.0
  0
LINE
  5
2C
  8
0
 10
130.35814798237419
 20
38.680602299534492
 30
0.0
 11
130.35814798237419
 21
43.680602299534492
 31
0.0
  0
LINE
  5
2D
  8
0
 10
130.35814798237419
 20
43.680602299534492
 30
0.0
 11
126.7581479823743
 21
43.680602299534492
 31
0.0
  0
LINE
  5
2E
  8
0
 10
126.35814798237421
 20
44.080602299534569
 30
0.0
 11
126.35814798237421
 21
52.180602299534478
 31
0.0
  0
LINE
  5
2F
  8
0
 10
126.35814798237421
 20
52.180602299534478
 30
0.0
 11
112.35814798237421
 21
52.180602299534478
 31
0.0
  0
LINE
  5
30
  8
0
 10
112.35814798237421
 20
52.180602299534478
 30
0.0
 11
112.35814798237421
 21
44.080602299534569
 31
0.0
  0
LINE
  5
31
  8
0
 10
111.9581479823741
 20
43.680602299534492
 30
0.0
 11
108.35814798237421
 21
43.680602299534492
 31
0.0
  0
LINE
  5
32
  8
0
 10
108.35814798237421
 20
43.680602299534492
 30
0.0
 11
108.35814798237421
 21
38.680602299534492
 31
0.0
  0
ARC
  5
33
  8
0
 10
111.9581479823741
 20
44.080602299534569
 30
0.0
 40
0.4
 50
270.0
 51
0.0
  0
ARC
  5
34
  8
0
 10
126.7581479823743
 20
44.080602299534569
 30
0.0
 40
0.4
 50
180.0
 51
270.0
  0
LINE
  5
35
  8
0
 10
108.35814798237421
 20
38.680602299534492
 30
0.0
 11
110.85814798237421
 21
36.180602299534492
 31
0.0
  0
LINE
  5
36
  8
0
 10
130.35814798237419
 20
38.680602299534492
 30
0.0
 11
127.85814798237421
 21
36.180602299534492
 31
0.0
  0
LINE
  5
37
  8
0
 10
77.78239410192225
 20
52.180602299534478
 30
0.0
 11
55.78239410192225
 21
52.180602299534478
 31
0.0
  0
LINE
  5
38
  8
0
 10
77.78239410192225
 20
43.680602299534492
 30
0.0
 11
55.78239410192225
 21
43.680602299534492
 31
0.0
  0
LINE
  5
39
  8
0
 10
77.78239410192225
 20
36.180602299534492
 30
0.0
 11
55.78239410192225
 21
36.180602299534492
 31
0.0
  0
LINE
  5
3A
  8
0
 10
55.78239410192225
 20
36.180602299534492
 30
0.0
 11
55.78239410192225
 21
52.180602299534478
 31
0.0
  0
LINE
  5
3B
  8
0
 10
77.78239410192225
 20
36.180602299534492
 30
0.0
 11
77.78239410192225
 21
52.180602299534478
 31
0.0
  0
LINE
  5
3C
  8
0
 10
77.78239410192225
 20
38.680602299534492
 30
0.0
 11
55.78239410192225
 21
38.680602299534492
 31
0.0
  0
LINE
  5
3D
  8
1
 10
119.3696532723143
 20
88.381365580908366
 30
0.0
 11
119.3696532723143
 21
28.048886747584451
 31
0.0
  0
LINE
  5
40
  8
1
 10
66.793899391862283
 20
28.384665032430579
 30
0.0
 11
66.793899391862283
 21
88.251480768857164
 31
0.0
  0
LINE
  5
41
  8
0
 10
77.793899391862283
 20
113.25148076885711
 30
0.0
 11
55.793899391862283
 21
113.25148076885711
 31
0.0
  0
LINE
  5
42
  8
0
 10
77.793899391862283
 20
135.25148076885711
 30
0.0
 11
55.793899391862283
 21
135.25148076885711
 31
0.0
  0
LINE
  5
43
  8
0
 10
55.793899391862283
 20
113.25148076885711
 30
0.0
 11
55.793899391862283
 21
135.25148076885711
 31
0.0
  0
LINE
  5
44
  8
0
 10
77.793899391862283
 20
135.25148076885711
 30
0.0
 11
77.793899391862283
 21
113.25148076885711
 31
0.0
  0
LINE
  5
45
  8
1
 10
50.793899391862283
 20
124.25148076885711
 30
0.0
 11
82.793899391862297
 21
124.25148076885711
 31
0.0
  0
LINE
  5
46
  8
1
 10
66.793899391862283
 20
108.25148076885711
 30
0.0
 11
66.793899391862283
 21
140.25148076885711
 31
0.0
  0
LINE
  5
47
  8
0
 10
55.793899391862283
 20
131.25148076885711
 30
0.0
 11
77.793899391862283
 21
131.25148076885711
 31
0.0
  0
LINE
  5
48
  8
0
 10
55.793899391862283
 20
117.25148076885711
 30
0.0
 11
77.793899391862283
 21
117.25148076885711
 31
0.0
  0
CIRCLE
  5
49
  8
0
 10
66.793899391862283
 20
124.25148076885711
 30
0.0
 40
5.0
  0
CIRCLE
  5
4A
  8
3
 10
66.793899391862283
 20
124.25148076885711
 30
0.0
 40
6.0
  0
LINE
  5
AF
  8
3
 10
71.893899391861694
 20
66.180602299534485
 30
0.0
 11
72.793899391862311
 21
67.980602299534482
 31
0.0
  0
LINE
  5
B0
  8
0
 10
72.793899391862311
 20
66.18060229953447
 30
0.0
 11
60.793899391862283
 21
66.18060229953447
 31
0.0
  0
LINE
  5
B1
  8
2
 10
72.793899391862283
 20
37.680602299534478
 30
0.0
 11
60.793899391862283
 21
37.680602299534478
 31
0.0
  0
LINE
  5
B2
  8
2
 10
72.793899391862283
 20
37.680602299534478
 30
0.0
 11
71.293899391862283
 21
36.180602299534492
 31
0.0
  0
LINE
  5
B3
  8
2
 10
62.293899391862283
 20
36.180602299534492
 30
0.0
 11
71.293899391862283
 21
36.180602299534492
 31
0.0
  0
LINE
  5
B4
  8
3
 10
71.893899391861694
 20
66.18060229953447
 30
0.0
 11
71.893899391861737
 21
52.180602299534478
 31
0.0
  0
LINE
  5
B5
  8
0
 10
72.793899391862283
 20
71.180602299534485
 30
0.0
 11
72.793899391862283
 21
52.180602299534478
 31
0.0
  0
LINE
  5
B6
  8
0
 10
75.793899391862283
 20
82.480602299536031
 30
0.0
 11
57.793899391862283
 21
82.480602299536031
 31
0.0
  0
LINE
  5
B7
  8
0
 10
74.581463826566619
 20
83.180602299534485
 30
0.0
 11
75.793899391865011
 21
82.480602299534226
 31
0.0
  0
LINE
  5
B8
  8
0
 10
75.793899391862283
 20
82.480602299536031
 30
0.0
 11
75.793899391862283
 21
71.180602299534485
 31
0.0
  0
LINE
  5
B9
  8
0
 10
75.793899391862283
 20
71.180602299534485
 30
0.0
 11
57.793899391862283
 21
71.180602299534485
 31
0.0
  0
LINE
  5
BA
  8
0
 10
74.581463826566619
 20
83.180602299534485
 30
0.0
 11
59.006334957157939
 21
83.180602299534485
 31
0.0
  0
LINE
  5
BB
  8
3
 10
61.693899391862828
 20
66.180602299534485
 30
0.0
 11
60.793899391862283
 21
67.980602299534482
 31
0.0
  0
LINE
  5
BC
  8
0
 10
60.793899391862283
 20
71.180602299534485
 30
0.0
 11
60.793899391862283
 21
52.180602299534478
 31
0.0
  0
LINE
  5
BD
  8
2
 10
60.793899391862283
 20
37.680602299534478
 30
0.0
 11
62.293899391862283
 21
36.180602299534492
 31
0.0
  0
LINE
  5
BE
  8
3
 10
61.693899391862828
 20
66.18060229953447
 30
0.0
 11
61.693899391862828
 21
52.180602299534478
 31
0.0
  0
LINE
  5
BF
  8
0
 10
57.793899391862283
 20
82.480602299536031
 30
0.0
 11
57.793899391862283
 21
71.180602299534485
 31
0.0
  0
LINE
  5
C0
  8
0
 10
59.006334957157939
 20
83.180602299534485
 30
0.0
 11
57.793899391859547
 21
82.480602299534226
 31
0.0
  0
LINE
  5
C1
  8
2
 10
72.793899391862283
 20
52.180602299534478
 30
0.0
 11
72.793899391862283
 21
37.680602299534478
 31
0.0
  0
LINE
  5
C2
  8
2
 10
71.893899391861737
 20
52.180602299534478
 30
0.0
 11
71.893899391861737
 21
36.780602299533939
 31
0.0
  0
LINE
  5
C3
  8
2
 10
61.693899391862828
 20
52.180602299534478
 30
0.0
 11
61.693899391862828
 21
36.780602299533939
 31
0.0
  0
LINE
  5
C4
  8
2
 10
60.793899391862283
 20
52.180602299534478
 30
0.0
 11
60.793899391862283
 21
37.680602299534478
 31
0.0
  0
LINE
  5
15A
  8
0
 10
127.1572177070186
 20
83.180602299534485
 30
0.0
 11
111.5820888376099
 21
83.180602299534485
 31
0.0
  0
LINE
  5
15B
  8
0
 10
128.36965327231431
 20
71.180602299534485
 30
0.0
 11
110.3696532723143
 21
71.180602299534485
 31
0.0
  0
LINE
  5
15C
  8
0
 10
128.36965327231431
 20
82.480602299536031
 30
0.0
 11
128.36965327231431
 21
71.180602299534485
 31
0.0
  0
LINE
  5
15D
  8
0
 10
127.1572177070186
 20
83.180602299534485
 30
0.0
 11
128.36965327231701
 21
82.480602299534226
 31
0.0
  0
LINE
  5
15E
  8
0
 10
128.36965327231431
 20
82.480602299536031
 30
0.0
 11
110.3696532723143
 21
82.480602299536031
 31
0.0
  0
LINE
  5
15F
  8
0
 10
125.3696532723143
 20
71.180602299534485
 30
0.0
 11
125.3696532723143
 21
52.180602299534478
 31
0.0
  0
LINE
  5
160
  8
3
 10
124.46965327231371
 20
66.18060229953447
 30
0.0
 11
124.46965327231371
 21
52.180602299534478
 31
0.0
  0
LINE
  5
161
  8
0
 10
125.3696532723143
 20
66.18060229953447
 30
0.0
 11
113.3696532723142
 21
66.18060229953447
 31
0.0
  0
LINE
  5
162
  8
3
 10
124.46965327231371
 20
66.180602299534485
 30
0.0
 11
125.3696532723143
 21
67.980602299534482
 31
0.0
  0
LINE
  5
163
  8
0
 10
111.5820888376099
 20
83.180602299534485
 30
0.0
 11
110.3696532723115
 21
82.480602299534226
 31
0.0
  0
LINE
  5
164
  8
0
 10
110.3696532723143
 20
82.480602299536031
 30
0.0
 11
110.3696532723143
 21
71.180602299534485
 31
0.0
  0
LINE
  5
165
  8
3
 10
114.2696532723148
 20
66.18060229953447
 30
0.0
 11
114.2696532723148
 21
52.180602299534478
 31
0.0
  0
LINE
  5
166
  8
0
 10
113.3696532723142
 20
71.180602299534485
 30
0.0
 11
113.3696532723142
 21
52.180602299534478
 31
0.0
  0
LINE
  5
167
  8
3
 10
114.2696532723148
 20
66.180602299534485
 30
0.0
 11
113.3696532723142
 21
67.980602299534482
 31
0.0
  0
LINE
  5
168
  8
2
 10
113.3696532723142
 20
52.180602299534478
 30
0.0
 11
113.3696532723142
 21
37.680602299534478
 31
0.0
  0
LINE
  5
169
  8
2
 10
114.2696532723148
 20
52.180602299534478
 30
0.0
 11
114.2696532723148
 21
36.780602299533939
 31
0.0
  0
LINE
  5
16A
  8
2
 10
124.46965327231371
 20
52.180602299534478
 30
0.0
 11
124.46965327231371
 21
36.780602299533939
 31
0.0
  0
LINE
  5
16B
  8
2
 10
125.3696532723143
 20
52.180602299534478
 30
0.0
 11
125.3696532723143
 21
37.680602299534478
 31
0.0
  0
LINE
  5
16C
  8
2
 10
113.3696532723142
 20
37.680602299534478
 30
0.0
 11
114.8696532723143
 21
36.180602299534492
 31
0.0
  0
LINE
  5
16D
  8
2
 10
114.8696532723143
 20
36.180602299534492
 30
0.0
 11
123.8696532723142
 21
36.180602299534492
 31
0.0
  0
LINE
  5
16E
  8
2
 10
125.3696532723143
 20
37.680602299534478
 30
0.0
 11
123.8696532723142
 21
36.180602299534492
 31
0.0
  0
LINE
  5
16F
  8
2
 10
125.3696532723143
 20
37.680602299534478
 30
0.0
 11
113.3696532723142
 21
37.680602299534478
 31
0.0
  0
TEXT
  5
274
  8
0
 62
     3
 10
0.0
 20
0.0
 30
0.0
 40
5.0
  1
CLT-T14M12
  7
STANDARD1
  0
ENDSEC
  0
EOF
