  0
SECTION
  2
HEADER
  9
$ACADVER
  1
AC1009
  9
$INSBASE
 10
0.0
 20
0.0
 30
0.0
  9
$EXTMIN
 10
0.0
 20
-2.960436562073669
 30
0.0
  9
$EXTMAX
 10
145.48295818501211
 20
97.778908375032714
 30
0.0
  9
$LIMMIN
 10
0.0
 20
0.0
  9
$LIMMAX
 10
187.5
 20
135.0
  9
$ORTHOMODE
 70
     1
  9
$REGENMODE
 70
     1
  9
$FILLMODE
 70
     1
  9
$QTEXTMODE
 70
     0
  9
$MIRRTEXT
 70
     0
  9
$DRAGMODE
 70
     2
  9
$LTSCALE
 40
5.0
  9
$OSMODE
 70
    37
  9
$ATTMODE
 70
     1
  9
$TEXTSIZE
 40
0.2
  9
$TRACEWID
 40
0.05
  9
$TEXTSTYLE
  7
STANDARD
  9
$CLAYER
  8
0
  9
$CELTYPE
  6
BYLAYER
  9
$CECOLOR
 62
   256
  9
$DIMSCALE
 40
0.5
  9
$DIMASZ
 40
3.0
  9
$DIMEXO
 40
2.0
  9
$DIMDLI
 40
0.38
  9
$DIMRND
 40
0.0
  9
$DIMDLE
 40
0.0
  9
$DIMEXE
 40
2.0
  9
$DIMTP
 40
0.0
  9
$DIMTM
 40
0.0
  9
$DIMTXT
 40
3.0
  9
$DIMCEN
 40
0.0
  9
$DIMTSZ
 40
0.0
  9
$DIMTOL
 70
     0
  9
$DIMLIM
 70
     0
  9
$DIMTIH
 70
     0
  9
$DIMTOH
 70
     0
  9
$DIMSE1
 70
     0
  9
$DIMSE2
 70
     0
  9
$DIMTAD
 70
     1
  9
$DIMZIN
 70
     0
  9
$DIMBLK
  1

  9
$DIMASO
 70
     0
  9
$DIMSHO
 70
     0
  9
$DIMPOST
  1

  9
$DIMAPOST
  1

  9
$DIMALT
 70
     0
  9
$DIMALTD
 70
     2
  9
$DIMALTF
 40
25.399999999999999
  9
$DIMLFAC
 40
1.0
  9
$DIMTOFL
 70
     1
  9
$DIMTVP
 40
1.6000000000000001
  9
$DIMTIX
 70
     1
  9
$DIMSOXD
 70
     0
  9
$DIMSAH
 70
     0
  9
$DIMBLK1
  1

  9
$DIMBLK2
  1

  9
$DIMSTYLE
  2
STANDARD
  9
$DIMCLRD
 70
     0
  9
$DIMCLRE
 70
     0
  9
$DIMCLRT
 70
     0
  9
$DIMTFAC
 40
1.0
  9
$DIMGAP
 40
0.09
  9
$LUNITS
 70
     2
  9
$LUPREC
 70
     4
  9
$SKETCHINC
 40
0.1
  9
$FILLETRAD
 40
0.0
  9
$AUNITS
 70
     0
  9
$AUPREC
 70
     4
  9
$MENU
  1
E:\r13\win\SUPPORT\ACAD
  9
$ELEVATION
 40
0.0
  9
$PELEVATION
 40
0.0
  9
$THICKNESS
 40
0.0
  9
$LIMCHECK
 70
     0
  9
$BLIPMODE
 70
     0
  9
$CHAMFERA
 40
0.0
  9
$CHAMFERB
 40
0.0
  9
$SKPOLY
 70
     0
  9
$TDCREATE
 40
2451584.6354815969
  9
$TDUPDATE
 40
2456807.4623721298
  9
$TDINDWG
 40
0.0314659259
  9
$TDUSRTIMER
 40
0.0314659259
  9
$USRTIMER
 70
     1
  9
$ANGBASE
 50
0.0
  9
$ANGDIR
 70
     0
  9
$PDMODE
 70
     0
  9
$PDSIZE
 40
0.0
  9
$PLINEWID
 40
0.0
  9
$COORDS
 70
     1
  9
$SPLFRAME
 70
     0
  9
$SPLINETYPE
 70
     6
  9
$SPLINESEGS
 70
     8
  9
$ATTDIA
 70
     0
  9
$ATTREQ
 70
     1
  9
$HANDLING
 70
     1
  9
$HANDSEED
  5
909
  9
$SURFTAB1
 70
     6
  9
$SURFTAB2
 70
     6
  9
$SURFTYPE
 70
     6
  9
$SURFU
 70
     6
  9
$SURFV
 70
     6
  9
$UCSNAME
  2

  9
$UCSORG
 10
0.0
 20
0.0
 30
0.0
  9
$UCSXDIR
 10
1.0
 20
0.0
 30
0.0
  9
$UCSYDIR
 10
0.0
 20
1.0
 30
0.0
  9
$PUCSNAME
  2

  9
$PUCSORG
 10
0.0
 20
0.0
 30
0.0
  9
$PUCSXDIR
 10
1.0
 20
0.0
 30
0.0
  9
$PUCSYDIR
 10
0.0
 20
1.0
 30
0.0
  9
$USERI1
 70
     0
  9
$USERI2
 70
     1
  9
$USERI3
 70
     1
  9
$USERI4
 70
     0
  9
$USERI5
 70
     0
  9
$USERR1
 40
0.0
  9
$USERR2
 40
0.0
  9
$USERR3
 40
0.0
  9
$USERR4
 40
0.0
  9
$USERR5
 40
0.0
  9
$WORLDVIEW
 70
     1
  9
$SHADEDGE
 70
     3
  9
$SHADEDIF
 70
    70
  9
$TILEMODE
 70
     1
  9
$MAXACTVP
 70
    16
  9
$PLIMCHECK
 70
     0
  9
$PEXTMIN
 10
1.0000000000000000E+020
 20
1.0000000000000000E+020
 30
1.0000000000000000E+020
  9
$PEXTMAX
 10
-1.0000000000000000E+020
 20
-1.0000000000000000E+020
 30
-1.0000000000000000E+020
  9
$PLIMMIN
 10
0.0
 20
0.0
  9
$PLIMMAX
 10
12.0
 20
9.0
  9
$UNITMODE
 70
     0
  9
$VISRETAIN
 70
     0
  9
$PLINEGEN
 70
     0
  9
$PSLTSCALE
 70
     0
  0
ENDSEC
  0
SECTION
  2
TABLES
  0
TABLE
  2
VPORT
 70
     1
  0
VPORT
  2
*ACTIVE
 70
     0
 10
0.0
 20
0.0
 11
1.0
 21
1.0
 12
142.8907905920025
 22
66.015571757538481
 13
0.0
 23
0.0
 14
5.0
 24
5.0
 15
5.0
 25
5.0
 16
0.0
 26
0.0
 36
1.0
 17
0.0
 27
0.0
 37
0.0
 40
139.18265874138859
 41
2.6019575856443709
 42
50.0
 43
0.0
 44
0.0
 50
0.0
 51
0.0
 71
     0
 72
   500
 73
     1
 74
     0
 75
     0
 76
     0
 77
     0
 78
     2
  0
ENDTAB
  0
TABLE
  2
LTYPE
 70
     3
  0
LTYPE
  2
CONTINUOUS
 70
     0
  3
Solid Line
 72
    65
 73
     0
 40
0.0
  0
LTYPE
  2
CENTER
 70
     0
  3
____ _ ____ _ ____ _ ____ _ ____ _ ____ _ ____
 72
    65
 73
     4
 40
2.0
 49
1.25
 49
-0.25
 49
0.25
 49
-0.25
  0
LTYPE
  2
PHANTOM2
 70
     0
  3
___ _ _ ___ _ _ ___ _ _ ___ _ _
 72
    65
 73
     6
 40
1.25
 49
0.625
 49
-0.125
 49
0.125
 49
-0.125
 49
0.125
 49
-0.125
  0
ENDTAB
  0
TABLE
  2
LAYER
 70
     3
  0
LAYER
  2
0
 70
     0
 62
     7
  6
CONTINUOUS
  0
LAYER
  2
1
 70
     0
 62
     1
  6
CENTER
  0
LAYER
  2
3
 70
     0
 62
     3
  6
CONTINUOUS
  0
ENDTAB
  0
TABLE
  2
STYLE
 70
     2
  0
STYLE
  2
STANDARD
 70
     0
 40
0.0
 41
1.0
 50
0.0
 71
     0
 42
0.2
  3
TXT
  4
BIGFONT
  0
STYLE
  2
STANDARD1
 70
     0
 40
0.0
 41
1.0
 50
0.0
 71
     0
 42
3.0
  3
txt
  4

  0
ENDTAB
  0
TABLE
  2
VIEW
 70
     1
  0
VIEW
  2
ALL
 70
     0
 40
175.0
 10
142.73710148381011
 20
87.5
 41
0.0
 11
0.0
 21
0.0
 31
1.0
 12
0.0
 22
0.0
 32
0.0
 42
0.0
 43
0.0
 44
0.0
 50
0.0
 71
     0
  0
ENDTAB
  0
TABLE
  2
UCS
 70
     0
  0
ENDTAB
  0
TABLE
  2
APPID
 70
     9
  0
APPID
  2
ACAD
 70
     0
  0
APPID
  2
GENIUS_GENODEF_13
 70
     0
  0
APPID
  2
GENIUS_GENOBJ-N-FIL_13
 70
     0
  0
APPID
  2
GENIUS_GENOREF_13
 70
     0
  0
APPID
  2
GENIUS_GENFIL_13
 70
     0
  0
APPID
  2
GENIUS_GENOBJ-N-CHA_13
 70
     0
  0
APPID
  2
ACAD_MLEADERVER
 70
     0
  0
APPID
  2
ACAD_NAV_VCDISPLAY
 70
     0
  0
APPID
  2
ACAD_EXEMPT_FROM_CAD_STANDARDS
 70
     0
  0
ENDTAB
  0
TABLE
  2
DIMSTYLE
 70
     1
  0
DIMSTYLE
  2
STANDARD
 70
     0
  3

  4

  5

  6

  7

 40
1.0
 41
0.18
 42
0.0625
 43
0.38
 44
0.18
 45
0.0
 46
0.0
 47
0.0
 48
0.0
140
0.18
141
0.09
142
0.0
143
25.399999999999999
144
1.0
145
0.0
146
1.0
147
0.09
 71
     0
 72
     0
 73
     1
 74
     1
 75
     0
 76
     0
 77
     0
 78
     0
170
     0
171
     2
172
     0
173
     0
174
     0
175
     0
176
     0
177
     0
178
     0
  0
ENDTAB
  0
ENDSEC
  0
SECTION
  2
BLOCKS
  0
BLOCK
  8
0
  2
$MODEL_SPACE
 70
     0
 10
0.0
 20
0.0
 30
0.0
  3
$MODEL_SPACE
  1

  0
ENDBLK
  5
49C
  8
0
  0
BLOCK
 67
     1
  8
0
  2
$PAPER_SPACE
 70
     0
 10
0.0
 20
0.0
 30
0.0
  3
$PAPER_SPACE
  1

  0
ENDBLK
  5
49A
 67
     1
  8
0
  0
ENDSEC
  0
SECTION
  2
ENTITIES
  0
ARC
  5
673
  8
0
 10
60.992292327208979
 20
71.528908375032927
 30
0.0
 40
20.04026063373334
 50
45.913048833629311
 51
62.086951166370923
  0
ARC
  5
675
  8
0
 10
60.9922923272091
 20
71.528908375032586
 30
0.0
 40
20.04026063373334
 50
297.91304883363051
 51
314.0869511663721
  0
CIRCLE
  5
676
  8
0
 10
60.9922923272091
 20
71.528908375032699
 30
0.0
 40
21.25
  0
CIRCLE
  5
678
  8
0
 10
60.9922923272091
 20
71.528908375032699
 30
0.0
 40
18.920718961148332
  0
ARC
  5
67A
  8
0
 10
60.99229232720905
 20
71.528908375032699
 30
0.0
 40
20.04026063373334
 50
333.9130488336304
 51
350.08695116637188
  0
LINE
  5
67D
  8
0
 10
78.99100644875891
 20
62.716511638691067
 30
0.0
 11
79.983677197692884
 21
61.995294123283493
 31
0.0
1001
GENIUS_GENOREF_13
1005
0
  0
LINE
  5
680
  8
0
 10
74.935288207940843
 20
57.134294377503501
 30
0.0
 11
75.927958956874761
 21
56.41307686209592
 31
0.0
1001
GENIUS_GENOREF_13
1005
0
  0
LINE
  5
683
  8
0
 10
80.733354767411299
 20
68.07890837503291
 30
0.0
 11
81.960363292369436
 21
68.078908375032753
 31
0.0
1001
GENIUS_GENOREF_13
1005
0
  0
LINE
  5
686
  8
0
 10
80.733354767411228
 20
74.978908375033186
 30
0.0
 11
81.960363292369323
 21
74.978908375033186
 31
0.0
1001
GENIUS_GENOREF_13
1005
0
  0
ARC
  5
687
  8
0
 10
60.9922923272091
 20
71.528908375032699
 30
0.0
 40
20.04026063373334
 50
9.9130488336302278
 51
26.086951166371868
  0
LINE
  5
68A
  8
0
 10
74.935288207940374
 20
85.923522372562346
 30
0.0
 11
75.92795895687442
 21
86.644739887969834
 31
0.0
1001
GENIUS_GENOREF_13
1005
0
  0
LINE
  5
68C
  8
0
 10
78.991006448758597
 20
80.341305111375064
 30
0.0
 11
79.983677197692714
 21
81.062522626782481
 31
0.0
1001
GENIUS_GENOREF_13
1005
0
  0
ARC
  5
690
  8
0
 10
60.99229232720915
 20
71.528908375032699
 30
0.0
 40
20.04026063373334
 50
225.91304883363
 51
242.08695116637179
  0
ARC
  5
692
  8
0
 10
60.99229232720905
 20
71.528908375032813
 30
0.0
 40
20.04026063373334
 50
261.91304883363028
 51
278.08695116637159
  0
LINE
  5
694
  8
0
 10
70.373761089467365
 20
53.820150933282612
 30
0.0
 11
70.752927575922186
 21
52.6531964800715
 31
0.0
1001
GENIUS_GENOREF_13
1005
0
  0
LINE
  5
697
  8
0
 10
63.811471127030359
 20
51.68793367209544
 30
0.0
 11
64.190637613485421
 21
50.520979218884172
 31
0.0
1001
GENIUS_GENOREF_13
1005
0
  0
LINE
  5
69B
  8
0
 10
58.173113527388402
 20
51.687933672095333
 30
0.0
 11
57.79394704093334
 21
50.520979218884172
 31
0.0
1001
GENIUS_GENOREF_13
1005
0
  0
LINE
  5
69E
  8
0
 10
51.610823564951602
 20
53.820150933282342
 30
0.0
 11
51.231657078496539
 21
52.653196480071351
 31
0.0
1001
GENIUS_GENOREF_13
1005
0
  0
ARC
  5
69F
  8
0
 10
60.9922923272091
 20
71.528908375032699
 30
0.0
 40
20.04026063373334
 50
189.9130488336302
 51
206.0869511663719
  0
LINE
  5
6A2
  8
0
 10
47.049296446477911
 20
57.134294377503132
 30
0.0
 11
46.056625697543893
 21
56.413076862095572
 31
0.0
1001
GENIUS_GENOREF_13
1005
0
  0
LINE
  5
6A5
  8
0
 10
42.993578205659603
 20
62.716511638690342
 30
0.0
 11
42.000907456725479
 21
61.995294123282918
 31
0.0
1001
GENIUS_GENOREF_13
1005
0
  0
LINE
  5
6A8
  8
0
 10
41.251229887006978
 20
68.078908375032199
 30
0.0
 11
40.02422136204887
 21
68.078908375032199
 31
0.0
1001
GENIUS_GENOREF_13
1005
0
  0
LINE
  5
6AB
  8
0
 10
41.25122988700673
 20
74.978908375032631
 30
0.0
 11
40.024221362048699
 21
74.978908375032631
 31
0.0
1001
GENIUS_GENOREF_13
1005
0
  0
ARC
  5
6AC
  8
0
 10
60.992292327208979
 20
71.528908375032813
 30
0.0
 40
20.04026063373334
 50
153.91304883363011
 51
170.0869511663717
  0
ARC
  5
6AD
  8
0
 10
60.992292327209213
 20
71.528908375032699
 30
0.0
 40
20.04026063373334
 50
117.9130488336303
 51
134.08695116637219
  0
ARC
  5
6AE
  8
0
 10
60.9922923272091
 20
71.528908375032699
 30
0.0
 40
20.04026063373334
 50
81.913048833629787
 51
98.086951166371364
  0
LINE
  5
6B1
  8
0
 10
63.811471127029918
 20
91.369883077970144
 30
0.0
 11
64.190637613484967
 21
92.536837531181234
 31
0.0
1001
GENIUS_GENOREF_13
1005
0
  0
LINE
  5
6B3
  8
0
 10
70.373761089466811
 20
89.237665816783135
 30
0.0
 11
70.752927575921703
 21
90.40462026999414
 31
0.0
1001
GENIUS_GENOREF_13
1005
0
  0
LINE
  5
6B6
  8
0
 10
51.610823564950977
 20
89.237665816782695
 30
0.0
 11
51.231657078495971
 21
90.404620269993814
 31
0.0
1001
GENIUS_GENOREF_13
1005
0
  0
LINE
  5
6B9
  8
0
 10
58.173113527387869
 20
91.369883077970073
 30
0.0
 11
57.793947040932999
 21
92.536837531181234
 31
0.0
1001
GENIUS_GENOREF_13
1005
0
  0
LINE
  5
6BB
  8
0
 10
42.993578205659169
 20
80.341305111374524
 30
0.0
 11
42.000907456725251
 21
81.062522626781913
 31
0.0
1001
GENIUS_GENOREF_13
1005
0
  0
LINE
  5
6BE
  8
0
 10
47.049296446477413
 20
85.92352237256172
 30
0.0
 11
46.056625697543431
 21
86.644739887969365
 31
0.0
1001
GENIUS_GENOREF_13
1005
0
  0
ARC
  5
6C0
  8
0
 10
113.3524998575968
 20
79.955351477566239
 30
0.0
 40
0.75
 50
119.74440988818949
 51
180.0
1001
GENIUS_GENODEF_13
1002
{
1000
HIER
1070
     0
1002
}
1002
{
1000
MANEDIT
1070
     0
1002
}
1002
{
1000
NOSEL
1070
     0
1002
}
1002
{
1000
BEHIND
1070
     0
1002
}
1002
{
1000
REACTOR
1002
}
1001
GENIUS_GENOBJ-N-FIL_13
1002
{
1000
OWNER
1000
GEN
1002
}
  0
LINE
  5
6C6
  8
0
 10
113.7220415301818
 20
61.713783944563893
 30
0.0
 11
125.4829581850102
 21
61.713783944563893
 31
0.0
  0
LINE
  5
6C7
  8
0
 10
113.7220415301816
 20
56.504935676811158
 30
0.0
 11
125.4829581850104
 21
56.504935676811158
 31
0.0
  0
LINE
  5
6C8
  8
0
 10
113.7220415301818
 20
52.410851978845074
 30
0.0
 11
125.48295818500981
 21
52.410851978844391
 31
0.0
  0
LINE
  5
6C9
  8
0
 10
125.48295818501001
 20
53.86750071169643
 30
0.0
 11
112.6042126516453
 21
53.86750071169643
 31
0.0
  0
LINE
  5
6CA
  8
0
 10
113.7220415301818
 20
50.278906068714718
 30
0.0
 11
127.482958185012
 21
50.278906068714832
 31
0.0
  0
LINE
  5
6CC
  8
0
 10
125.4829581850105
 20
68.078908375032427
 30
0.0
 11
112.90249985759699
 21
68.078908375032427
 31
0.0
  0
LINE
  5
6CD
  8
0
 10
112.6024998575968
 20
63.102465272499153
 30
0.0
 11
125.4829581850105
 21
63.102465272499153
 31
0.0
  0
LINE
  5
6CE
  8
0
 10
112.6024998575968
 20
79.955351477566239
 30
0.0
 11
125.4829581850105
 21
79.955351477566239
 31
0.0
  0
LINE
  5
6D0
  8
0
 10
125.4829581850105
 20
74.978908375032972
 30
0.0
 11
112.90249985759699
 21
74.978908375032972
 31
0.0
  0
LINE
  5
6D1
  8
1
 10
145.48295818501211
 20
71.528908375032699
 30
0.0
 11
106.48295818501209
 21
71.528908375032699
 31
0.0
1001
GENIUS_GENOREF_13
1005
0
  0
LINE
  5
6D2
  8
0
 10
129.482958185012
 20
51.528908375032699
 30
0.0
 11
129.482958185012
 21
91.528908375032685
 31
0.0
  0
LINE
  5
6D3
  8
0
 10
138.4829581850118
 20
54.878908375032609
 30
0.0
 11
138.4829581850118
 21
88.178908375033231
 31
0.0
  0
LINE
  5
6D4
  8
0
 10
140.48295818501211
 20
56.47890837503251
 30
0.0
 11
140.48295818501211
 21
86.578908375032881
 31
0.0
  0
LINE
  5
6D5
  8
0
 10
127.482958185012
 20
50.278906068714832
 30
0.0
 11
127.4829581850116
 21
92.778910681350567
 31
0.0
  0
LINE
  5
6D6
  8
0
 10
125.4829581850105
 20
92.778910681350567
 30
0.0
 11
125.4829581850104
 21
50.278906068714811
 31
0.0
  0
LINE
  5
6D7
  8
0
 10
138.48295818501211
 20
54.878908375032147
 30
0.0
 11
129.48295818501211
 21
54.878908375032381
 31
0.0
1001
GENIUS_GENOREF_13
1005
0
  0
LINE
  5
6D8
  8
3
 10
138.4829581850118
 20
56.478908375032397
 30
0.0
 11
129.48295818501211
 21
56.47890837503251
 31
0.0
1001
GENIUS_GENOREF_13
1005
0
  0
LINE
  5
6D9
  8
0
 10
138.4829581850118
 20
56.478908375032397
 30
0.0
 11
140.48295818501211
 21
56.478908375032397
 31
0.0
  0
LINE
  5
6DB
  8
0
 10
127.482958185012
 20
51.528908375032699
 30
0.0
 11
129.482958185012
 21
51.528908375032699
 31
0.0
  0
LINE
  5
6DC
  8
0
 10
112.6024998575968
 20
63.102465272499153
 30
0.0
 11
112.6024998575968
 21
67.778908375032472
 31
0.0
  0
LINE
  5
6DD
  8
0
 10
111.48295818501209
 20
52.517989413884287
 30
0.0
 11
111.48295818501219
 21
90.539827336181247
 31
0.0
  0
LINE
  5
6DE
  8
0
 10
112.6024998575968
 20
53.912804345044549
 30
0.0
 11
112.6024998575968
 21
56.822684917305928
 31
0.0
  0
ARC
  5
6DF
  8
0
 10
113.3720415301817
 20
52.410851978845074
 30
0.0
 40
0.35
 50
0.0
 51
34.422477934898843
1001
GENIUS_GENODEF_13
1002
{
1000
HIER
1070
     0
1002
}
1002
{
1000
MANEDIT
1070
     0
1002
}
1002
{
1000
NOSEL
1070
     0
1002
}
1002
{
1000
BEHIND
1070
     0
1002
}
1002
{
1000
REACTOR
1002
}
1001
GENIUS_GENOBJ-N-FIL_13
1002
{
1000
OWNER
1000
GEN
1002
}
  0
ARC
  5
6E0
  8
0
 10
113.202499857597
 20
53.912804345044549
 30
0.0
 40
0.6
 50
180.0
 51
227.24435590511359
1001
GENIUS_GENODEF_13
1002
{
1000
HIER
1070
     0
1002
}
1002
{
1000
MANEDIT
1070
     0
1002
}
1002
{
1000
NOSEL
1070
     0
1002
}
1002
{
1000
BEHIND
1070
     0
1002
}
1002
{
1000
REACTOR
1002
}
1001
GENIUS_GENOBJ-N-FIL_13
1002
{
1000
OWNER
1000
GEN
1002
}
  0
LINE
  5
6E1
  8
0
 10
113.3769476363065
 20
52.934360513046698
 30
0.0
 11
112.7951760102511
 21
53.472250961919087
 31
0.0
  0
ARC
  5
6E2
  8
0
 10
112.1220898534162
 20
51.554271732840277
 30
0.0
 40
1.8652916920771601
 50
34.422477934905721
 51
47.721046619565037
  0
LINE
  5
6E3
  8
0
 10
113.7220415301818
 20
50.278906068714733
 30
0.0
 11
113.7220415301818
 21
52.410851978845074
 31
0.0
  0
LINE
  5
6E4
  8
0
 10
111.48295818501209
 20
52.517989413884258
 30
0.0
 11
113.7220415301818
 21
50.278906068714718
 31
0.0
1001
GENIUS_GENFIL_13
1070
     1
1040
0.0
1040
0.0
1040
2.2000000000000002
1040
45.0
1002
{
1002
}
1001
GENIUS_GENODEF_13
1002
{
1000
HIER
1070
     0
1002
}
1002
{
1000
MANEDIT
1070
     0
1002
}
1002
{
1000
NOSEL
1070
     0
1002
}
1002
{
1000
BEHIND
1070
     0
1002
}
1002
{
1000
REACTOR
1002
}
1001
GENIUS_GENOBJ-N-CHA_13
1002
{
1000
OWNER
1000
GEN
1002
}
  0
LINE
  5
6E5
  8
0
 10
112.8285760600712
 20
56.951961409434318
 30
0.0
 11
113.6731522360929
 21
56.454948015009727
 31
0.0
  0
ARC
  5
6E6
  8
0
 10
112.7524998575969
 20
56.822684917305928
 30
0.0
 40
0.15
 50
59.524180621267853
 51
180.0
1001
GENIUS_GENODEF_13
1002
{
1000
HIER
1070
     0
1002
}
1002
{
1000
MANEDIT
1070
     0
1002
}
1002
{
1000
NOSEL
1070
     0
1002
}
1002
{
1000
BEHIND
1070
     0
1002
}
1002
{
1000
REACTOR
1002
}
1001
GENIUS_GENOBJ-N-FIL_13
1002
{
1000
OWNER
1000
GEN
1002
}
  0
ARC
  5
6E7
  8
0
 10
113.6720415301816
 20
56.504935676811158
 30
0.0
 40
0.05
 50
271.27287992207761
 51
0.0
1001
GENIUS_GENODEF_13
1002
{
1000
HIER
1070
     0
1002
}
1002
{
1000
MANEDIT
1070
     0
1002
}
1002
{
1000
NOSEL
1070
     0
1002
}
1002
{
1000
BEHIND
1070
     0
1002
}
1002
{
1000
REACTOR
1002
}
1001
GENIUS_GENOBJ-N-FIL_13
1002
{
1000
OWNER
1000
GEN
1002
}
  0
LINE
  5
6E8
  8
0
 10
113.5016667947362
 20
62.153419381737017
 30
0.0
 11
112.98040101153251
 21
62.4512798543904
 31
0.0
  0
ARC
  5
6E9
  8
0
 10
113.16830559949
 20
61.711265406887662
 30
0.0
 40
0.5537416581501468
 50
359.73940541625751
 51
52.985598641653951
  0
LINE
  5
6EA
  8
0
 10
113.7220415301816
 20
56.504935676811158
 30
0.0
 11
113.7220415301821
 21
61.71378394446316
 31
0.0
  0
ARC
  5
6EB
  8
0
 10
113.3524998575968
 20
63.102465272499153
 30
0.0
 40
0.75
 50
180.0
 51
240.25559011181039
1001
GENIUS_GENODEF_13
1002
{
1000
HIER
1070
     0
1002
}
1002
{
1000
MANEDIT
1070
     0
1002
}
1002
{
1000
NOSEL
1070
     0
1002
}
1002
{
1000
BEHIND
1070
     0
1002
}
1002
{
1000
REACTOR
1002
}
1001
GENIUS_GENOBJ-N-FIL_13
1002
{
1000
OWNER
1000
GEN
1002
}
  0
LINE
  5
6EC
  8
0
 10
113.7220415301816
 20
74.678908375033004
 30
0.0
 11
113.7220415301818
 21
71.528908375032699
 31
0.0
  0
ARC
  5
6ED
  8
0
 10
113.4220415301816
 20
68.378908375032381
 30
0.0
 40
0.3
 50
270.0
 51
0.0
1001
GENIUS_GENODEF_13
1002
{
1000
HIER
1070
     0
1002
}
1002
{
1000
MANEDIT
1070
     0
1002
}
1002
{
1000
NOSEL
1070
     0
1002
}
1002
{
1000
BEHIND
1070
     0
1002
}
1002
{
1000
REACTOR
1002
}
1001
GENIUS_GENOBJ-N-FIL_13
1002
{
1000
OWNER
1000
GEN
1002
}
  0
ARC
  5
6EE
  8
0
 10
112.90249985759699
 20
67.778908375032472
 30
0.0
 40
0.3
 50
90.0
 51
180.0
1001
GENIUS_GENODEF_13
1002
{
1000
HIER
1070
     0
1002
}
1002
{
1000
MANEDIT
1070
     0
1002
}
1002
{
1000
NOSEL
1070
     0
1002
}
1002
{
1000
BEHIND
1070
     0
1002
}
1002
{
1000
REACTOR
1002
}
1001
GENIUS_GENOBJ-N-FIL_13
1002
{
1000
OWNER
1000
GEN
1002
}
  0
LINE
  5
6EF
  8
0
 10
113.7220415301816
 20
68.378908375032381
 30
0.0
 11
113.7220415301818
 21
71.528908375032699
 31
0.0
  0
ARC
  5
6F0
  8
0
 10
113.4220415301816
 20
74.678908375033004
 30
0.0
 40
0.3
 50
0.0
 51
90.0
1001
GENIUS_GENODEF_13
1002
{
1000
HIER
1070
     0
1002
}
1002
{
1000
MANEDIT
1070
     0
1002
}
1002
{
1000
NOSEL
1070
     0
1002
}
1002
{
1000
BEHIND
1070
     0
1002
}
1002
{
1000
REACTOR
1002
}
1001
GENIUS_GENOBJ-N-FIL_13
1002
{
1000
OWNER
1000
GEN
1002
}
  0
ARC
  5
6F1
  8
0
 10
112.90249985759699
 20
75.278908375032927
 30
0.0
 40
0.3
 50
180.0
 51
270.0
1001
GENIUS_GENODEF_13
1002
{
1000
HIER
1070
     0
1002
}
1002
{
1000
MANEDIT
1070
     0
1002
}
1002
{
1000
NOSEL
1070
     0
1002
}
1002
{
1000
BEHIND
1070
     0
1002
}
1002
{
1000
REACTOR
1002
}
1001
GENIUS_GENOBJ-N-FIL_13
1002
{
1000
OWNER
1000
GEN
1002
}
  0
LINE
  5
6F2
  8
0
 10
112.6024998575968
 20
79.955351477566239
 30
0.0
 11
112.6024998575968
 21
75.278908375032927
 31
0.0
  0
LINE
  5
6F3
  8
0
 10
113.7220415301818
 20
90.646964771220325
 30
0.0
 11
125.48295818500981
 21
90.646964771221008
 31
0.0
  0
LINE
  5
6F4
  8
0
 10
113.7220415301816
 20
86.552881073254227
 30
0.0
 11
125.4829581850104
 21
86.552881073254227
 31
0.0
  0
LINE
  5
6F5
  8
0
 10
113.7220415301818
 20
92.778910681350666
 30
0.0
 11
127.482958185012
 21
92.778910681350567
 31
0.0
  0
LINE
  5
6F6
  8
0
 10
125.48295818501001
 20
89.190316038368977
 30
0.0
 11
112.6042126516453
 21
89.190316038368977
 31
0.0
  0
LINE
  5
6F7
  8
0
 10
113.7220415301818
 20
81.344032805501499
 30
0.0
 11
125.4829581850102
 21
81.344032805501499
 31
0.0
  0
LINE
  5
6F8
  8
0
 10
138.48295818501211
 20
88.178908375033245
 30
0.0
 11
129.48295818501211
 21
88.178908375033018
 31
0.0
1001
GENIUS_GENOREF_13
1005
0
  0
LINE
  5
6F9
  8
3
 10
138.4829581850118
 20
86.578908375032881
 30
0.0
 11
129.48295818501211
 21
86.578908375032881
 31
0.0
1001
GENIUS_GENOREF_13
1005
0
  0
LINE
  5
6FA
  8
0
 10
138.4829581850118
 20
86.578908375032881
 30
0.0
 11
140.48295818501211
 21
86.578908375032881
 31
0.0
  0
LINE
  5
6FC
  8
0
 10
127.482958185012
 20
91.528908375032685
 30
0.0
 11
129.482958185012
 21
91.528908375032685
 31
0.0
  0
LINE
  5
6FD
  8
0
 10
112.6024998575968
 20
89.14501240502085
 30
0.0
 11
112.6024998575968
 21
86.235131832759464
 31
0.0
  0
LINE
  5
6FE
  8
0
 10
112.8285760600712
 20
86.105855340631081
 30
0.0
 11
113.6731522360929
 21
86.602868735055665
 31
0.0
  0
ARC
  5
6FF
  8
0
 10
112.7524998575969
 20
86.235131832759464
 30
0.0
 40
0.15
 50
180.0
 51
300.47581937873213
1001
GENIUS_GENODEF_13
1002
{
1000
HIER
1070
     0
1002
}
1002
{
1000
MANEDIT
1070
     0
1002
}
1002
{
1000
NOSEL
1070
     0
1002
}
1002
{
1000
BEHIND
1070
     0
1002
}
1002
{
1000
REACTOR
1002
}
1001
GENIUS_GENOBJ-N-FIL_13
1002
{
1000
OWNER
1000
GEN
1002
}
  0
ARC
  5
700
  8
0
 10
113.6720415301816
 20
86.552881073254227
 30
0.0
 40
0.05
 50
0.0
 51
90.0
1001
GENIUS_GENODEF_13
1002
{
1000
HIER
1070
     0
1002
}
1002
{
1000
MANEDIT
1070
     0
1002
}
1002
{
1000
NOSEL
1070
     0
1002
}
1002
{
1000
BEHIND
1070
     0
1002
}
1002
{
1000
REACTOR
1002
}
1001
GENIUS_GENOBJ-N-FIL_13
1002
{
1000
OWNER
1000
GEN
1002
}
  0
LINE
  5
701
  8
0
 10
113.5016667947362
 20
80.904397368328375
 30
0.0
 11
112.98040101153251
 21
80.606536895675006
 31
0.0
  0
ARC
  5
702
  8
0
 10
113.16830559949
 20
81.346551343177737
 30
0.0
 40
0.5537416581501468
 50
307.01440135834611
 51
0.2605945837424797
  0
LINE
  5
703
  8
0
 10
113.7220415301816
 20
86.552881073254227
 30
0.0
 11
113.7220415301821
 21
81.344032805602239
 31
0.0
  0
LINE
  5
704
  8
0
 10
113.7220415301818
 20
92.778910681350666
 30
0.0
 11
113.7220415301818
 21
90.646964771220325
 31
0.0
  0
LINE
  5
705
  8
0
 10
111.48295818501209
 20
90.539827336181133
 30
0.0
 11
113.7220415301818
 21
92.778910681350666
 31
0.0
1001
GENIUS_GENFIL_13
1070
     1
1040
0.0
1040
0.0
1040
2.2000000000000002
1040
45.0
1002
{
1002
}
1001
GENIUS_GENODEF_13
1002
{
1000
HIER
1070
     0
1002
}
1002
{
1000
MANEDIT
1070
     0
1002
}
1002
{
1000
NOSEL
1070
     0
1002
}
1002
{
1000
BEHIND
1070
     0
1002
}
1002
{
1000
REACTOR
1002
}
1001
GENIUS_GENOBJ-N-CHA_13
1002
{
1000
OWNER
1000
GEN
1002
}
  0
ARC
  5
706
  8
0
 10
112.1220898534162
 20
91.503545017225122
 30
0.0
 40
1.8652916920771601
 50
312.27895338043498
 51
325.57752206509429
  0
LINE
  5
707
  8
0
 10
113.3769476363065
 20
90.123456237018686
 30
0.0
 11
112.7951760102511
 21
89.585565788146312
 31
0.0
  0
ARC
  5
708
  8
0
 10
113.202499857597
 20
89.14501240502085
 30
0.0
 40
0.6
 50
132.75564409488641
 51
180.0
1001
GENIUS_GENODEF_13
1002
{
1000
HIER
1070
     0
1002
}
1002
{
1000
MANEDIT
1070
     0
1002
}
1002
{
1000
NOSEL
1070
     0
1002
}
1002
{
1000
BEHIND
1070
     0
1002
}
1002
{
1000
REACTOR
1002
}
1001
GENIUS_GENOBJ-N-FIL_13
1002
{
1000
OWNER
1000
GEN
1002
}
  0
ARC
  5
709
  8
0
 10
113.3720415301817
 20
90.646964771220325
 30
0.0
 40
0.35
 50
325.57752206510111
 51
0.0
1001
GENIUS_GENODEF_13
1002
{
1000
HIER
1070
     0
1002
}
1002
{
1000
MANEDIT
1070
     0
1002
}
1002
{
1000
NOSEL
1070
     0
1002
}
1002
{
1000
BEHIND
1070
     0
1002
}
1002
{
1000
REACTOR
1002
}
1001
GENIUS_GENOBJ-N-FIL_13
1002
{
1000
OWNER
1000
GEN
1002
}
  0
LINE
  5
70A
  8
1
 10
60.9922923272091
 20
97.778908375032714
 30
0.0
 11
60.992292327209093
 21
45.278908375032699
 31
0.0
  0
LINE
  5
70B
  8
1
 10
87.2422923272091
 20
71.528908375032699
 30
0.0
 11
34.7422923272091
 21
71.528908375032699
 31
0.0
  0
TEXT
  5
7C8
  8
0
 62
     3
 10
0.0
 20
0.0
 30
0.0
 40
10.0
  1
CP-1
  7
STANDARD1
  0
ENDSEC
  0
EOF
