  0
SECTION
  2
HEADER
  9
$ACADVER
  1
AC1009
  9
$INSBASE
 10
0.0
 20
0.0
 30
0.0
  9
$EXTMIN
 10
0.0
 20
-2.960436562073669
 30
0.0
  9
$EXTMAX
 10
146.44386080160621
 20
95.825974788858844
 30
0.0
  9
$LIMMIN
 10
0.0
 20
0.0
  9
$LIMMAX
 10
187.5
 20
135.0
  9
$ORTHOMODE
 70
     0
  9
$REGENMODE
 70
     1
  9
$FILLMODE
 70
     1
  9
$QTEXTMODE
 70
     0
  9
$MIRRTEXT
 70
     0
  9
$DRAGMODE
 70
     2
  9
$LTSCALE
 40
5.0
  9
$OSMODE
 70
    37
  9
$ATTMODE
 70
     1
  9
$TEXTSIZE
 40
0.2
  9
$TRACEWID
 40
0.05
  9
$TEXTSTYLE
  7
STANDARD
  9
$CLAYER
  8
0
  9
$CELTYPE
  6
BYLAYER
  9
$CECOLOR
 62
   256
  9
$DIMSCALE
 40
0.5
  9
$DIMASZ
 40
3.0
  9
$DIMEXO
 40
2.0
  9
$DIMDLI
 40
0.38
  9
$DIMRND
 40
0.0
  9
$DIMDLE
 40
0.0
  9
$DIMEXE
 40
2.0
  9
$DIMTP
 40
0.0
  9
$DIMTM
 40
0.0
  9
$DIMTXT
 40
3.0
  9
$DIMCEN
 40
0.0
  9
$DIMTSZ
 40
0.0
  9
$DIMTOL
 70
     0
  9
$DIMLIM
 70
     0
  9
$DIMTIH
 70
     0
  9
$DIMTOH
 70
     0
  9
$DIMSE1
 70
     0
  9
$DIMSE2
 70
     0
  9
$DIMTAD
 70
     1
  9
$DIMZIN
 70
     0
  9
$DIMBLK
  1

  9
$DIMASO
 70
     0
  9
$DIMSHO
 70
     0
  9
$DIMPOST
  1

  9
$DIMAPOST
  1

  9
$DIMALT
 70
     0
  9
$DIMALTD
 70
     2
  9
$DIMALTF
 40
25.399999999999999
  9
$DIMLFAC
 40
1.0
  9
$DIMTOFL
 70
     1
  9
$DIMTVP
 40
1.6000000000000001
  9
$DIMTIX
 70
     1
  9
$DIMSOXD
 70
     0
  9
$DIMSAH
 70
     0
  9
$DIMBLK1
  1

  9
$DIMBLK2
  1

  9
$DIMSTYLE
  2
STANDARD
  9
$DIMCLRD
 70
     0
  9
$DIMCLRE
 70
     0
  9
$DIMCLRT
 70
     0
  9
$DIMTFAC
 40
1.0
  9
$DIMGAP
 40
0.09
  9
$LUNITS
 70
     2
  9
$LUPREC
 70
     4
  9
$SKETCHINC
 40
0.1
  9
$FILLETRAD
 40
0.0
  9
$AUNITS
 70
     0
  9
$AUPREC
 70
     4
  9
$MENU
  1
E:\r13\win\SUPPORT\ACAD
  9
$ELEVATION
 40
0.0
  9
$PELEVATION
 40
0.0
  9
$THICKNESS
 40
0.0
  9
$LIMCHECK
 70
     0
  9
$BLIPMODE
 70
     0
  9
$CHAMFERA
 40
0.0
  9
$CHAMFERB
 40
0.0
  9
$SKPOLY
 70
     0
  9
$TDCREATE
 40
2451584.6354815969
  9
$TDUPDATE
 40
2456807.4623903478
  9
$TDINDWG
 40
0.0181318171
  9
$TDUSRTIMER
 40
0.0181318171
  9
$USRTIMER
 70
     1
  9
$ANGBASE
 50
0.0
  9
$ANGDIR
 70
     0
  9
$PDMODE
 70
     0
  9
$PDSIZE
 40
0.0
  9
$PLINEWID
 40
0.0
  9
$COORDS
 70
     1
  9
$SPLFRAME
 70
     0
  9
$SPLINETYPE
 70
     6
  9
$SPLINESEGS
 70
     8
  9
$ATTDIA
 70
     0
  9
$ATTREQ
 70
     1
  9
$HANDLING
 70
     1
  9
$HANDSEED
  5
89A
  9
$SURFTAB1
 70
     6
  9
$SURFTAB2
 70
     6
  9
$SURFTYPE
 70
     6
  9
$SURFU
 70
     6
  9
$SURFV
 70
     6
  9
$UCSNAME
  2

  9
$UCSORG
 10
0.0
 20
0.0
 30
0.0
  9
$UCSXDIR
 10
1.0
 20
0.0
 30
0.0
  9
$UCSYDIR
 10
0.0
 20
1.0
 30
0.0
  9
$PUCSNAME
  2

  9
$PUCSORG
 10
0.0
 20
0.0
 30
0.0
  9
$PUCSXDIR
 10
1.0
 20
0.0
 30
0.0
  9
$PUCSYDIR
 10
0.0
 20
1.0
 30
0.0
  9
$USERI1
 70
     0
  9
$USERI2
 70
     1
  9
$USERI3
 70
     1
  9
$USERI4
 70
     0
  9
$USERI5
 70
     0
  9
$USERR1
 40
0.0
  9
$USERR2
 40
0.0
  9
$USERR3
 40
0.0
  9
$USERR4
 40
0.0
  9
$USERR5
 40
0.0
  9
$WORLDVIEW
 70
     1
  9
$SHADEDGE
 70
     3
  9
$SHADEDIF
 70
    70
  9
$TILEMODE
 70
     1
  9
$MAXACTVP
 70
    16
  9
$PLIMCHECK
 70
     0
  9
$PEXTMIN
 10
1.0000000000000000E+020
 20
1.0000000000000000E+020
 30
1.0000000000000000E+020
  9
$PEXTMAX
 10
-1.0000000000000000E+020
 20
-1.0000000000000000E+020
 30
-1.0000000000000000E+020
  9
$PLIMMIN
 10
0.0
 20
0.0
  9
$PLIMMAX
 10
12.0
 20
9.0
  9
$UNITMODE
 70
     0
  9
$VISRETAIN
 70
     0
  9
$PLINEGEN
 70
     0
  9
$PSLTSCALE
 70
     0
  0
ENDSEC
  0
SECTION
  2
TABLES
  0
TABLE
  2
VPORT
 70
     1
  0
VPORT
  2
*ACTIVE
 70
     0
 10
0.0
 20
0.0
 11
1.0
 21
1.0
 12
142.8897815335709
 22
66.018996975376112
 13
0.0
 23
0.0
 14
5.0
 24
5.0
 15
5.0
 25
5.0
 16
0.0
 26
0.0
 36
1.0
 17
0.0
 27
0.0
 37
0.0
 40
139.1757480379508
 41
2.6019575856443709
 42
50.0
 43
0.0
 44
0.0
 50
0.0
 51
0.0
 71
     0
 72
   500
 73
     1
 74
     0
 75
     0
 76
     0
 77
     0
 78
     2
  0
ENDTAB
  0
TABLE
  2
LTYPE
 70
     3
  0
LTYPE
  2
CONTINUOUS
 70
     0
  3
Solid Line
 72
    65
 73
     0
 40
0.0
  0
LTYPE
  2
CENTER
 70
     0
  3
____ _ ____ _ ____ _ ____ _ ____ _ ____ _ ____
 72
    65
 73
     4
 40
2.0
 49
1.25
 49
-0.25
 49
0.25
 49
-0.25
  0
LTYPE
  2
PHANTOM2
 70
     0
  3
___ _ _ ___ _ _ ___ _ _ ___ _ _
 72
    65
 73
     6
 40
1.25
 49
0.625
 49
-0.125
 49
0.125
 49
-0.125
 49
0.125
 49
-0.125
  0
ENDTAB
  0
TABLE
  2
LAYER
 70
     3
  0
LAYER
  2
0
 70
     0
 62
     7
  6
CONTINUOUS
  0
LAYER
  2
1
 70
     0
 62
     1
  6
CENTER
  0
LAYER
  2
3
 70
     0
 62
     3
  6
CONTINUOUS
  0
ENDTAB
  0
TABLE
  2
STYLE
 70
     2
  0
STYLE
  2
STANDARD
 70
     0
 40
0.0
 41
1.0
 50
0.0
 71
     0
 42
0.2
  3
TXT
  4
BIGFONT
  0
STYLE
  2
STANDARD1
 70
     0
 40
0.0
 41
1.0
 50
0.0
 71
     0
 42
3.0
  3
txt
  4

  0
ENDTAB
  0
TABLE
  2
VIEW
 70
     1
  0
VIEW
  2
ALL
 70
     0
 40
175.0
 10
142.73710148381011
 20
87.5
 41
0.0
 11
0.0
 21
0.0
 31
1.0
 12
0.0
 22
0.0
 32
0.0
 42
0.0
 43
0.0
 44
0.0
 50
0.0
 71
     0
  0
ENDTAB
  0
TABLE
  2
UCS
 70
     0
  0
ENDTAB
  0
TABLE
  2
APPID
 70
     7
  0
APPID
  2
ACAD
 70
     0
  0
APPID
  2
GENIUS_GENODEF_13
 70
     0
  0
APPID
  2
GENIUS_GENOBJ-N-FIL_13
 70
     0
  0
APPID
  2
GENIUS_GENOREF_13
 70
     0
  0
APPID
  2
ACAD_MLEADERVER
 70
     0
  0
APPID
  2
ACAD_NAV_VCDISPLAY
 70
     0
  0
APPID
  2
ACAD_EXEMPT_FROM_CAD_STANDARDS
 70
     0
  0
ENDTAB
  0
TABLE
  2
DIMSTYLE
 70
     1
  0
DIMSTYLE
  2
STANDARD
 70
     0
  3

  4

  5

  6

  7

 40
1.0
 41
0.18
 42
0.0625
 43
0.38
 44
0.18
 45
0.0
 46
0.0
 47
0.0
 48
0.0
140
0.18
141
0.09
142
0.0
143
25.399999999999999
144
1.0
145
0.0
146
1.0
147
0.09
 71
     0
 72
     0
 73
     1
 74
     1
 75
     0
 76
     0
 77
     0
 78
     0
170
     0
171
     2
172
     0
173
     0
174
     0
175
     0
176
     0
177
     0
178
     0
  0
ENDTAB
  0
ENDSEC
  0
SECTION
  2
BLOCKS
  0
BLOCK
  8
0
  2
$MODEL_SPACE
 70
     0
 10
0.0
 20
0.0
 30
0.0
  3
$MODEL_SPACE
  1

  0
ENDBLK
  5
49C
  8
0
  0
BLOCK
 67
     1
  8
0
  2
$PAPER_SPACE
 70
     0
 10
0.0
 20
0.0
 30
0.0
  3
$PAPER_SPACE
  1

  0
ENDBLK
  5
49A
 67
     1
  8
0
  0
ENDSEC
  0
SECTION
  2
ENTITIES
  0
LINE
  5
64A
  8
1
 10
41.036356393594019
 20
75.825974788858844
 30
0.0
 11
81.036356393594005
 21
75.825974788858844
 31
0.0
1001
GENIUS_GENOREF_13
1005
0
  0
ARC
  5
64B
  8
0
 10
61.036356393594069
 20
75.825974788858844
 30
0.0
 40
16.09518154277303
 50
116.7555700507497
 51
135.24442994924789
  0
ARC
  5
64C
  8
0
 10
61.036356393594019
 20
75.825974788858844
 30
0.0
 40
16.09518154277303
 50
224.75557005075089
 51
243.2444299492503
  0
CIRCLE
  5
64D
  8
0
 10
61.036356393594019
 20
75.825974788858844
 30
0.0
 40
17.0
  0
CIRCLE
  5
64E
  8
0
 10
61.036356393594019
 20
75.825974788858844
 30
0.0
 40
15.132999999999999
  0
LINE
  5
64F
  8
1
 10
61.036356393594019
 20
95.825974788858844
 30
0.0
 11
61.036356393594019
 21
55.825974788858836
 31
0.0
1001
GENIUS_GENOREF_13
1005
0
  0
LINE
  5
650
  8
0
 10
53.790543058823339
 20
90.197928657853808
 30
0.0
 11
53.507820413576717
 21
91.068059488714766
 31
0.0
1001
GENIUS_GENOREF_13
1005
0
  0
ARC
  5
651
  8
0
 10
61.036356393593742
 20
75.825974788859284
 30
0.0
 40
16.09518154277303
 50
44.755570050750947
 51
63.244429949250318
  0
LINE
  5
652
  8
0
 10
68.282169728365034
 20
90.197928657853808
 30
0.0
 11
68.564892373611315
 21
91.068059488715093
 31
0.0
1001
GENIUS_GENOREF_13
1005
0
  0
LINE
  5
654
  8
0
 10
72.465817314082301
 20
87.158330764643324
 30
0.0
 11
73.205994808726132
 21
87.696101192774904
 31
0.0
1001
GENIUS_GENOREF_13
1005
0
  0
LINE
  5
655
  8
0
 10
72.465817314082074
 20
64.493618813074477
 30
0.0
 11
73.205994808726132
 21
63.955848384943117
 31
0.0
1001
GENIUS_GENOREF_13
1005
0
  0
ARC
  5
657
  8
0
 10
61.03635639359414
 20
75.825974788858957
 30
0.0
 40
16.09518154277303
 50
332.75557005075018
 51
351.24442994925062
  0
LINE
  5
658
  8
0
 10
76.943976231107797
 20
73.375974788858784
 30
0.0
 11
77.858885929903408
 21
73.375974788858784
 31
0.0
1001
GENIUS_GENOREF_13
1005
0
  0
LINE
  5
659
  8
0
 10
75.345965050315272
 20
68.457802085511503
 30
0.0
 11
76.086142544959444
 21
67.920031657380363
 31
0.0
1001
GENIUS_GENOREF_13
1005
0
  0
ARC
  5
65A
  8
0
 10
61.036356393593962
 20
75.825974788858844
 30
0.0
 40
16.09518154277303
 50
8.7555700507489966
 51
27.244429949249781
  0
LINE
  5
65B
  8
0
 10
76.943976231107797
 20
78.275974788858662
 30
0.0
 11
77.858885929903295
 21
78.275974788859003
 31
0.0
1001
GENIUS_GENOREF_13
1005
0
  0
LINE
  5
65C
  8
0
 10
75.345965050315272
 20
83.194147492205843
 30
0.0
 11
76.086142544959316
 21
83.73191792033731
 31
0.0
1001
GENIUS_GENOREF_13
1005
0
  0
ARC
  5
65D
  8
0
 10
61.036356393594019
 20
75.825974788859071
 30
0.0
 40
16.09518154277303
 50
260.75557005074882
 51
279.24442994925118
  0
ARC
  5
65E
  8
0
 10
61.036356393594019
 20
75.825974788859071
 30
0.0
 40
16.09518154277303
 50
296.75557005074972
 51
315.24442994924789
  0
LINE
  5
65F
  8
0
 10
68.282169728364693
 20
61.454020919863872
 30
0.0
 11
68.564892373611315
 21
60.583890089002921
 31
0.0
1001
GENIUS_GENOREF_13
1005
0
  0
LINE
  5
660
  8
0
 10
63.62199279851847
 20
59.939837647426771
 30
0.0
 11
63.904715443764871
 21
59.069706816565592
 31
0.0
1001
GENIUS_GENOREF_13
1005
0
  0
LINE
  5
661
  8
0
 10
58.4507199886691
 20
59.939837647426771
 30
0.0
 11
58.167997343423167
 21
59.069706816565493
 31
0.0
1001
GENIUS_GENOREF_13
1005
0
  0
LINE
  5
662
  8
0
 10
53.790543058822891
 20
61.454020919864092
 30
0.0
 11
53.507820413576717
 21
60.583890089002921
 31
0.0
1001
GENIUS_GENOREF_13
1005
0
  0
ARC
  5
663
  8
0
 10
61.036356393594019
 20
75.825974788858844
 30
0.0
 40
16.09518154277303
 50
80.755570050748716
 51
99.244429949251284
  0
LINE
  5
664
  8
0
 10
63.621992798518932
 20
91.712111930290916
 30
0.0
 11
63.904715443764871
 21
92.582242761152187
 31
0.0
1001
GENIUS_GENOREF_13
1005
0
  0
LINE
  5
665
  8
0
 10
58.450719988669562
 20
91.71211193029103
 30
0.0
 11
58.167997343423167
 21
92.582242761152187
 31
0.0
1001
GENIUS_GENOREF_13
1005
0
  0
LINE
  5
666
  8
0
 10
129.7438608016061
 20
61.492615728859278
 30
0.0
 11
117.4560271739204
 21
61.492615728931732
 31
0.0
  0
LINE
  5
667
  8
0
 10
117.40574034157309
 20
68.549089417909386
 30
0.0
 11
129.7438608016061
 21
68.549089417909386
 31
0.0
  0
LINE
  5
668
  8
0
 10
118.33548184254811
 20
67.948009889278524
 30
0.0
 11
129.7438608016061
 21
67.948009889278524
 31
0.0
  0
LINE
  5
669
  8
0
 10
118.44386080160621
 20
63.908873801742743
 30
0.0
 11
129.7438608016061
 21
63.908873801742743
 31
0.0
  0
LINE
  5
66A
  8
0
 10
118.44386080160621
 20
60.539058429717549
 30
0.0
 11
129.7438608016061
 21
60.539058429717777
 31
0.0
  0
LINE
  5
66B
  8
0
 10
118.4262606940211
 20
91.112891148000145
 30
0.0
 11
129.7438608016061
 21
91.112891147999903
 31
0.0
  0
LINE
  5
66C
  8
0
 10
118.44386080160621
 20
87.743075775974944
 30
0.0
 11
129.7438608016061
 21
87.743075775974944
 31
0.0
  0
LINE
  5
66D
  8
0
 10
118.33548184254811
 20
83.703939688439164
 30
0.0
 11
129.7438608016061
 21
83.703939688439164
 31
0.0
  0
LINE
  5
66E
  8
0
 10
117.40574034157309
 20
83.102860159808301
 30
0.0
 11
129.7438608016061
 21
83.102860159808301
 31
0.0
  0
LINE
  5
66F
  8
0
 10
118.44386080160621
 20
92.826022425313553
 30
0.0
 11
133.44386080160629
 21
92.826022425313553
 31
0.0
  0
LINE
  5
670
  8
0
 10
118.44386080160621
 20
58.825927152404148
 30
0.0
 11
133.44386080160629
 21
58.825927152404127
 31
0.0
  0
LINE
  5
671
  8
0
 10
129.7438608016061
 20
73.375974788859935
 30
0.0
 11
117.5057403415731
 21
73.375974788860844
 31
0.0
  0
LINE
  5
673
  8
1
 10
113.44386080160621
 20
75.825974788858844
 30
0.0
 11
146.44386080160621
 21
75.825974788858844
 31
0.0
1001
GENIUS_GENOREF_13
1005
0
  0
LINE
  5
674
  8
0
 10
129.7438608016061
 20
90.159333848858395
 30
0.0
 11
117.40574034157309
 21
90.159333848785636
 31
0.0
  0
LINE
  5
675
  8
0
 10
129.7438608016061
 20
78.275974788857752
 30
0.0
 11
117.5057403415731
 21
78.275974788856843
 31
0.0
  0
LINE
  5
676
  8
0
 10
133.44386080160629
 20
92.826022425313553
 30
0.0
 11
133.44386080160629
 21
58.825927152404141
 31
0.0
  0
LINE
  5
677
  8
0
 10
129.74386080160599
 20
58.825927152404127
 30
0.0
 11
129.7438608016061
 21
92.826022425313553
 31
0.0
  0
LINE
  5
679
  8
0
 10
131.44386080160641
 20
58.825927152404127
 30
0.0
 11
131.44386080160629
 21
92.826022425313553
 31
0.0
  0
LINE
  5
67A
  8
0
 10
49.606895473105737
 20
64.493618813074477
 30
0.0
 11
48.866717978461899
 21
63.955848384942897
 31
0.0
1001
GENIUS_GENOREF_13
1005
0
  0
LINE
  5
67B
  8
0
 10
45.128736556080177
 20
73.375974788859025
 30
0.0
 11
44.213826857284687
 21
73.375974788858684
 31
0.0
1001
GENIUS_GENOREF_13
1005
0
  0
LINE
  5
67C
  8
0
 10
46.72674773687271
 20
68.457802085511844
 30
0.0
 11
45.986570242228652
 21
67.920031657380363
 31
0.0
1001
GENIUS_GENOREF_13
1005
0
  0
ARC
  5
67D
  8
0
 10
61.036356393594019
 20
75.825974788858844
 30
0.0
 40
16.09518154277303
 50
188.7555700507489
 51
207.24442994924979
  0
ARC
  5
67E
  8
0
 10
61.036356393593898
 20
75.825974788858844
 30
0.0
 40
16.09518154277303
 50
152.75557005075021
 51
171.24442994925059
  0
LINE
  5
67F
  8
0
 10
45.128736556080177
 20
78.275974788859003
 30
0.0
 11
44.213826857284687
 21
78.275974788859003
 31
0.0
1001
GENIUS_GENOREF_13
1005
0
  0
LINE
  5
680
  8
0
 10
46.726747736872817
 20
83.194147492206184
 30
0.0
 11
45.986570242228588
 21
83.73191792033731
 31
0.0
1001
GENIUS_GENOREF_13
1005
0
  0
LINE
  5
681
  8
0
 10
49.606895473105972
 20
87.158330764643438
 30
0.0
 11
48.866717978461899
 21
87.696101192774776
 31
0.0
1001
GENIUS_GENOREF_13
1005
0
  0
LINE
  5
686
  8
0
 10
133.44386080160629
 20
62.605474788858928
 30
0.0
 11
141.44386080160621
 21
62.605474788858942
 31
0.0
  0
LINE
  5
687
  8
3
 10
133.44386080160629
 20
63.767474788858848
 30
0.0
 11
141.44386080160621
 21
63.767474788858742
 31
0.0
  0
LINE
  5
689
  8
0
 10
141.44386080160621
 20
63.767474788858742
 30
0.0
 11
143.44386080160621
 21
63.767474788858742
 31
0.0
  0
LINE
  5
68E
  8
0
 10
133.44386080160629
 20
89.046474788858745
 30
0.0
 11
141.44386080160621
 21
89.046474788858745
 31
0.0
  0
LINE
  5
68F
  8
3
 10
133.44386080160629
 20
87.884474788858824
 30
0.0
 11
141.44386080160621
 21
87.884474788858938
 31
0.0
  0
LINE
  5
690
  8
0
 10
141.44386080160621
 20
62.605474788858949
 30
0.0
 11
141.44386080160621
 21
89.046474788858745
 31
0.0
  0
LINE
  5
691
  8
0
 10
143.44386080160621
 20
63.767474788858749
 30
0.0
 11
143.44386080160621
 21
87.884474788858938
 31
0.0
  0
LINE
  5
692
  8
0
 10
141.44386080160621
 20
87.884474788858938
 30
0.0
 11
143.44386080160621
 21
87.884474788858938
 31
0.0
  0
LINE
  5
696
  8
0
 10
116.44386080160621
 20
60.875927152404309
 30
0.0
 11
116.44386080160621
 21
90.776022425313371
 31
0.0
  0
ARC
  5
697
  8
0
 10
117.5557403415732
 20
90.177274560029332
 30
0.0
 40
0.15
 50
129.8238815972409
 51
180.0
1001
GENIUS_GENODEF_13
1002
{
1000
HIER
1070
     0
1002
}
1002
{
1000
MANEDIT
1070
     0
1002
}
1002
{
1000
NOSEL
1070
     0
1002
}
1002
{
1000
BEHIND
1070
     0
1002
}
1002
{
1000
REACTOR
1002
}
1001
GENIUS_GENOBJ-N-FIL_13
1002
{
1000
OWNER
1000
GEN
1002
}
  0
LINE
  5
69A
  8
0
 10
118.44386080160621
 20
67.770230292989368
 30
0.0
 11
118.44386080160621
 21
63.908873801742288
 31
0.0
  0
LINE
  5
69B
  8
0
 10
118.44386080160621
 20
60.598558298593623
 30
0.0
 11
118.44386080160621
 21
58.825927152404141
 31
0.0
  0
ARC
  5
69C
  8
0
 10
118.2938608016061
 20
60.598558298593623
 30
0.0
 40
0.15
 50
0.0
 51
50.176118402759109
1001
GENIUS_GENODEF_13
1002
{
1000
HIER
1070
     0
1002
}
1002
{
1000
MANEDIT
1070
     0
1002
}
1002
{
1000
NOSEL
1070
     0
1002
}
1002
{
1000
BEHIND
1070
     0
1002
}
1002
{
1000
REACTOR
1002
}
1001
GENIUS_GENOBJ-N-FIL_13
1002
{
1000
OWNER
1000
GEN
1002
}
  0
LINE
  5
69D
  8
0
 10
116.44386080160621
 20
60.875927152404323
 30
0.0
 11
118.44386080160621
 21
58.825927152404148
 31
0.0
  0
LINE
  5
69E
  8
0
 10
118.38992528271361
 20
60.713760796264523
 30
0.0
 11
117.45967586046569
 21
61.489472520017891
 31
0.0
  0
POLYLINE
  5
69F
  8
0
 66
     1
 10
0.0
 20
0.0
 30
0.0
  0
VERTEX
  5
6A0
  8
0
 10
117.40574034157309
 20
64.381553023954098
 30
0.0
  0
VERTEX
  5
6A1
  8
0
 10
117.40574034157309
 20
61.604675017688351
 30
0.0
  0
SEQEND
  5
6A2
  8
0
  0
ARC
  5
6A3
  8
0
 10
117.45572466789871
 20
64.380301176606395
 30
0.0
 40
0.05
 50
61.877217175573328
 51
180.0
1001
GENIUS_GENODEF_13
1002
{
1000
HIER
1070
     0
1002
}
1002
{
1000
MANEDIT
1070
     0
1002
}
1002
{
1000
NOSEL
1070
     0
1002
}
1002
{
1000
BEHIND
1070
     0
1002
}
1002
{
1000
REACTOR
1002
}
1001
GENIUS_GENOBJ-N-FIL_13
1002
{
1000
OWNER
1000
GEN
1002
}
  0
LINE
  5
6A4
  8
0
 10
118.44386080160621
 20
63.908873801742743
 30
0.0
 11
117.4792927983364
 21
64.424398151872651
 31
0.0
  0
ARC
  5
6A5
  8
0
 10
117.5557403415732
 20
61.604675017688351
 30
0.0
 40
0.15
 50
180.0
 51
230.1761184027591
1001
GENIUS_GENODEF_13
1002
{
1000
HIER
1070
     0
1002
}
1002
{
1000
MANEDIT
1070
     0
1002
}
1002
{
1000
NOSEL
1070
     0
1002
}
1002
{
1000
BEHIND
1070
     0
1002
}
1002
{
1000
REACTOR
1002
}
1001
GENIUS_GENOBJ-N-FIL_13
1002
{
1000
OWNER
1000
GEN
1002
}
  0
ARC
  5
6A6
  8
0
 10
117.6057403415732
 20
68.549089417909386
 30
0.0
 40
0.2
 50
180.0
 51
242.73509274463399
1001
GENIUS_GENODEF_13
1002
{
1000
HIER
1070
     0
1002
}
1002
{
1000
MANEDIT
1070
     0
1002
}
1002
{
1000
NOSEL
1070
     0
1002
}
1002
{
1000
BEHIND
1070
     0
1002
}
1002
{
1000
REACTOR
1002
}
1001
GENIUS_GENOBJ-N-FIL_13
1002
{
1000
OWNER
1000
GEN
1002
}
  0
ARC
  5
6A7
  8
0
 10
117.5057403415731
 20
73.275974788860935
 30
0.0
 40
0.1
 50
89.999999999996746
 51
180.0
1001
GENIUS_GENODEF_13
1002
{
1000
HIER
1070
     0
1002
}
1002
{
1000
MANEDIT
1070
     0
1002
}
1002
{
1000
NOSEL
1070
     0
1002
}
1002
{
1000
BEHIND
1070
     0
1002
}
1002
{
1000
REACTOR
1002
}
1001
GENIUS_GENOBJ-N-FIL_13
1002
{
1000
OWNER
1000
GEN
1002
}
  0
POLYLINE
  5
6A8
  8
0
 66
     1
 10
0.0
 20
0.0
 30
0.0
  0
VERTEX
  5
6A9
  8
0
 10
117.40574034157309
 20
73.275974788860935
 30
0.0
  0
VERTEX
  5
6AA
  8
0
 10
117.40574034157309
 20
68.549089417909386
 30
0.0
  0
SEQEND
  5
6AB
  8
0
  0
ARC
  5
6AC
  8
0
 10
118.2438608016064
 20
67.770230292989368
 30
0.0
 40
0.2
 50
0.0
 51
62.735092744634002
1001
GENIUS_GENODEF_13
1002
{
1000
HIER
1070
     0
1002
}
1002
{
1000
MANEDIT
1070
     0
1002
}
1002
{
1000
NOSEL
1070
     0
1002
}
1002
{
1000
BEHIND
1070
     0
1002
}
1002
{
1000
REACTOR
1002
}
1001
GENIUS_GENOBJ-N-FIL_13
1002
{
1000
OWNER
1000
GEN
1002
}
  0
LINE
  5
6AD
  8
0
 10
117.51411930063129
 20
68.371309821620002
 30
0.0
 11
118.33548184254801
 21
67.948009889278296
 31
0.0
  0
POLYLINE
  5
6AE
  8
0
 66
     1
 10
0.0
 20
0.0
 30
0.0
  0
VERTEX
  5
6AF
  8
0
 10
117.40574034157309
 20
78.375974788856752
 30
0.0
  0
VERTEX
  5
6B0
  8
0
 10
117.40574034157309
 20
83.102860159808301
 30
0.0
  0
SEQEND
  5
6B1
  8
0
  0
LINE
  5
6B2
  8
0
 10
118.44386080160621
 20
73.375974788860773
 30
0.0
 11
118.44386080160621
 21
78.275974788856843
 31
0.0
  0
ARC
  5
6B3
  8
0
 10
117.5057403415731
 20
78.375974788856752
 30
0.0
 40
0.1
 50
180.0
 51
270.0000000000033
1001
GENIUS_GENODEF_13
1002
{
1000
HIER
1070
     0
1002
}
1002
{
1000
MANEDIT
1070
     0
1002
}
1002
{
1000
NOSEL
1070
     0
1002
}
1002
{
1000
BEHIND
1070
     0
1002
}
1002
{
1000
REACTOR
1002
}
1001
GENIUS_GENOBJ-N-FIL_13
1002
{
1000
OWNER
1000
GEN
1002
}
  0
LINE
  5
6B4
  8
0
 10
118.44386080160621
 20
87.743075775974944
 30
0.0
 11
117.4792927983364
 21
87.227551425845036
 31
0.0
  0
ARC
  5
6B5
  8
0
 10
117.45572466789871
 20
87.271648401111293
 30
0.0
 40
0.05
 50
180.0
 51
298.12278282442668
1001
GENIUS_GENODEF_13
1002
{
1000
HIER
1070
     0
1002
}
1002
{
1000
MANEDIT
1070
     0
1002
}
1002
{
1000
NOSEL
1070
     0
1002
}
1002
{
1000
BEHIND
1070
     0
1002
}
1002
{
1000
REACTOR
1002
}
1001
GENIUS_GENOBJ-N-FIL_13
1002
{
1000
OWNER
1000
GEN
1002
}
  0
POLYLINE
  5
6B6
  8
0
 66
     1
 10
0.0
 20
0.0
 30
0.0
  0
VERTEX
  5
6B7
  8
0
 10
117.40574034157309
 20
87.270396553763575
 30
0.0
  0
VERTEX
  5
6B8
  8
0
 10
117.40574034157309
 20
90.177274560029332
 30
0.0
  0
SEQEND
  5
6B9
  8
0
  0
LINE
  5
6BA
  8
0
 10
117.51411930063129
 20
83.280639756097685
 30
0.0
 11
118.33548184254801
 21
83.703939688439405
 31
0.0
  0
ARC
  5
6BB
  8
0
 10
118.2438608016064
 20
83.88171928472832
 30
0.0
 40
0.2
 50
297.26490725536598
 51
0.0
1001
GENIUS_GENODEF_13
1002
{
1000
HIER
1070
     0
1002
}
1002
{
1000
MANEDIT
1070
     0
1002
}
1002
{
1000
NOSEL
1070
     0
1002
}
1002
{
1000
BEHIND
1070
     0
1002
}
1002
{
1000
REACTOR
1002
}
1001
GENIUS_GENOBJ-N-FIL_13
1002
{
1000
OWNER
1000
GEN
1002
}
  0
ARC
  5
6BC
  8
0
 10
117.6057403415732
 20
83.102860159808301
 30
0.0
 40
0.2
 50
117.264907255366
 51
180.0
1001
GENIUS_GENODEF_13
1002
{
1000
HIER
1070
     0
1002
}
1002
{
1000
MANEDIT
1070
     0
1002
}
1002
{
1000
NOSEL
1070
     0
1002
}
1002
{
1000
BEHIND
1070
     0
1002
}
1002
{
1000
REACTOR
1002
}
1001
GENIUS_GENOBJ-N-FIL_13
1002
{
1000
OWNER
1000
GEN
1002
}
  0
LINE
  5
6BD
  8
0
 10
118.44386080160621
 20
83.88171928472832
 30
0.0
 11
118.44386080160621
 21
87.743075775975385
 31
0.0
  0
LINE
  5
6BE
  8
0
 10
118.4262606940211
 20
91.112891148000145
 30
0.0
 11
118.4438317771892
 21
92.825992675286145
 31
0.0
  0
LINE
  5
6BF
  8
0
 10
116.44386080160621
 20
90.776022425313371
 30
0.0
 11
118.44386080160621
 21
92.826022425313553
 31
0.0
  0
LINE
  5
6C0
  8
0
 10
118.38992528271361
 20
91.068188781453159
 30
0.0
 11
117.45967586046569
 21
90.292477057699784
 31
0.0
  0
ARC
  5
6C1
  8
0
 10
118.2938608016061
 20
91.183391279124066
 30
0.0
 40
0.15
 50
309.82388159724093
 51
331.96564672147662
1001
GENIUS_GENODEF_13
1002
{
1000
HIER
1070
     0
1002
}
1002
{
1000
MANEDIT
1070
     0
1002
}
1002
{
1000
NOSEL
1070
     0
1002
}
1002
{
1000
BEHIND
1070
     0
1002
}
1002
{
1000
REACTOR
1002
}
1001
GENIUS_GENOBJ-N-FIL_13
1002
{
1000
OWNER
1000
GEN
1002
}
  0
TEXT
  5
77D
  8
0
 62
     3
 10
0.0
 20
0.0
 30
0.0
 40
10.0
  1
CP-3/4
  7
STANDARD1
  0
ENDSEC
  0
EOF
