  0
SECTION
  2
HEADER
  9
$ACADVER
  1
AC1009
  9
$INSBASE
 10
0.0
 20
0.0
 30
0.0
  9
$EXTMIN
 10
0.0
 20
-2.960436562073669
 30
0.0
  9
$EXTMAX
 10
108.8352160434641
 20
71.0
 30
0.0
  9
$LIMMIN
 10
0.0
 20
0.0
  9
$LIMMAX
 10
187.5
 20
135.0
  9
$ORTHOMODE
 70
     1
  9
$REGENMODE
 70
     1
  9
$FILLMODE
 70
     1
  9
$QTEXTMODE
 70
     0
  9
$MIRRTEXT
 70
     0
  9
$DRAGMODE
 70
     2
  9
$LTSCALE
 40
5.0
  9
$OSMODE
 70
    37
  9
$ATTMODE
 70
     1
  9
$TEXTSIZE
 40
0.2
  9
$TRACEWID
 40
0.05
  9
$TEXTSTYLE
  7
STANDARD
  9
$CLAYER
  8
0
  9
$CELTYPE
  6
BYLAYER
  9
$CECOLOR
 62
   256
  9
$DIMSCALE
 40
0.5
  9
$DIMASZ
 40
3.0
  9
$DIMEXO
 40
2.0
  9
$DIMDLI
 40
0.38
  9
$DIMRND
 40
0.0
  9
$DIMDLE
 40
0.0
  9
$DIMEXE
 40
2.0
  9
$DIMTP
 40
0.0
  9
$DIMTM
 40
0.0
  9
$DIMTXT
 40
3.0
  9
$DIMCEN
 40
0.0
  9
$DIMTSZ
 40
0.0
  9
$DIMTOL
 70
     0
  9
$DIMLIM
 70
     0
  9
$DIMTIH
 70
     0
  9
$DIMTOH
 70
     0
  9
$DIMSE1
 70
     0
  9
$DIMSE2
 70
     0
  9
$DIMTAD
 70
     1
  9
$DIMZIN
 70
     0
  9
$DIMBLK
  1

  9
$DIMASO
 70
     0
  9
$DIMSHO
 70
     0
  9
$DIMPOST
  1

  9
$DIMAPOST
  1

  9
$DIMALT
 70
     0
  9
$DIMALTD
 70
     2
  9
$DIMALTF
 40
25.399999999999999
  9
$DIMLFAC
 40
1.0
  9
$DIMTOFL
 70
     1
  9
$DIMTVP
 40
1.6000000000000001
  9
$DIMTIX
 70
     1
  9
$DIMSOXD
 70
     0
  9
$DIMSAH
 70
     0
  9
$DIMBLK1
  1

  9
$DIMBLK2
  1

  9
$DIMSTYLE
  2
STANDARD
  9
$DIMCLRD
 70
     0
  9
$DIMCLRE
 70
     0
  9
$DIMCLRT
 70
     0
  9
$DIMTFAC
 40
1.0
  9
$DIMGAP
 40
0.09
  9
$LUNITS
 70
     2
  9
$LUPREC
 70
     4
  9
$SKETCHINC
 40
0.1
  9
$FILLETRAD
 40
0.0
  9
$AUNITS
 70
     0
  9
$AUPREC
 70
     4
  9
$MENU
  1
E:\r13\win\SUPPORT\ACAD
  9
$ELEVATION
 40
0.0
  9
$PELEVATION
 40
0.0
  9
$THICKNESS
 40
0.0
  9
$LIMCHECK
 70
     0
  9
$BLIPMODE
 70
     0
  9
$CHAMFERA
 40
0.0
  9
$CHAMFERB
 40
0.0
  9
$SKPOLY
 70
     0
  9
$TDCREATE
 40
2451584.6354815969
  9
$TDUPDATE
 40
2456806.6448227321
  9
$TDINDWG
 40
0.0310578472
  9
$TDUSRTIMER
 40
2456689.0562885879
  9
$USRTIMER
 70
     1
  9
$ANGBASE
 50
0.0
  9
$ANGDIR
 70
     0
  9
$PDMODE
 70
     0
  9
$PDSIZE
 40
0.0
  9
$PLINEWID
 40
0.0
  9
$COORDS
 70
     1
  9
$SPLFRAME
 70
     0
  9
$SPLINETYPE
 70
     6
  9
$SPLINESEGS
 70
     8
  9
$ATTDIA
 70
     0
  9
$ATTREQ
 70
     1
  9
$HANDLING
 70
     1
  9
$HANDSEED
  5
B96
  9
$SURFTAB1
 70
     6
  9
$SURFTAB2
 70
     6
  9
$SURFTYPE
 70
     6
  9
$SURFU
 70
     6
  9
$SURFV
 70
     6
  9
$UCSNAME
  2

  9
$UCSORG
 10
0.0
 20
0.0
 30
0.0
  9
$UCSXDIR
 10
1.0
 20
0.0
 30
0.0
  9
$UCSYDIR
 10
0.0
 20
1.0
 30
0.0
  9
$PUCSNAME
  2

  9
$PUCSORG
 10
0.0
 20
0.0
 30
0.0
  9
$PUCSXDIR
 10
1.0
 20
0.0
 30
0.0
  9
$PUCSYDIR
 10
0.0
 20
1.0
 30
0.0
  9
$USERI1
 70
     0
  9
$USERI2
 70
     1
  9
$USERI3
 70
     1
  9
$USERI4
 70
     0
  9
$USERI5
 70
     0
  9
$USERR1
 40
0.0
  9
$USERR2
 40
0.0
  9
$USERR3
 40
0.0
  9
$USERR4
 40
0.0
  9
$USERR5
 40
0.0
  9
$WORLDVIEW
 70
     1
  9
$SHADEDGE
 70
     3
  9
$SHADEDIF
 70
    70
  9
$TILEMODE
 70
     1
  9
$MAXACTVP
 70
    16
  9
$PLIMCHECK
 70
     0
  9
$PEXTMIN
 10
1.0000000000000000E+020
 20
1.0000000000000000E+020
 30
1.0000000000000000E+020
  9
$PEXTMAX
 10
-1.0000000000000000E+020
 20
-1.0000000000000000E+020
 30
-1.0000000000000000E+020
  9
$PLIMMIN
 10
0.0
 20
0.0
  9
$PLIMMAX
 10
0.0
 20
0.0
  9
$UNITMODE
 70
     0
  9
$VISRETAIN
 70
     0
  9
$PLINEGEN
 70
     0
  9
$PSLTSCALE
 70
     0
  0
ENDSEC
  0
SECTION
  2
TABLES
  0
TABLE
  2
VPORT
 70
     1
  0
VPORT
  2
*ACTIVE
 70
     0
 10
0.0
 20
0.0
 11
1.0
 21
1.0
 12
142.8907905920025
 22
66.015571757538481
 13
0.0
 23
0.0
 14
5.0
 24
5.0
 15
5.0
 25
5.0
 16
0.0
 26
0.0
 36
1.0
 17
0.0
 27
0.0
 37
0.0
 40
139.18265874138859
 41
2.6019575856443709
 42
50.0
 43
0.0
 44
0.0
 50
0.0
 51
0.0
 71
    16
 72
   500
 73
     1
 74
     0
 75
     0
 76
     0
 77
     0
 78
     2
  0
ENDTAB
  0
TABLE
  2
LTYPE
 70
     4
  0
LTYPE
  2
CONTINUOUS
 70
     0
  3
Solid Line
 72
    65
 73
     0
 40
0.0
  0
LTYPE
  2
CENTER
 70
     0
  3
____ _ ____ _ ____ _ ____ _ ____ _ ____ _ ____
 72
    65
 73
     4
 40
2.0
 49
1.25
 49
-0.25
 49
0.25
 49
-0.25
  0
LTYPE
  2
DASHED
 70
     0
  3

 72
    65
 73
     2
 40
2.0
 49
1.0
 49
-1.0
  0
LTYPE
  2
PHANTOM2
 70
     0
  3
___ _ _ ___ _ _ ___ _ _ ___ _ _
 72
    65
 73
     6
 40
1.25
 49
0.625
 49
-0.125
 49
0.125
 49
-0.125
 49
0.125
 49
-0.125
  0
ENDTAB
  0
TABLE
  2
LAYER
 70
     3
  0
LAYER
  2
0
 70
     0
 62
     7
  6
CONTINUOUS
  0
LAYER
  2
1
 70
     0
 62
     1
  6
CENTER
  0
LAYER
  2
3
 70
     0
 62
     3
  6
CONTINUOUS
  0
ENDTAB
  0
TABLE
  2
STYLE
 70
     2
  0
STYLE
  2
STANDARD
 70
     0
 40
0.0
 41
1.0
 50
0.0
 71
     0
 42
0.2
  3
TXT
  4
BIGFONT
  0
STYLE
  2
STANDARD1
 70
     0
 40
0.0
 41
1.0
 50
0.0
 71
     0
 42
3.0
  3
txt
  4

  0
ENDTAB
  0
TABLE
  2
VIEW
 70
     1
  0
VIEW
  2
ALL
 70
     0
 40
175.0
 10
142.73710148381011
 20
87.5
 41
0.0
 11
0.0
 21
0.0
 31
1.0
 12
0.0
 22
0.0
 32
0.0
 42
50.0
 43
0.0
 44
0.0
 50
0.0
 71
     0
  0
ENDTAB
  0
TABLE
  2
UCS
 70
     0
  0
ENDTAB
  0
TABLE
  2
APPID
 70
     7
  0
APPID
  2
ACAD
 70
     0
  0
APPID
  2
GENIUS_GENODEF_13
 70
     0
  0
APPID
  2
GENIUS_GENOBJ-N-FIL_13
 70
     0
  0
APPID
  2
GENIUS_GENOREF_13
 70
     0
  0
APPID
  2
ACAD_MLEADERVER
 70
     0
  0
APPID
  2
ACAD_EXEMPT_FROM_CAD_STANDARDS
 70
     0
  0
APPID
  2
ACAD_NAV_VCDISPLAY
 70
     0
  0
ENDTAB
  0
TABLE
  2
DIMSTYLE
 70
     1
  0
DIMSTYLE
  2
STANDARD
 70
     0
  3

  4

  5

  6

  7

 40
1.0
 41
0.18
 42
0.0625
 43
0.38
 44
0.18
 45
0.0
 46
0.0
 47
0.0
 48
0.0
140
0.18
141
0.09
142
0.0
143
25.399999999999999
144
1.0
145
0.0
146
1.0
147
0.09
 71
     0
 72
     0
 73
     1
 74
     1
 75
     0
 76
     0
 77
     0
 78
     0
170
     0
171
     2
172
     0
173
     0
174
     0
175
     0
176
     0
177
     0
178
     0
  0
ENDTAB
  0
ENDSEC
  0
SECTION
  2
BLOCKS
  0
BLOCK
  8
0
  2
$MODEL_SPACE
 70
     0
 10
0.0
 20
0.0
 30
0.0
  3
$MODEL_SPACE
  1

  0
ENDBLK
  5
49C
  8
0
  0
BLOCK
 67
     1
  8
0
  2
$PAPER_SPACE
 70
     0
 10
0.0
 20
0.0
 30
0.0
  3
$PAPER_SPACE
  1

  0
ENDBLK
  5
49A
 67
     1
  8
0
  0
ENDSEC
  0
SECTION
  2
ENTITIES
  0
LINE
  5
537
  8
1
 10
40.0
 20
55.500000000000171
 30
0.0
 11
40.0
 21
71.0
 31
0.0
1001
GENIUS_GENOREF_13
1005
0
  0
LINE
  5
538
  8
1
 10
24.499999999993779
 20
55.500000000000171
 30
0.0
 11
55.499999999993783
 21
55.500000000000171
 31
0.0
1001
GENIUS_GENOREF_13
1005
0
  0
LINE
  5
539
  8
1
 10
40.0
 20
55.500000000000171
 30
0.0
 11
40.0
 21
40.0
 31
0.0
1001
GENIUS_GENOREF_13
1005
0
  0
TEXT
  5
688
  8
0
 62
     3
 10
0.0
 20
0.0
 30
0.0
 40
10.0
  1
CP-3/8
  7
STANDARD1
  0
LINE
  5
91C
  8
0
 10
95.515216043464164
 20
53.540000000000461
 30
0.0
 11
85.335861756788347
 21
53.540000000000461
 31
0.0
  0
LINE
  5
939
  8
0
  6
DASHED
 62
     0
 10
86.834911433776924
 20
62.207643332797417
 30
0.0
 11
85.335861756788432
 21
61.624010788529262
 31
0.0
  0
LINE
  5
93C
  8
0
  6
DASHED
 62
     0
 10
86.834911433776924
 20
52.931245625002632
 30
0.0
 11
85.335861756788347
 21
53.540000000000461
 31
0.0
  0
LINE
  5
93D
  8
0
  6
DASHED
 62
     0
 10
85.335861756788475
 20
48.966182761949113
 30
0.0
 11
86.834911433776924
 21
48.353711037205272
 31
0.0
  0
LINE
  5
93F
  8
0
  6
DASHED
 62
     0
 10
86.834911433776924
 20
45.159589391676342
 30
0.0
 11
85.335861756788347
 21
46.604130629220393
 31
0.0
  0
LINE
  5
942
  8
0
  6
DASHED
 62
     0
 10
95.51521604346415
 20
45.016524308948227
 30
0.0
 11
86.834911433776924
 21
45.159589391676342
 31
0.0
  0
LINE
  5
943
  8
0
  6
DASHED
 62
     0
 10
86.834911433776924
 20
48.353711037205272
 30
0.0
 11
95.515216043464164
 21
48.293104671061862
 31
0.0
  0
LINE
  5
945
  8
0
  6
DASHED
 62
     0
 10
95.515216043464164
 20
52.870955553139929
 30
0.0
 11
86.834911433776924
 21
52.931245625002632
 31
0.0
  0
LINE
  5
948
  8
0
  6
DASHED
 62
     0
 10
95.515216043464164
 20
62.265445378220853
 30
0.0
 11
86.834911433776924
 21
62.207643332797417
 31
0.0
  0
LINE
  5
94D
  8
0
  6
CONTINUOUS
 62
     0
 10
85.438198625623443
 20
66.300000000000466
 30
0.0
 11
85.335861756788248
 21
66.300000000000466
 31
0.0
  0
LINE
  5
94E
  8
0
  6
CONTINUOUS
 62
     0
 10
85.335861756788375
 20
44.700000000000443
 30
0.0
 11
85.438003260819116
 21
44.699827349857173
 31
0.0
  0
LINE
  5
94F
  8
0
  6
CONTINUOUS
 62
     0
 10
105.8352160434641
 20
48.025000000000439
 30
0.0
 11
105.8352160434641
 21
62.975000000000449
 31
0.0
  0
LINE
  5
950
  8
0
  6
CONTINUOUS
 62
     0
 10
105.8352160434641
 20
62.975000000000449
 30
0.0
 11
103.8352160434641
 21
62.975000000000449
 31
0.0
  0
LINE
  5
951
  8
0
  6
CONTINUOUS
 62
     0
 10
103.8352160434641
 20
48.025000000000439
 30
0.0
 11
105.8352160434641
 21
48.025000000000439
 31
0.0
  0
LINE
  5
952
  8
0
  6
CONTINUOUS
 62
     0
 10
103.8352160434641
 20
47.169000000000452
 30
0.0
 11
103.8352160434641
 21
63.831000000000451
 31
0.0
  0
LINE
  5
953
  8
0
  6
CONTINUOUS
 62
     0
 10
103.8352160434641
 20
63.831000000000451
 30
0.0
 11
98.335216043464143
 21
63.831000000000451
 31
0.0
  0
LINE
  5
954
  8
0
  6
CONTINUOUS
 62
     0
 10
98.335216043464143
 20
47.169000000000452
 30
0.0
 11
103.8352160434641
 21
47.169000000000452
 31
0.0
  0
LINE
  5
955
  8
0
  6
CONTINUOUS
 62
     0
 10
95.515216043464164
 20
64.395869370780517
 30
0.0
 11
85.335861756788375
 21
64.395869370780517
 31
0.0
  0
LINE
  5
957
  8
0
  6
CONTINUOUS
 62
     0
 10
98.335216043464143
 20
44.750000000000448
 30
0.0
 11
98.335216043464143
 21
66.250000000000455
 31
0.0
  0
LINE
  5
958
  8
0
  6
CONTINUOUS
 62
     0
 10
98.335216043464143
 20
66.250000000000455
 30
0.0
 11
96.835216043464172
 21
66.250000000000455
 31
0.0
  0
LINE
  5
959
  8
0
  6
CONTINUOUS
 62
     0
 10
96.835216043464172
 20
44.750000000000448
 30
0.0
 11
98.335216043464143
 21
44.750000000000448
 31
0.0
  0
LINE
  5
95A
  8
0
  6
CONTINUOUS
 62
     0
 10
84.835216043464158
 20
45.209460779139057
 30
0.0
 11
84.835216043464158
 21
65.790539220861845
 31
0.0
  0
LINE
  5
95B
  8
0
  6
CONTINUOUS
 62
     0
 10
86.834911433776924
 20
65.840410608324561
 30
0.0
 11
85.335861756788375
 21
64.395869370780517
 31
0.0
  0
LINE
  5
95C
  8
0
  6
CONTINUOUS
 62
     0
 10
85.335861756788475
 20
66.200782108740384
 30
0.0
 11
86.834911433776924
 21
67.65414441636301
 31
0.0
  0
LINE
  5
95D
  8
0
  6
CONTINUOUS
 62
     0
 10
85.335861756788404
 20
44.799217891260589
 30
0.0
 11
86.834911433776924
 21
43.345855583637899
 31
0.0
  0
LINE
  5
95E
  8
0
  6
CONTINUOUS
 62
     0
 10
85.335861756788404
 20
44.799217891260589
 30
0.0
 11
85.335861756788375
 21
44.700000000000529
 31
0.0
  0
LINE
  5
961
  8
0
  6
CONTINUOUS
 62
     0
 10
85.335861756788404
 20
48.966182761949128
 30
0.0
 11
85.335861756788347
 21
46.604130629220393
 31
0.0
  0
LINE
  5
963
  8
0
  6
CONTINUOUS
 62
     0
 10
85.335861756788347
 20
57.460000000000463
 30
0.0
 11
85.335861756788475
 21
53.540000000000461
 31
0.0
  0
LINE
  5
965
  8
0
  6
CONTINUOUS
 62
     0
 10
85.335861756788375
 20
64.395869370780517
 30
0.0
 11
85.335861756788432
 21
61.624010788529262
 31
0.0
  0
LINE
  5
966
  8
0
  6
CONTINUOUS
 62
     0
 10
84.835216043464158
 20
45.209460779139057
 30
0.0
 11
85.335861756788375
 21
44.700000000000529
 31
0.0
  0
LINE
  5
967
  8
0
  6
CONTINUOUS
 62
     0
 10
85.335861756788248
 20
66.300000000000267
 30
0.0
 11
84.835216043464158
 21
65.790539220861845
 31
0.0
  0
LINE
  5
968
  8
0
  6
CONTINUOUS
 62
     0
 10
85.335861756788248
 20
66.300000000000267
 30
0.0
 11
85.335861756788475
 21
66.200782108740384
 31
0.0
  0
LINE
  5
969
  8
0
  6
CONTINUOUS
 62
     0
 10
86.834911433776924
 20
58.068754374998278
 30
0.0
 11
85.335861756788347
 21
57.460000000000463
 31
0.0
  0
LINE
  5
96A
  8
0
  6
CONTINUOUS
 62
     0
 10
95.515216043464164
 20
57.460000000000463
 30
0.0
 11
85.335861756788347
 21
57.460000000000463
 31
0.0
  0
LINE
  5
96F
  8
0
  6
CONTINUOUS
 62
     0
 10
86.834911433776924
 20
48.353711037205272
 30
0.0
 11
86.834911433776924
 21
52.931245625002632
 31
0.0
  0
LINE
  5
973
  8
0
  6
CONTINUOUS
 62
     0
 10
86.834911433776924
 20
43.345855583637899
 30
0.0
 11
86.834911433776924
 21
45.159589391676342
 31
0.0
  0
LINE
  5
975
  8
0
  6
CONTINUOUS
 62
     0
 10
86.834911433776924
 20
43.345855583637899
 30
0.0
 11
95.51521604346415
 21
43.202039951672752
 31
0.0
  0
LINE
  5
977
  8
0
  6
CONTINUOUS
 62
     0
 10
86.834911433776924
 20
67.65414441636301
 30
0.0
 11
95.515216043464164
 21
67.797960048328136
 31
0.0
  0
LINE
  5
978
  8
0
  6
CONTINUOUS
 62
     0
 10
86.834911433776924
 20
65.840410608324561
 30
0.0
 11
86.834911433776924
 21
67.65414441636301
 31
0.0
  0
LINE
  5
979
  8
0
  6
CONTINUOUS
 62
     0
 10
95.515216043464164
 20
65.983475691052675
 30
0.0
 11
86.834911433776924
 21
65.840410608324561
 31
0.0
  0
LINE
  5
97C
  8
0
  6
CONTINUOUS
 62
     0
 10
86.834911433776924
 20
58.068754374998278
 30
0.0
 11
86.834911433776924
 21
62.207643332797417
 31
0.0
  0
LINE
  5
97D
  8
0
  6
CONTINUOUS
 62
     0
 10
95.515216043464164
 20
58.129044446860973
 30
0.0
 11
86.834911433776924
 21
58.068754374998278
 31
0.0
  0
LINE
  5
97E
  8
0
  6
CONTINUOUS
 62
     0
 10
96.835216043464172
 20
43.000000000000462
 30
0.0
 11
96.835216043464172
 21
68.000000000000455
 31
0.0
  0
LINE
  5
97F
  8
0
  6
CONTINUOUS
 62
     0
 10
95.51521604346415
 20
43.023040685705702
 30
0.0
 11
96.835216043464172
 21
43.000000000000462
 31
0.0
  0
LINE
  5
980
  8
0
  6
CONTINUOUS
 62
     0
 10
96.835216043464172
 20
68.000000000000455
 30
0.0
 11
95.515216043464164
 21
67.9769593142952
 31
0.0
  0
LINE
  5
981
  8
0
  6
CONTINUOUS
 62
     0
 10
95.51521604346415
 20
43.023040685705702
 30
0.0
 11
95.515216043464164
 21
67.9769593142952
 31
0.0
  0
LINE
  5
982
  8
3
 10
103.8352160434641
 20
48.025000000000439
 30
0.0
 11
98.335216043464143
 21
48.02500000000046
 31
0.0
  0
LINE
  5
983
  8
3
 10
103.8352160434641
 20
62.975000000000449
 30
0.0
 11
98.335216043464143
 21
62.975000000000449
 31
0.0
  0
LINE
  5
9CD
  8
0
  6
CONTINUOUS
 62
     0
 10
95.515216043464136
 20
46.604130629220393
 30
0.0
 11
85.335861756788347
 21
46.604130629220393
 31
0.0
  0
LINE
  5
A06
  8
1
 10
81.835216043464143
 20
55.500000000000462
 30
0.0
 11
108.8352160434641
 21
55.500000000000462
 31
0.0
1001
GENIUS_GENOREF_13
1005
0
  0
LINE
  5
AB4
  8
0
 62
     0
 10
27.781577577991659
 20
52.861789713173863
 30
0.0
 11
29.3793408867372
 21
53.540000000000077
 31
0.0
  0
LINE
  5
AB5
  8
0
 62
     0
 10
42.638210286819991
 20
43.281577577997957
 30
0.0
 11
41.959999999993776
 21
44.879340886743492
 31
0.0
  0
LINE
  5
AB6
  8
0
 62
     0
 10
50.505225734004163
 20
48.72576703401154
 30
0.0
 11
48.895869370773852
 21
49.375989211471271
 31
0.0
  0
LINE
  5
AB7
  8
0
 62
     0
 10
37.361789713167553
 20
67.718422422002206
 30
0.0
 11
38.039999999993782
 21
66.120659113256664
 31
0.0
  0
LINE
  5
AB8
  8
0
 62
     0
 10
29.494774265983391
 20
62.27423296598861
 30
0.0
 11
31.10413062921371
 21
61.624010788528871
 31
0.0
  0
LINE
  5
AB9
  8
0
 62
     0
 10
52.218422421995911
 20
58.1382102868263
 30
0.0
 11
50.620659113250362
 21
57.460000000000058
 31
0.0
  0
LINE
  5
ABA
  8
0
 62
     0
 10
46.774232965982321
 20
66.00522573401048
 30
0.0
 11
46.124010788522583
 21
64.395869370780147
 31
0.0
  0
LINE
  5
ABB
  8
0
 62
     0
 10
33.225767034005251
 20
44.99477426598969
 30
0.0
 11
33.875989211464983
 21
46.604130629220009
 31
0.0
  0
LINE
  5
ABC
  8
0
 62
     0
 10
48.599373948121809
 20
62.033817238051427
 30
0.0
 11
50.206751557096908
 21
62.716108553200549
 31
0.0
  0
LINE
  5
ABD
  8
0
 62
     0
 10
33.466182761942441
 20
64.099373948128104
 30
0.0
 11
32.783891446793298
 21
65.706751557103203
 31
0.0
  0
LINE
  5
ABE
  8
0
 62
     0
 10
38.539430843373182
 20
44.799217891260142
 30
0.0
 11
37.885296051826131
 21
43.180177468339807
 31
0.0
  0
LINE
  5
ABF
  8
0
 62
     0
 10
29.29921789125385
 20
56.960569156620679
 30
0.0
 11
27.680177468333511
 21
57.61470394816773
 31
0.0
  0
LINE
  5
AC0
  8
0
 62
     0
 10
31.400626051865739
 20
48.96618276194873
 30
0.0
 11
29.793248442890668
 21
48.283891446799601
 31
0.0
  0
LINE
  5
AC1
  8
0
 62
     0
 10
46.533817238045117
 20
46.900626051872031
 30
0.0
 11
47.216108553194253
 21
45.293248442896953
 31
0.0
  0
LINE
  5
AC2
  8
0
 62
     0
 10
41.460569156614383
 20
66.200782108740015
 30
0.0
 11
42.114703948161448
 21
67.819822531660336
 31
0.0
  0
LINE
  5
AC3
  8
0
 62
     0
 10
50.700782108733719
 20
54.039430843379478
 30
0.0
 11
52.319822531654047
 21
53.385296051832398
 31
0.0
  0
CIRCLE
  5
ACC
  8
0
 62
     0
 10
39.999999999993783
 20
55.500000000000078
 30
0.0
 40
12.5
  0
CIRCLE
  5
ACD
  8
0
 62
     0
 10
39.999999999993783
 20
55.500000000000078
 30
0.0
 40
10.29053922086139
  0
ARC
  5
ACF
  8
0
 62
     0
 10
40.000000000009408
 20
55.500000000000462
 30
0.0
 40
10.80000000001545
 50
172.22762416168939
 51
190.456063810731
  0
ARC
  5
AD1
  8
0
 62
     0
 10
39.999999999995609
 20
55.50000000000199
 30
0.0
 40
10.800000000002621
 50
217.2276241616791
 51
235.4560638107418
  0
ARC
  5
AD3
  8
0
 62
     0
 10
39.999999999993562
 20
55.50000000000977
 30
0.0
 40
10.800000000009581
 50
262.2276241616845
 51
280.45606381073588
  0
ARC
  5
AD5
  8
0
 62
     0
 10
39.999999999986862
 20
55.500000000006679
 30
0.0
 40
10.80000000000944
 50
307.2276241616845
 51
325.45606381073623
  0
ARC
  5
AD7
  8
0
 62
     0
 10
39.999999999987558
 20
55.499999999999908
 30
0.0
 40
10.80000000000614
 50
352.227624161682
 51
10.45606381073927
  0
ARC
  5
AD9
  8
0
 62
     0
 10
39.999999999990443
 20
55.499999999996589
 30
0.0
 40
10.80000000000477
 50
37.227624161680133
 51
55.456063810740332
  0
ARC
  5
ADB
  8
0
 62
     0
 10
39.99999999999401
 20
55.499999999990841
 30
0.0
 40
10.800000000009121
 50
82.227624161684503
 51
100.4560638107363
  0
ARC
  5
ADD
  8
0
 62
     0
 10
39.999999999998607
 20
55.499999999995481
 30
0.0
 40
10.80000000000658
 50
127.2276241616822
 51
145.4560638107381
  0
ENDSEC
  0
EOF
