  0
SECTION
  2
HEADER
  9
$ACADVER
  1
AC1009
  9
$INSBASE
 10
0.0
 20
0.0
 30
0.0
  9
$EXTMIN
 10
0.0
 20
-2.960436562073669
 30
0.0
  9
$EXTMAX
 10
236.16604368634239
 20
148.4125445139637
 30
0.0
  9
$LIMMIN
 10
0.0
 20
0.0
  9
$LIMMAX
 10
375.0
 20
270.0
  9
$ORTHOMODE
 70
     0
  9
$REGENMODE
 70
     1
  9
$FILLMODE
 70
     1
  9
$QTEXTMODE
 70
     0
  9
$MIRRTEXT
 70
     0
  9
$DRAGMODE
 70
     2
  9
$LTSCALE
 40
5.0
  9
$OSMODE
 70
  3071
  9
$ATTMODE
 70
     1
  9
$TEXTSIZE
 40
0.2
  9
$TRACEWID
 40
0.05
  9
$TEXTSTYLE
  7
STANDARD
  9
$CLAYER
  8
0
  9
$CELTYPE
  6
BYLAYER
  9
$CECOLOR
 62
   256
  9
$DIMSCALE
 40
1.0
  9
$DIMASZ
 40
3.0
  9
$DIMEXO
 40
2.0
  9
$DIMDLI
 40
0.38
  9
$DIMRND
 40
0.0
  9
$DIMDLE
 40
0.0
  9
$DIMEXE
 40
2.0
  9
$DIMTP
 40
0.0
  9
$DIMTM
 40
0.0
  9
$DIMTXT
 40
3.2000000000000002
  9
$DIMCEN
 40
0.0
  9
$DIMTSZ
 40
0.0
  9
$DIMTOL
 70
     0
  9
$DIMLIM
 70
     0
  9
$DIMTIH
 70
     0
  9
$DIMTOH
 70
     0
  9
$DIMSE1
 70
     0
  9
$DIMSE2
 70
     0
  9
$DIMTAD
 70
     1
  9
$DIMZIN
 70
     0
  9
$DIMBLK
  1

  9
$DIMASO
 70
     0
  9
$DIMSHO
 70
     0
  9
$DIMPOST
  1

  9
$DIMAPOST
  1

  9
$DIMALT
 70
     0
  9
$DIMALTD
 70
     2
  9
$DIMALTF
 40
25.399999999999999
  9
$DIMLFAC
 40
1.0
  9
$DIMTOFL
 70
     1
  9
$DIMTVP
 40
1.6000000000000001
  9
$DIMTIX
 70
     1
  9
$DIMSOXD
 70
     0
  9
$DIMSAH
 70
     0
  9
$DIMBLK1
  1

  9
$DIMBLK2
  1

  9
$DIMSTYLE
  2
STANDARD
  9
$DIMCLRD
 70
     0
  9
$DIMCLRE
 70
     0
  9
$DIMCLRT
 70
     0
  9
$DIMTFAC
 40
1.0
  9
$DIMGAP
 40
0.09
  9
$LUNITS
 70
     2
  9
$LUPREC
 70
     4
  9
$SKETCHINC
 40
0.1
  9
$FILLETRAD
 40
0.0
  9
$AUNITS
 70
     0
  9
$AUPREC
 70
     4
  9
$MENU
  1
E:\r13\win\SUPPORT\ACAD
  9
$ELEVATION
 40
0.0
  9
$PELEVATION
 40
0.0
  9
$THICKNESS
 40
0.0
  9
$LIMCHECK
 70
     0
  9
$BLIPMODE
 70
     0
  9
$CHAMFERA
 40
0.0
  9
$CHAMFERB
 40
0.0
  9
$SKPOLY
 70
     0
  9
$TDCREATE
 40
2449840.6513888892
  9
$TDUPDATE
 40
2456598.4958031951
  9
$TDINDWG
 40
0.0495743287
  9
$TDUSRTIMER
 40
0.0495743287
  9
$USRTIMER
 70
     1
  9
$ANGBASE
 50
0.0
  9
$ANGDIR
 70
     0
  9
$PDMODE
 70
     0
  9
$PDSIZE
 40
0.0
  9
$PLINEWID
 40
0.0
  9
$COORDS
 70
     1
  9
$SPLFRAME
 70
     0
  9
$SPLINETYPE
 70
     6
  9
$SPLINESEGS
 70
     8
  9
$ATTDIA
 70
     0
  9
$ATTREQ
 70
     1
  9
$HANDLING
 70
     1
  9
$HANDSEED
  5
E32
  9
$SURFTAB1
 70
     6
  9
$SURFTAB2
 70
     6
  9
$SURFTYPE
 70
     6
  9
$SURFU
 70
     6
  9
$SURFV
 70
     6
  9
$UCSNAME
  2

  9
$UCSORG
 10
0.0
 20
0.0
 30
0.0
  9
$UCSXDIR
 10
1.0
 20
0.0
 30
0.0
  9
$UCSYDIR
 10
0.0
 20
1.0
 30
0.0
  9
$PUCSNAME
  2

  9
$PUCSORG
 10
0.0
 20
0.0
 30
0.0
  9
$PUCSXDIR
 10
1.0
 20
0.0
 30
0.0
  9
$PUCSYDIR
 10
0.0
 20
1.0
 30
0.0
  9
$USERI1
 70
     0
  9
$USERI2
 70
     1
  9
$USERI3
 70
     0
  9
$USERI4
 70
     0
  9
$USERI5
 70
     0
  9
$USERR1
 40
0.0
  9
$USERR2
 40
0.0
  9
$USERR3
 40
0.0
  9
$USERR4
 40
0.0
  9
$USERR5
 40
0.0
  9
$WORLDVIEW
 70
     1
  9
$SHADEDGE
 70
     3
  9
$SHADEDIF
 70
    70
  9
$TILEMODE
 70
     1
  9
$MAXACTVP
 70
    16
  9
$PLIMCHECK
 70
     0
  9
$PEXTMIN
 10
1.0000000000000000E+020
 20
1.0000000000000000E+020
 30
1.0000000000000000E+020
  9
$PEXTMAX
 10
-1.0000000000000000E+020
 20
-1.0000000000000000E+020
 30
-1.0000000000000000E+020
  9
$PLIMMIN
 10
0.0
 20
0.0
  9
$PLIMMAX
 10
12.0
 20
9.0
  9
$UNITMODE
 70
     0
  9
$VISRETAIN
 70
     0
  9
$PLINEGEN
 70
     0
  9
$PSLTSCALE
 70
     0
  0
ENDSEC
  0
SECTION
  2
TABLES
  0
TABLE
  2
VPORT
 70
     1
  0
VPORT
  2
*ACTIVE
 70
     0
 10
0.0
 20
0.0
 11
1.0
 21
1.0
 12
195.0581083320873
 22
133.5127261426681
 13
0.0
 23
0.0
 14
5.0
 24
5.0
 15
10.0
 25
10.0
 16
0.0
 26
0.0
 36
1.0
 17
0.0
 27
0.0
 37
0.0
 40
275.42274993631997
 41
1.831871345029239
 42
50.0
 43
0.0
 44
0.0
 50
0.0
 51
0.0
 71
     0
 72
   500
 73
     1
 74
     0
 75
     0
 76
     0
 77
     0
 78
     2
  0
ENDTAB
  0
TABLE
  2
LTYPE
 70
     4
  0
LTYPE
  2
CONTINUOUS
 70
     0
  3
Solid Line
 72
    65
 73
     0
 40
0.0
  0
LTYPE
  2
CENTER
 70
     0
  3
____ _ ____ _ ____ _ ____ _ ____ _ ____ _ ____
 72
    65
 73
     4
 40
2.0
 49
1.25
 49
-0.25
 49
0.25
 49
-0.25
  0
LTYPE
  2
HIDDEN
 70
     0
  3
_ _ _ _ _ _ _ _ _ _ _ _ _ _ _ _ _ _ _ _ _ _ _
 72
    65
 73
     2
 40
0.375
 49
0.25
 49
-0.125
  0
LTYPE
  2
PHANTOM2
 70
     0
  3
Phantom (.5x) ___ _ _ ___ _ _ ___ _ _ ___ _ _
 72
    65
 73
     6
 40
1.25
 49
0.625
 49
-0.125
 49
0.125
 49
-0.125
 49
0.125
 49
-0.125
  0
ENDTAB
  0
TABLE
  2
LAYER
 70
     5
  0
LAYER
  2
0
 70
     0
 62
     7
  6
CONTINUOUS
  0
LAYER
  2
1
 70
     0
 62
     1
  6
CENTER
  0
LAYER
  2
2
 70
     0
 62
     2
  6
HIDDEN
  0
LAYER
  2
3
 70
     0
 62
     3
  6
CONTINUOUS
  0
LAYER
  2
5
 70
     0
 62
     3
  6
PHANTOM2
  0
ENDTAB
  0
TABLE
  2
STYLE
 70
     2
  0
STYLE
  2
STANDARD
 70
     0
 40
0.0
 41
1.0
 50
0.0
 71
     0
 42
0.2
  3
TXT
  4
BIGFONT
  0
STYLE
  2
STANDARD1
 70
     0
 40
0.0
 41
1.0
 50
0.0
 71
     0
 42
3.0
  3
txt
  4

  0
ENDTAB
  0
TABLE
  2
VIEW
 70
     1
  0
VIEW
  2
ALL
 70
     0
 40
270.0
 10
220.99159663865549
 20
135.0
 41
0.0
 11
0.0
 21
0.0
 31
1.0
 12
0.0
 22
0.0
 32
0.0
 42
0.0
 43
0.0
 44
0.0
 50
0.0
 71
     0
  0
ENDTAB
  0
TABLE
  2
UCS
 70
     0
  0
ENDTAB
  0
TABLE
  2
APPID
 70
     4
  0
APPID
  2
ACAD
 70
     0
  0
APPID
  2
_CALL_MAC$
 70
     0
  0
APPID
  2
ACAD_MLEADERVER
 70
     0
  0
APPID
  2
ACAD_NAV_VCDISPLAY
 70
     0
  0
ENDTAB
  0
TABLE
  2
DIMSTYLE
 70
     1
  0
DIMSTYLE
  2
STANDARD
 70
     0
  3

  4

  5

  6

  7

 40
1.0
 41
0.18
 42
0.0625
 43
0.38
 44
0.18
 45
0.0
 46
0.0
 47
0.0
 48
0.0
140
0.18
141
0.09
142
0.0
143
25.399999999999999
144
1.0
145
0.0
146
1.0
147
0.09
 71
     0
 72
     0
 73
     1
 74
     1
 75
     0
 76
     0
 77
     0
 78
     0
170
     0
171
     2
172
     0
173
     0
174
     0
175
     0
176
     0
177
     0
178
     0
  0
ENDTAB
  0
ENDSEC
  0
SECTION
  2
BLOCKS
  0
BLOCK
  8
0
  2
$MODEL_SPACE
 70
     0
 10
0.0
 20
0.0
 30
0.0
  3
$MODEL_SPACE
  1

  0
ENDBLK
  5
6E2
  8
0
  0
BLOCK
 67
     1
  8
0
  2
$PAPER_SPACE
 70
     0
 10
0.0
 20
0.0
 30
0.0
  3
$PAPER_SPACE
  1

  0
ENDBLK
  5
6E0
 67
     1
  8
0
  0
BLOCK
  8
0
  2
STDGX5
 70
     0
 10
0.0
 20
0.0
 30
0.0
  3
STDGX5
  1

  0
ENDBLK
  5
2C7
  8
0
  0
ENDSEC
  0
SECTION
  2
ENTITIES
  0
INSERT
  5
364
  8
0
  2
STDGX5
 10
0.0
 20
0.0
 30
0.0
  0
INSERT
  5
365
  8
0
  2
STDGX5
 10
0.0
 20
0.0
 30
0.0
  0
INSERT
  5
366
  8
0
  2
STDGX5
 10
275.0
 20
0.0
 30
0.0
  0
INSERT
  5
367
  8
0
  2
STDGX5
 10
275.0
 20
0.0
 30
0.0
  0
INSERT
  5
4ED
  8
0
  2
STDGX5
 10
0.0
 20
0.0
 30
0.0
  0
INSERT
  5
4EE
  8
0
  2
STDGX5
 10
0.0
 20
0.0
 30
0.0
  0
INSERT
  5
4EF
  8
0
  2
STDGX5
 10
275.0
 20
0.0
 30
0.0
  0
INSERT
  5
4F0
  8
0
  2
STDGX5
 10
275.0
 20
0.0
 30
0.0
  0
INSERT
  5
500
  8
0
  2
STDGX5
 10
471.79233269980392
 20
233.9519585625761
 30
0.0
  0
INSERT
  5
501
  8
0
  2
STDGX5
 10
471.79233269980392
 20
233.9519585625761
 30
0.0
  0
INSERT
  5
502
  8
0
  2
STDGX5
 10
471.79233269980392
 20
233.9519585625761
 30
0.0
  0
INSERT
  5
503
  8
0
  2
STDGX5
 10
471.79233269980392
 20
233.9519585625761
 30
0.0
  0
INSERT
  5
67F
  8
0
  2
STDGX5
 10
0.0
 20
0.0
 30
0.0
  0
INSERT
  5
680
  8
0
  2
STDGX5
 10
0.0
 20
0.0
 30
0.0
  0
INSERT
  5
681
  8
0
  2
STDGX5
 10
275.0
 20
0.0
 30
0.0
  0
INSERT
  5
682
  8
0
  2
STDGX5
 10
275.0
 20
0.0
 30
0.0
  0
INSERT
  5
692
  8
0
  2
STDGX5
 10
471.79233269980392
 20
233.9519585625761
 30
0.0
  0
INSERT
  5
693
  8
0
  2
STDGX5
 10
471.79233269980392
 20
233.9519585625761
 30
0.0
  0
INSERT
  5
694
  8
0
  2
STDGX5
 10
471.79233269980392
 20
233.9519585625761
 30
0.0
  0
INSERT
  5
695
  8
0
  2
STDGX5
 10
471.79233269980392
 20
233.9519585625761
 30
0.0
  0
INSERT
  5
698
  8
0
  2
STDGX5
 10
625.17172490477549
 20
209.60057380630951
 30
0.0
  0
INSERT
  5
699
  8
0
  2
STDGX5
 10
625.17172490477549
 20
209.60057380630951
 30
0.0
  0
INSERT
  5
69A
  8
0
  2
STDGX5
 10
625.17172490477549
 20
209.60057380630951
 30
0.0
  0
INSERT
  5
69B
  8
0
  2
STDGX5
 10
625.17172490477549
 20
209.60057380630951
 30
0.0
  0
INSERT
  5
69C
  8
0
  2
STDGX5
 10
611.48701390477561
 20
209.6279228063095
 30
0.0
 41
0.1
 42
0.1
 43
0.1
  0
INSERT
  5
69D
  8
0
  2
STDGX5
 10
611.48701390477561
 20
209.6279228063095
 30
0.0
 41
0.1
 42
0.1
 43
0.1
  0
INSERT
  5
69E
  8
0
  2
STDGX5
 10
611.48701390477561
 20
209.6279228063095
 30
0.0
 41
0.1
 42
0.1
 43
0.1
  0
LINE
  5
B7A
  8
5
 10
121.6553707407687
 20
74.937063037652052
 30
0.0
 11
121.6925016748326
 21
74.815613224742577
 31
0.0
  0
LINE
  5
B7B
  8
5
 10
120.72709058949241
 20
77.973330601140873
 30
0.0
 11
120.7642217723987
 21
77.851879974305092
 31
0.0
  0
LINE
  5
B7C
  8
5
 10
128.31570361497489
 20
89.582491163748386
 30
0.0
 11
128.2892988470191
 21
89.45826649738936
 31
0.0
  0
LINE
  5
B7D
  8
5
 10
127.6555840046061
 20
86.476872568950455
 30
0.0
 11
127.6291794136072
 21
86.352648735108573
 31
0.0
  0
LINE
  5
B7E
  8
0
 10
44.46604406632116
 20
82.01891656402708
 30
0.0
 11
28.46604330636211
 21
82.018916564027109
 31
0.0
  0
LINE
  5
B7F
  8
0
 10
44.466044066321388
 20
83.606416119283907
 30
0.0
 11
28.46604330636211
 21
83.606416119283907
 31
0.0
  0
LINE
  5
B80
  8
0
 10
44.466044066321437
 20
85.193916100098676
 30
0.0
 11
28.466043306362231
 21
85.193916100098676
 31
0.0
  0
LINE
  5
B81
  8
0
 10
124.4660429263826
 20
82.082416098120248
 30
0.0
 11
124.4660429263825
 21
81.955417029933898
 31
0.0
  0
LINE
  5
B82
  8
0
 10
124.4660429263826
 20
85.257416059749886
 30
0.0
 11
124.4660429263826
 21
85.130416140447466
 31
0.0
  0
LINE
  5
B83
  8
0
 10
33.03821638614091
 20
68.106416203568557
 30
0.0
 11
28.466043686341781
 21
68.106416203568585
 31
0.0
  0
LINE
  5
B84
  8
0
 10
36.46604368634064
 20
66.693536704484586
 30
0.0
 11
36.46604368634064
 21
63.106416203568443
 31
0.0
  0
ARC
  5
B85
  8
0
 10
33.216043686342459
 20
57.886941152835988
 30
0.0
 40
9.3871521352487513
 50
69.743841999583083
 51
110.2561580004169
  0
ARC
  5
B86
  8
0
 10
39.716043686342012
 20
57.886941152835988
 30
0.0
 40
9.3871521352487513
 50
69.743841999583083
 51
110.2561580004169
  0
LINE
  5
B87
  8
0
 10
32.466043686340981
 20
61.60641620356855
 30
0.0
 11
28.466043686341841
 21
61.606416203568592
 31
0.0
  0
LINE
  5
B88
  8
0
 10
29.966043686341841
 20
63.106416203568472
 30
0.0
 11
29.966043686341841
 21
66.693536704484927
 31
0.0
  0
LINE
  5
B89
  8
0
 10
42.966043686341827
 20
63.106416203568443
 30
0.0
 11
42.96604368634177
 21
66.693536704484004
 31
0.0
  0
LINE
  5
B8A
  8
3
 10
33.1425436863409
 20
63.106416203568443
 30
0.0
 11
33.1425436863409
 21
59.606416203568422
 31
0.0
  0
LINE
  5
B8B
  8
0
 10
32.466043686341038
 20
63.106416203568408
 30
0.0
 11
32.466043686340981
 21
59.606416203568443
 31
0.0
  0
LINE
  5
B8C
  8
0
 10
40.466043686341031
 20
63.106416203568443
 30
0.0
 11
40.466043686340917
 21
59.606416203568422
 31
0.0
  0
LINE
  5
B8D
  8
3
 10
39.789543686341119
 20
63.106416203568443
 30
0.0
 11
39.789543686341013
 21
59.606416203568422
 31
0.0
  0
ARC
  5
B8E
  8
0
 10
36.466043686341102
 20
56.60641620356845
 30
0.0
 40
12.000000000000011
 50
57.202831704171508
 51
122.7971682958203
  0
LINE
  5
B8F
  8
0
 10
42.966043686341891
 20
63.106416203568443
 30
0.0
 11
29.966043686341951
 21
63.106416203568472
 31
0.0
  0
LINE
  5
B90
  8
0
 10
42.716043686340527
 20
54.606416203568592
 30
0.0
 11
30.216043686343259
 21
54.606416203568592
 31
0.0
  0
LINE
  5
B91
  8
0
 10
30.216043686343259
 20
59.606416203568351
 30
0.0
 11
42.716043686340527
 21
59.606416203568351
 31
0.0
  0
LINE
  5
B92
  8
0
 10
29.966043686342118
 20
59.462078636270292
 30
0.0
 11
30.216043686343259
 21
59.606416203568351
 31
0.0
  0
ARC
  5
B93
  8
0
 10
33.216043686342118
 20
50.074926501021586
 30
0.0
 40
9.3871521352487513
 50
69.743841999583083
 51
110.2561580004169
  0
ARC
  5
B94
  8
0
 10
33.216043686342118
 20
64.13790590611535
 30
0.0
 40
9.3871521352487513
 50
249.74384199958311
 51
290.25615800041692
  0
LINE
  5
B95
  8
0
 10
29.966043686342118
 20
54.750753770866652
 30
0.0
 11
30.216043686343259
 21
54.606416203568592
 31
0.0
  0
LINE
  5
B96
  8
0
 10
29.966043686342118
 20
59.462078636270292
 30
0.0
 11
29.966043686342118
 21
54.750753770866652
 31
0.0
  0
LINE
  5
B97
  8
0
 10
36.466043686341891
 20
58.881522052669141
 30
0.0
 11
36.466043686341891
 21
55.331310354467398
 31
0.0
  0
LINE
  5
B98
  8
0
 10
42.966043686341663
 20
59.462078636270292
 30
0.0
 11
42.966043686341663
 21
54.750753770866652
 31
0.0
  0
LINE
  5
B99
  8
0
 10
42.966043686341663
 20
54.750753770866652
 30
0.0
 11
42.716043686340527
 21
54.606416203568592
 31
0.0
  0
ARC
  5
B9A
  8
0
 10
39.716043686341663
 20
64.13790590611535
 30
0.0
 40
9.3871521352487513
 50
249.74384199958311
 51
290.25615800041692
  0
ARC
  5
B9B
  8
0
 10
39.716043686341663
 20
50.074926501021586
 30
0.0
 40
9.3871521352487513
 50
69.743841999583083
 51
110.2561580004169
  0
LINE
  5
B9C
  8
0
 10
42.966043686341663
 20
59.462078636270292
 30
0.0
 11
42.716043686340527
 21
59.606416203568351
 31
0.0
  0
LINE
  5
B9D
  8
0
 10
44.466043686341827
 20
80.606416203568585
 30
0.0
 11
28.466043686341841
 21
80.606416203568585
 31
0.0
  0
LINE
  5
B9E
  8
0
 10
28.466043686341781
 20
80.606416203568557
 30
0.0
 11
23.966043686341781
 21
80.606416203568585
 31
0.0
  0
LINE
  5
B9F
  8
0
 10
48.966043686341777
 20
80.606416203568614
 30
0.0
 11
44.466043686341827
 21
80.606416203568585
 31
0.0
  0
LINE
  5
BA0
  8
0
 10
44.466043686341827
 20
61.606416203568592
 30
0.0
 11
40.466043686340981
 21
61.60641620356855
 31
0.0
  0
LINE
  5
BA1
  8
0
 10
44.466043686341827
 20
68.106416203568557
 30
0.0
 11
39.893870986541337
 21
68.106416203568529
 31
0.0
  0
LINE
  5
BA2
  8
0
 10
30.966043686341951
 20
36.606416203568592
 30
0.0
 11
30.966043686341951
 21
54.606416203568592
 31
0.0
  0
LINE
  5
BA3
  8
0
 10
41.966043686341827
 20
36.606416203568592
 30
0.0
 11
41.966043686341777
 21
54.606416203568592
 31
0.0
  0
LINE
  5
BA4
  8
1
 10
41.466043686341877
 20
46.60641620356855
 30
0.0
 11
31.466043686341891
 21
46.60641620356855
 31
0.0
  0
LINE
  5
BA5
  8
1
 10
228.66604368634239
 20
69.106416203568614
 30
0.0
 11
218.66604368634239
 21
69.106416203568614
 31
0.0
  0
LINE
  5
BA6
  8
0
 10
48.966043686341948
 20
54.606416203568592
 30
0.0
 11
23.966043686341781
 21
54.606416203568592
 31
0.0
  0
LINE
  5
BA7
  8
0
 10
28.466043686341781
 20
83.606416203568557
 30
0.0
 11
23.966043686341781
 21
83.606416203568585
 31
0.0
  0
LINE
  5
BA8
  8
0
 10
23.966043686341781
 20
83.606416203568585
 30
0.0
 11
23.966043686341781
 21
36.606416203568592
 31
0.0
  0
LINE
  5
BA9
  8
0
 10
48.966043686341891
 20
36.606416203568592
 30
0.0
 11
23.966043686341781
 21
36.606416203568592
 31
0.0
  0
LINE
  5
BAA
  8
0
 10
48.966043686341777
 20
83.606416203568585
 30
0.0
 11
44.466043686341777
 21
83.606416203568557
 31
0.0
  0
LINE
  5
BAB
  8
0
 10
48.966043686341891
 20
36.606416203568592
 30
0.0
 11
48.966043686341948
 21
83.606416203568585
 31
0.0
  0
LINE
  5
BAC
  8
0
 10
44.466043686341941
 20
61.606416203568607
 30
0.0
 11
44.466043686341777
 21
86.606416203568614
 31
0.0
  0
LINE
  5
BAD
  8
0
 10
28.466043686341781
 20
61.606416203568607
 30
0.0
 11
28.466043686341781
 21
86.606416203568614
 31
0.0
  0
LINE
  5
BAE
  8
0
 10
44.466043686341777
 20
86.606416203568614
 30
0.0
 11
28.466043686341781
 21
86.606416203568614
 31
0.0
  0
LINE
  5
BAF
  8
1
 10
36.466043686341891
 20
31.606416203568589
 30
0.0
 11
36.466043686341777
 21
91.606416203568642
 31
0.0
  0
LINE
  5
BB0
  8
0
 10
37.716043685324507
 20
45.884728367668487
 30
0.0
 11
37.716043685324507
 21
47.32810404064233
 31
0.0
  0
LINE
  5
BB1
  8
0
 10
37.716043685323598
 20
47.3281040394684
 30
0.0
 11
36.466043685324507
 21
48.049791875955428
 31
0.0
  0
LINE
  5
BB2
  8
0
 10
36.466043686342232
 20
48.04979187536722
 30
0.0
 11
35.216043686342232
 21
47.328104038880397
 31
0.0
  0
LINE
  5
BB3
  8
0
 10
35.216043687359047
 20
47.32810403946749
 30
0.0
 11
35.216043687359047
 21
45.884728366493647
 31
0.0
  0
LINE
  5
BB4
  8
0
 10
35.216043687359047
 20
45.884728367668487
 30
0.0
 11
36.466043687359047
 21
45.163040531181451
 31
0.0
  0
LINE
  5
BB5
  8
0
 10
36.466043686342232
 20
45.16304053176966
 30
0.0
 11
37.716043686342232
 21
45.884728368256468
 31
0.0
  0
CIRCLE
  5
BB6
  8
3
 10
36.466043686341891
 20
46.60641620356855
 30
0.0
 40
2.0669999999999988
  0
CIRCLE
  5
BB7
  8
0
 10
36.466043686341891
 20
46.60641620356855
 30
0.0
 40
2.5
  0
LINE
  5
BB8
  8
5
 10
156.63570574491649
 20
76.936754144993813
 30
0.0
 11
152.91520600540071
 21
82.665821341755503
 31
0.0
  0
LINE
  5
BB9
  8
5
 10
127.9526811353234
 20
81.593053652550253
 30
0.0
 11
121.6227364824303
 21
79.657795360225606
 31
0.0
  0
LINE
  5
BBA
  8
5
 10
146.05358921700619
 20
83.606416203568628
 30
0.0
 11
145.59556823575119
 21
83.849950279200826
 31
0.0
  0
LINE
  5
BBB
  8
5
 10
124.4776739627696
 20
74.256486802688812
 30
0.0
 11
126.96604368634181
 21
66.117396176586169
 31
0.0
  0
LINE
  5
BBC
  8
5
 10
158.0868865989805
 20
75.485573290929779
 30
0.0
 11
157.45799461226619
 21
77.542586292417951
 31
0.0
  0
LINE
  5
BBD
  8
5
 10
123.376966726015
 20
73.919966774572231
 30
0.0
 11
126.96604368634181
 21
75.017257719460531
 31
0.0
  0
LINE
  5
BBE
  8
5
 10
122.6672051145601
 20
76.840046109291592
 30
0.0
 11
121.6553707407687
 21
74.937063037652109
 31
0.0
  0
LINE
  5
BBF
  8
5
 10
121.6925016748327
 20
74.815613224742378
 30
0.0
 11
123.376966726015
 21
73.919966774572231
 31
0.0
  0
LINE
  5
BC0
  8
5
 10
120.72709058949241
 20
77.973330601140816
 30
0.0
 11
121.62273650825431
 21
79.657795368120873
 31
0.0
  0
LINE
  5
BC1
  8
5
 10
122.6672051145601
 20
76.840046109291592
 30
0.0
 11
120.7642217723987
 21
77.851879974305064
 31
0.0
  0
LINE
  5
BC2
  8
5
 10
135.63355793993441
 20
83.941333352224007
 30
0.0
 11
134.5380933072795
 21
83.606416203568614
 31
0.0
  0
LINE
  5
BC3
  8
5
 10
145.59556823575119
 20
83.849950279200826
 30
0.0
 11
141.8495388536939
 21
85.841749432921773
 31
0.0
  0
LINE
  5
BC4
  8
5
 10
141.8495388536939
 20
85.841749432921773
 30
0.0
 11
135.63355793993441
 21
83.94133335222395
 31
0.0
  0
LINE
  5
BC5
  8
5
 10
135.63355793993441
 20
83.94133335222395
 30
0.0
 11
135.73595238802491
 21
83.606416203568585
 31
0.0
  0
LINE
  5
BC6
  8
5
 10
145.59556823575119
 20
83.849950279200826
 30
0.0
 11
144.79900416677941
 21
83.606416203568585
 31
0.0
  0
LINE
  5
BC7
  8
5
 10
157.45799461226619
 20
77.542586292417951
 30
0.0
 11
154.40834742453711
 21
79.164112465373535
 31
0.0
  0
ARC
  5
BC8
  8
5
 10
163.0380515626666
 20
63.981481261729733
 30
0.0
 40
0.4
 50
286.99999999999869
 51
16.999999999999758
  0
ARC
  5
BC9
  8
5
 10
166.19566597367219
 20
53.653389897328942
 30
0.0
 40
0.4
 50
16.999999999999758
 51
106.99999999999859
  0
LINE
  5
BCA
  8
1
 10
179.34395201000029
 20
63.319959832259542
 30
0.0
 11
158.523904926906
 21
56.95463264954369
 31
0.0
  0
LINE
  5
BCB
  8
5
 10
176.3276190143892
 20
54.03224023810796
 30
0.0
 11
167.33835430833659
 21
51.283946213714209
 31
0.0
  0
LINE
  5
BCC
  8
5
 10
167.33835430833659
 20
51.283946213714209
 30
0.0
 11
162.66040703277281
 21
66.584822309122785
 31
0.0
  0
LINE
  5
BCD
  8
5
 10
162.66040703277281
 20
66.584822309122785
 30
0.0
 11
171.64967173882539
 21
69.333116333516529
 31
0.0
  0
LINE
  5
BCE
  8
5
 10
172.52729618076839
 20
68.514718301441519
 30
0.0
 11
176.59756027960179
 21
55.201484315850109
 31
0.0
  0
LINE
  5
BCF
  8
5
 10
176.3276190143892
 20
54.03224023810796
 30
0.0
 11
176.59756027960179
 21
55.201484315850109
 31
0.0
  0
LINE
  5
BD0
  8
5
 10
171.64967173882539
 20
69.333116333516529
 30
0.0
 11
172.52729618076839
 21
68.514718301441519
 31
0.0
  0
LINE
  5
BD1
  8
5
 10
163.15500024455579
 20
63.598959359344548
 30
0.0
 11
161.8435701831072
 21
63.198014952972549
 31
0.0
  0
LINE
  5
BD2
  8
5
 10
166.07871729178299
 20
54.035911799714199
 30
0.0
 11
164.7672872303346
 21
53.63496739334218
 31
0.0
  0
LINE
  5
BD3
  8
5
 10
159.46604368634209
 20
46.785755809623232
 30
0.0
 11
166.22914575394839
 21
48.85344361352697
 31
0.0
  0
LINE
  5
BD4
  8
5
 10
166.22914575394839
 20
48.853443613526991
 30
0.0
 11
159.46604368634189
 21
70.974553720432851
 31
0.0
  0
LINE
  5
BD5
  8
5
 10
128.31570361497489
 20
89.582491163748344
 30
0.0
 11
129.91569791014089
 21
90.621539487180897
 31
0.0
  0
LINE
  5
BD6
  8
5
 10
140.13141006036651
 20
83.606416203568614
 30
0.0
 11
141.11646654853479
 21
88.24074261734242
 31
0.0
  0
LINE
  5
BD7
  8
5
 10
128.6682277279769
 20
84.752653837378176
 30
0.0
 11
134.0608518126142
 21
83.606416203568614
 31
0.0
  0
LINE
  5
BD8
  8
5
 10
129.4631387885818
 20
87.650712027249156
 30
0.0
 11
127.6555840046061
 21
86.476872568950455
 31
0.0
  0
LINE
  5
BD9
  8
5
 10
127.6291794136072
 20
86.352648735108374
 30
0.0
 11
128.6682277279769
 21
84.752653837378176
 31
0.0
  0
LINE
  5
BDA
  8
5
 10
129.4631387885818
 20
87.650712027249156
 30
0.0
 11
128.28929884701901
 21
89.458266497389332
 31
0.0
  0
LINE
  5
BDB
  8
5
 10
144.24653887088309
 20
87.575425206725669
 30
0.0
 11
129.91569788372701
 21
90.621539492795364
 31
0.0
  0
ARC
  5
BDC
  8
5
 10
166.3140487160565
 20
55.179401068573839
 30
0.0
 40
0.4
 50
258.0000000000004
 51
347.99999999999937
  0
ARC
  5
BDD
  8
5
 10
164.06860245522461
 20
44.615406980648707
 30
0.0
 40
0.4
 50
347.99999999999937
 51
78.000000000000384
  0
LINE
  5
BDE
  8
1
 10
180.2547986369413
 20
46.695563986017788
 30
0.0
 11
154.46604368634189
 21
52.177133068067967
 31
0.0
  0
LINE
  5
BDF
  8
5
 10
173.1138785462901
 20
40.034688648726792
 30
0.0
 11
163.91929109939221
 21
41.989058542413737
 31
0.0
  0
LINE
  5
BE0
  8
5
 10
163.91929109939221
 20
41.989058542413737
 30
0.0
 11
167.24587815247631
 21
57.639420154154628
 31
0.0
  0
LINE
  5
BE1
  8
5
 10
167.24587815247631
 20
57.639420154154628
 30
0.0
 11
176.44046559937419
 21
55.685050260467683
 31
0.0
  0
LINE
  5
BE2
  8
5
 10
176.81128599262391
 20
54.543782440913532
 30
0.0
 11
173.9168352739205
 21
40.92646243929957
 31
0.0
  0
LINE
  5
BE3
  8
5
 10
173.1138785462901
 20
40.034688648726792
 30
0.0
 11
173.9168352739205
 21
40.92646243929957
 31
0.0
  0
LINE
  5
BE4
  8
5
 10
176.44046559937419
 20
55.685050260467683
 30
0.0
 11
176.81128599262391
 21
54.543782440913532
 31
0.0
  0
LINE
  5
BE5
  8
5
 10
166.23088403972949
 20
54.788142028280333
 30
0.0
 11
159.46604368634189
 21
56.226053234043
 31
0.0
  0
LINE
  5
BE6
  8
5
 10
164.15176713155191
 20
45.006666020942269
 30
0.0
 11
159.46604368634189
 21
46.00264728539269
 31
0.0
  0
LINE
  5
BE7
  8
5
 10
152.91520600540071
 20
82.665821341755503
 30
0.0
 11
150.6044982756527
 21
86.223999216410192
 31
0.0
  0
LINE
  5
BE8
  8
5
 10
150.6044982756527
 20
86.223999216410192
 30
0.0
 11
144.24653887088309
 21
87.575425206725612
 31
0.0
  0
LINE
  5
BE9
  8
5
 10
144.24653887088309
 20
87.575425206725612
 30
0.0
 11
143.40289996393449
 21
83.606416203568614
 31
0.0
  0
LINE
  5
BEA
  8
5
 10
159.46604368634189
 20
67.792613262747921
 30
0.0
 11
160.2324471496033
 21
71.39825807201558
 31
0.0
  0
LINE
  5
BEB
  8
5
 10
160.2324471496033
 20
71.39825807201558
 30
0.0
 11
159.46604368634189
 21
72.578415913237876
 31
0.0
  0
LINE
  5
BEC
  8
0
 10
215.66604368634259
 20
74.106416203568557
 30
0.0
 11
231.66604368634259
 21
74.106416203568557
 31
0.0
  0
LINE
  5
BED
  8
1
 10
213.16604368634239
 20
54.106416203568607
 30
0.0
 11
234.16604368634239
 21
54.106416203568607
 31
0.0
  0
LINE
  5
BEE
  8
1
 10
146.96604368634189
 20
61.606416203568592
 30
0.0
 11
146.96604368634189
 21
76.606416203568642
 31
0.0
  0
LINE
  5
BEF
  8
1
 10
139.46604368634189
 20
69.106416203568614
 30
0.0
 11
154.46604368634189
 21
69.106416203568614
 31
0.0
  0
CIRCLE
  5
BF0
  8
0
 10
223.66604368634239
 20
69.106416203568614
 30
0.0
 40
2.5
  0
CIRCLE
  5
BF1
  8
3
 10
223.66604368634239
 20
69.106416203568614
 30
0.0
 40
2.0669999999999988
  0
LINE
  5
BF2
  8
0
 10
223.66604368634191
 20
67.663040531769724
 30
0.0
 11
222.41604368634199
 21
68.384728368256532
 31
0.0
  0
LINE
  5
BF3
  8
0
 10
224.91604368532509
 20
68.384728367668544
 30
0.0
 11
223.66604368532509
 21
67.663040531181508
 31
0.0
  0
LINE
  5
BF4
  8
0
 10
224.91604368532509
 20
69.828104039467533
 30
0.0
 11
224.91604368532509
 21
68.384728366493704
 31
0.0
  0
LINE
  5
BF5
  8
0
 10
223.66604368634191
 20
70.549791875367276
 30
0.0
 11
224.91604368634191
 21
69.828104038880468
 31
0.0
  0
LINE
  5
BF6
  8
0
 10
222.4160436873606
 20
69.828104039468457
 30
0.0
 11
223.6660436873596
 21
70.549791875955492
 31
0.0
  0
LINE
  5
BF7
  8
0
 10
222.41604368735969
 20
68.384728367668544
 30
0.0
 11
222.41604368735969
 21
69.828104040642387
 31
0.0
  0
LINE
  5
BF8
  8
2
 10
159.46604368634189
 20
59.106416203568607
 30
0.0
 11
144.03110719580349
 21
59.106416203568607
 31
0.0
  0
LINE
  5
BF9
  8
2
 10
159.46604368634189
 20
58.294416203568709
 30
0.0
 11
142.6246819400576
 21
58.294416203568659
 31
0.0
  0
LINE
  5
BFA
  8
2
 10
159.46604368634189
 20
49.106416203568607
 30
0.0
 11
144.03110719580329
 21
49.106416203568607
 31
0.0
  0
LINE
  5
BFB
  8
2
 10
159.46604368634189
 20
49.91841620356854
 30
0.0
 11
142.6246819400576
 21
49.918416203568512
 31
0.0
  0
ARC
  5
BFC
  8
5
 10
116.96604368634191
 20
64.606416203568614
 30
0.0
 40
12.000000000000011
 50
51.283836805528857
 51
128.71616319447111
  0
ARC
  5
BFD
  8
5
 10
116.96604368634181
 20
64.606416203568614
 30
0.0
 40
10.08712050091599
 50
68.158733116826525
 51
111.8412668831734
  0
LINE
  5
BFE
  8
5
 10
124.4715971858072
 20
73.969464140360657
 30
0.0
 11
124.4715971858072
 21
71.106416203568614
 31
0.0
  0
LINE
  5
BFF
  8
5
 10
120.71882043607449
 20
73.969464140360685
 30
0.0
 11
120.71882043607449
 21
71.106416203568614
 31
0.0
  0
LINE
  5
C00
  8
5
 10
113.2132669366092
 20
73.969464140360657
 30
0.0
 11
113.2132669366092
 21
71.106416203568614
 31
0.0
  0
LINE
  5
C01
  8
5
 10
124.4715971858072
 20
71.106416203568614
 30
0.0
 11
109.4604901868768
 21
71.106416203568642
 31
0.0
  0
LINE
  5
C02
  8
5
 10
109.4604901868767
 20
73.969464140360685
 30
0.0
 11
109.4604901868767
 21
71.106416203568614
 31
0.0
  0
ARC
  5
C03
  8
5
 10
122.59520881094031
 20
71.227451151011365
 30
0.0
 40
3.3225695729499738
 50
55.61575253199338
 51
124.3842474680382
  0
ARC
  5
C04
  8
5
 10
111.33687856174311
 20
71.227451151011365
 30
0.0
 40
3.3225695729499738
 50
55.615752531961313
 51
124.38424746808251
  0
LINE
  5
C05
  8
5
 10
113.6425436863417
 20
71.106416203568614
 30
0.0
 11
113.6425436863417
 21
68.136999352308266
 31
0.0
  0
LINE
  5
C06
  8
5
 10
112.96604368634181
 20
71.106416203568585
 30
0.0
 11
112.96604368634181
 21
67.920124702553352
 31
0.0
  0
LINE
  5
C07
  8
5
 10
120.96604368634181
 20
71.106416203568614
 30
0.0
 11
120.96604368634181
 21
67.920124702553423
 31
0.0
  0
LINE
  5
C08
  8
5
 10
120.289543686342
 20
71.106416203568614
 30
0.0
 11
120.2895436863418
 21
68.136999352308351
 31
0.0
  0
ARC
  5
C09
  8
0
 10
111.33687856174311
 20
63.227451151011358
 30
0.0
 40
3.3225695729499738
 50
55.615752531961313
 51
124.38424746808251
  0
ARC
  5
C0A
  8
0
 10
122.59520881094031
 20
63.227451151011358
 30
0.0
 40
3.3225695729499738
 50
55.61575253199338
 51
124.3842474680382
  0
LINE
  5
C0B
  8
0
 10
123.2160436863404
 20
54.606416203568607
 30
0.0
 11
110.7160436863434
 21
54.606416203568607
 31
0.0
  0
LINE
  5
C0C
  8
0
 10
110.716043686342
 20
59.606416203568379
 30
0.0
 11
123.2160436863402
 21
59.606416203568379
 31
0.0
  0
ARC
  5
C0D
  8
0
 10
122.59520881094041
 20
56.139509063320332
 30
0.0
 40
3.3225695729499738
 50
64.384247467826114
 51
124.3842474680382
  0
LINE
  5
C0E
  8
0
 10
124.4715971858067
 20
58.881522052669567
 30
0.0
 11
123.2160436863404
 21
59.606416203568379
 31
0.0
  0
LINE
  5
C0F
  8
0
 10
124.4715971858067
 20
55.331310354467433
 30
0.0
 11
123.2160436863404
 21
54.606416203568607
 31
0.0
  0
ARC
  5
C10
  8
0
 10
122.59520881094041
 20
58.073323343816661
 30
0.0
 40
3.3225695729499738
 50
235.61575253196131
 51
295.61575253217387
  0
LINE
  5
C11
  8
0
 10
124.4715971858067
 20
58.881522052669567
 30
0.0
 11
124.4715971858067
 21
55.331310354467433
 31
0.0
  0
LINE
  5
C12
  8
0
 10
120.71882043607241
 20
58.881522052669567
 30
0.0
 11
120.7188204360743
 21
55.331310354468961
 31
0.0
  0
LINE
  5
C13
  8
0
 10
113.21326693661121
 20
58.881522052669567
 30
0.0
 11
113.2132669366094
 21
55.331310354468961
 31
0.0
  0
LINE
  5
C14
  8
0
 10
109.4604901868769
 20
58.881522052669567
 30
0.0
 11
109.4604901868769
 21
55.331310354467433
 31
0.0
  0
ARC
  5
C15
  8
0
 10
116.9660436863427
 20
67.170197187259049
 30
0.0
 40
12.41944341639239
 50
252.4120462259954
 51
287.58795377399792
  0
ARC
  5
C16
  8
0
 10
111.3368785617433
 20
58.073323343816661
 30
0.0
 40
3.3225695729499738
 50
244.3842474678261
 51
304.38424746803872
  0
LINE
  5
C17
  8
0
 10
109.4604901868769
 20
55.331310354467433
 30
0.0
 11
110.7160436863432
 21
54.606416203568607
 31
0.0
  0
LINE
  5
C18
  8
0
 10
109.4604901868769
 20
58.881522052669567
 30
0.0
 11
110.7160436863432
 21
59.606416203568379
 31
0.0
  0
ARC
  5
C19
  8
0
 10
116.9660436863427
 20
47.042635219877951
 30
0.0
 40
12.41944341639239
 50
72.41204622600209
 51
107.5879537740046
  0
ARC
  5
C1A
  8
0
 10
111.3368785617433
 20
56.139509063320332
 30
0.0
 40
3.3225695729499738
 50
55.615752531961313
 51
115.6157525321738
  0
LINE
  5
C1B
  8
0
 10
112.96604368634181
 20
63.106416203568578
 30
0.0
 11
112.96604368634181
 21
59.606416203568607
 31
0.0
  0
LINE
  5
C1C
  8
3
 10
113.6425436863417
 20
63.106416203568607
 30
0.0
 11
113.6425436863417
 21
59.606416203568592
 31
0.0
  0
LINE
  5
C1D
  8
3
 10
120.289543686342
 20
63.106416203568607
 30
0.0
 11
120.2895436863418
 21
59.606416203568592
 31
0.0
  0
LINE
  5
C1E
  8
0
 10
120.96604368634181
 20
63.106416203568607
 30
0.0
 11
120.96604368634181
 21
59.606416203568592
 31
0.0
  0
LINE
  5
C1F
  8
0
 10
124.4660429263826
 20
85.257416059749886
 30
0.0
 11
125.8150432136207
 21
86.606416203568614
 31
0.0
  0
LINE
  5
C20
  8
0
 10
137.26604368634199
 20
83.606416203568585
 30
0.0
 11
137.26604368634199
 21
86.606416203568585
 31
0.0
  0
LINE
  5
C21
  8
0
 10
125.81504318661671
 20
80.606416151414535
 30
0.0
 11
126.96604368634171
 21
80.606416151414535
 31
0.0
  0
LINE
  5
C22
  8
0
 10
125.9900433549998
 20
83.606416119283907
 30
0.0
 11
124.4660429263826
 21
82.082416098120319
 31
0.0
  0
LINE
  5
C23
  8
0
 10
124.4660429263826
 20
81.955417029933756
 30
0.0
 11
125.81504318661671
 21
80.606416151414535
 31
0.0
  0
LINE
  5
C24
  8
0
 10
125.9900433549998
 20
83.606416119283907
 30
0.0
 11
124.4660429263826
 21
85.130416140447437
 31
0.0
  0
LINE
  5
C25
  8
0
 10
140.46604368634189
 20
86.606416203568642
 30
0.0
 11
125.81504318661671
 21
86.606416203568614
 31
0.0
  0
ARC
  5
C26
  8
2
 10
142.9660436863426
 20
54.106416203568607
 30
0.0
 40
3.5
 50
108.31769841120369
 51
251.68230158879629
  0
ARC
  5
C27
  8
0
 10
165.7660436863423
 20
59.506416203568591
 30
0.0
 40
0.4
 50
270.0
 51
0.0
  0
ARC
  5
C28
  8
0
 10
165.7660436863423
 20
48.70641620356858
 30
0.0
 40
0.4
 50
0.0
 51
90.0
  0
LINE
  5
C29
  8
2
 10
171.16604368634239
 20
49.487614050051398
 30
0.0
 11
168.49937701967539
 21
54.106416203568607
 31
0.0
  0
LINE
  5
C2A
  8
2
 10
171.16604368634239
 20
58.725218357085822
 30
0.0
 11
168.49937701967539
 21
54.106416203568607
 31
0.0
  0
LINE
  5
C2B
  8
2
 10
171.16604368634239
 20
58.725218357085822
 30
0.0
 11
176.16604368634239
 21
58.725218357085822
 31
0.0
  0
LINE
  5
C2C
  8
2
 10
171.16604368634239
 20
56.415817280328127
 30
0.0
 11
176.16604368634239
 21
56.415817280328127
 31
0.0
  0
LINE
  5
C2D
  8
2
 10
171.16604368634239
 20
49.487614050051349
 30
0.0
 11
171.16604368634239
 21
58.725218357085822
 31
0.0
  0
LINE
  5
C2E
  8
2
 10
171.16604368634239
 20
49.487614050051398
 30
0.0
 11
176.16604368634239
 21
49.487614050051398
 31
0.0
  0
LINE
  5
C2F
  8
2
 10
171.16604368634239
 20
51.7970151268091
 30
0.0
 11
176.16604368634239
 21
51.7970151268091
 31
0.0
  0
LINE
  5
C30
  8
2
 10
144.03110719580329
 20
49.106416203568607
 30
0.0
 11
144.03110719580349
 21
59.106416203568671
 31
0.0
  0
LINE
  5
C31
  8
2
 10
141.86604368634241
 20
57.856416203568607
 30
0.0
 11
144.03110719580329
 21
59.1064162035685
 31
0.0
  0
LINE
  5
C32
  8
2
 10
141.86604368634241
 20
50.356416203568607
 30
0.0
 11
144.03110719580329
 21
49.106416203568607
 31
0.0
  0
LINE
  5
C33
  8
1
 10
181.16604368634239
 20
54.106416203568607
 30
0.0
 11
134.46604368634269
 21
54.106416203568607
 31
0.0
  0
LINE
  5
C34
  8
0
 10
175.56604368634251
 20
46.106416203568607
 30
0.0
 11
166.16604368634239
 21
46.106416203568607
 31
0.0
  0
LINE
  5
C35
  8
0
 10
166.16604368634239
 20
46.106416203568607
 30
0.0
 11
166.16604368634239
 21
62.106416203568607
 31
0.0
  0
LINE
  5
C36
  8
0
 10
166.16604368634239
 20
62.106416203568607
 30
0.0
 11
175.56604368634251
 21
62.106416203568607
 31
0.0
  0
LINE
  5
C37
  8
0
 10
176.16604368634239
 20
61.067185719027322
 30
0.0
 11
176.16604368634239
 21
47.145646688109849
 31
0.0
  0
LINE
  5
C38
  8
0
 10
175.56604368634251
 20
62.106416203568607
 30
0.0
 11
175.56604368634251
 21
46.106416203568607
 31
0.0
  0
LINE
  5
C39
  8
0
 10
175.56604368634251
 20
46.106416203568607
 30
0.0
 11
176.16604368634239
 21
47.145646688109849
 31
0.0
  0
LINE
  5
C3A
  8
0
 10
175.56604368634251
 20
62.106416203568607
 30
0.0
 11
176.16604368634239
 21
61.067185719027322
 31
0.0
  0
LINE
  5
C3B
  8
2
 10
141.86604368634241
 20
50.356416203568607
 30
0.0
 11
141.86604368634241
 21
57.856416203568607
 31
0.0
  0
LINE
  5
C3C
  8
0
 10
165.7660436863423
 20
59.106416203568607
 30
0.0
 11
159.46604368634189
 21
59.106416203568607
 31
0.0
  0
LINE
  5
C3D
  8
3
 10
164.75961843059659
 20
58.294416203568709
 30
0.0
 11
159.46604368634189
 21
58.294416203568709
 31
0.0
  0
LINE
  5
C3E
  8
3
 10
164.75961843059659
 20
49.918416203568512
 30
0.0
 11
159.46604368634189
 21
49.918416203568512
 31
0.0
  0
LINE
  5
C3F
  8
0
 10
165.7660436863423
 20
49.106416203568607
 30
0.0
 11
159.46604368634189
 21
49.106416203568607
 31
0.0
  0
LINE
  5
C40
  8
0
 10
164.75961843059659
 20
49.106416203568607
 30
0.0
 11
164.75961843059659
 21
59.106416203568607
 31
0.0
  0
LINE
  5
C41
  8
3
 10
164.75961843059659
 20
49.918416203568512
 30
0.0
 11
166.16604368634239
 21
49.106416203568607
 31
0.0
  0
LINE
  5
C42
  8
3
 10
164.75961843059659
 20
58.294416203568709
 30
0.0
 11
166.16604368634239
 21
59.106416203568607
 31
0.0
  0
CIRCLE
  5
C43
  8
0
 10
223.66604368634239
 20
54.106416203568607
 30
0.0
 40
8.0
  0
LINE
  5
C44
  8
0
 10
219.66604368634191
 20
56.415817280326763
 30
0.0
 11
219.6660436863429
 21
51.797015126810457
 31
0.0
  0
LINE
  5
C45
  8
0
 10
223.66604368634239
 20
58.725218357085822
 30
0.0
 11
219.66604368634191
 21
56.415817280326763
 31
0.0
  0
LINE
  5
C46
  8
0
 10
227.66604368634239
 20
56.415817280328127
 30
0.0
 11
223.66604368634239
 21
58.725218357085822
 31
0.0
  0
LINE
  5
C47
  8
0
 10
227.66604368634239
 20
51.797015126810457
 30
0.0
 11
227.66604368634239
 21
56.415817280328127
 31
0.0
  0
LINE
  5
C48
  8
0
 10
223.6660436863429
 20
49.48761405005186
 30
0.0
 11
227.66604368634239
 21
51.797015126810457
 31
0.0
  0
LINE
  5
C49
  8
0
 10
219.6660436863429
 20
51.797015126810457
 30
0.0
 11
223.6660436863429
 21
49.48761405005186
 31
0.0
  0
CIRCLE
  5
C4A
  8
0
 10
223.66604368634239
 20
54.106416203568607
 30
0.0
 40
6.9607695154587068
  0
LINE
  5
C4B
  8
2
 10
83.966043686341891
 20
48.049791875367582
 30
0.0
 11
84.799377018996765
 21
46.606416203568642
 31
0.0
  0
LINE
  5
C4C
  8
2
 10
83.966043686341891
 20
45.163040531769639
 30
0.0
 11
84.799377018996765
 21
46.606416203568642
 31
0.0
  0
LINE
  5
C4D
  8
2
 10
83.966043686341891
 20
45.163040531769639
 30
0.0
 11
83.966043686341891
 21
48.049791875367653
 31
0.0
  0
LINE
  5
C4E
  8
2
 10
81.466043686341891
 20
48.049791875367653
 30
0.0
 11
83.966043686341891
 21
48.049791875367653
 31
0.0
  0
LINE
  5
C4F
  8
2
 10
81.466043686341891
 20
47.328104039467568
 30
0.0
 11
83.966043686341891
 21
47.328104039467568
 31
0.0
  0
LINE
  5
C50
  8
2
 10
81.466043686341891
 20
45.884728367668572
 30
0.0
 11
83.966043686341891
 21
45.884728367668572
 31
0.0
  0
LINE
  5
C51
  8
2
 10
81.466043686341891
 20
45.163040531769639
 30
0.0
 11
83.966043686341891
 21
45.163040531769639
 31
0.0
  0
LINE
  5
C52
  8
2
 10
81.966043686341877
 20
49.106416203568237
 30
0.0
 11
81.466043686341891
 21
48.240390799783817
 31
0.0
  0
LINE
  5
C53
  8
2
 10
90.566043686341914
 20
44.106416203568983
 30
0.0
 11
90.566043686341857
 21
49.106416203568237
 31
0.0
  0
LINE
  5
C54
  8
2
 10
81.966043686341877
 20
44.106416203568983
 30
0.0
 11
81.466043686341891
 21
44.972441607353403
 31
0.0
  0
LINE
  5
C55
  8
2
 10
81.966043686341877
 20
44.106416203568983
 30
0.0
 11
81.966043686341877
 21
49.106416203568237
 31
0.0
  0
LINE
  5
C56
  8
2
 10
91.466043686341891
 20
48.206416203568267
 30
0.0
 11
90.566043686341857
 21
49.106416203568237
 31
0.0
  0
LINE
  5
C57
  8
2
 10
90.566043686341914
 20
44.106416203568983
 30
0.0
 11
91.466043686341891
 21
45.00641620356901
 31
0.0
  0
LINE
  5
C58
  8
2
 10
81.466043686341891
 20
44.972441607353403
 30
0.0
 11
81.466043686341891
 21
48.240390799783817
 31
0.0
  0
LINE
  5
C59
  8
2
 10
90.566043686341857
 20
49.106416203568237
 30
0.0
 11
81.966043686341877
 21
49.106416203568237
 31
0.0
  0
LINE
  5
C5A
  8
2
 10
90.999043686341736
 20
48.673416203568358
 30
0.0
 11
81.716051019782853
 21
48.673416203568422
 31
0.0
  0
LINE
  5
C5B
  8
2
 10
90.566043686341914
 20
44.106416203568983
 30
0.0
 11
81.966043686341877
 21
44.106416203568983
 31
0.0
  0
LINE
  5
C5C
  8
2
 10
90.999043686341736
 20
44.539416203568862
 30
0.0
 11
81.716051019782853
 21
44.539416203568862
 31
0.0
  0
LINE
  5
C5D
  8
2
 10
91.466043686341891
 20
45.00641620356901
 30
0.0
 11
91.466043686341891
 21
48.206416203568267
 31
0.0
  0
LINE
  5
C5E
  8
1
 10
223.66604368634239
 20
31.60641620356861
 30
0.0
 11
223.66604368634239
 21
91.606416203568685
 31
0.0
  0
LINE
  5
C5F
  8
0
 10
215.66604368634239
 20
86.606416203568642
 30
0.0
 11
231.66604368634239
 21
86.606416203568642
 31
0.0
  0
LINE
  5
C60
  8
0
 10
215.66604368634239
 20
44.106416203568607
 30
0.0
 11
231.66604368634239
 21
44.106416203568607
 31
0.0
  0
LINE
  5
C61
  8
0
 10
211.16604368634239
 20
36.606416203568607
 30
0.0
 11
211.16604368634239
 21
83.606416203568614
 31
0.0
  0
LINE
  5
C62
  8
0
 10
215.66604368634239
 20
74.106416203568557
 30
0.0
 11
211.16604368634239
 21
74.106416203568557
 31
0.0
  0
LINE
  5
C63
  8
0
 10
215.66604368634259
 20
86.606416203568642
 30
0.0
 11
215.66604368634239
 21
36.606416203568649
 31
0.0
  0
LINE
  5
C64
  8
0
 10
211.16604368634239
 20
83.606416203568614
 30
0.0
 11
215.66604368634239
 21
83.606416203568585
 31
0.0
  0
LINE
  5
C65
  8
0
 10
236.16604368634239
 20
36.606416203568607
 30
0.0
 11
236.16604368634239
 21
83.606416203568614
 31
0.0
  0
LINE
  5
C66
  8
0
 10
211.16604368634239
 20
36.606416203568607
 30
0.0
 11
236.16604368634239
 21
36.606416203568607
 31
0.0
  0
LINE
  5
C67
  8
0
 10
231.66604368634239
 20
36.606416203568607
 30
0.0
 11
231.66604368634239
 21
86.606416203568614
 31
0.0
  0
LINE
  5
C68
  8
0
 10
236.16604368634239
 20
74.106416203568557
 30
0.0
 11
231.66604368634239
 21
74.106416203568585
 31
0.0
  0
LINE
  5
C69
  8
0
 10
231.66604368634239
 20
83.606416203568585
 30
0.0
 11
236.16604368634239
 21
83.606416203568614
 31
0.0
  0
LINE
  5
C6A
  8
1
 10
116.966043686342
 20
34.106416203568649
 30
0.0
 11
116.966043686342
 21
79.106416203568614
 31
0.0
  0
LINE
  5
C6B
  8
1
 10
78.966043686341891
 20
46.606416203568578
 30
0.0
 11
93.966043686341891
 21
46.606416203568763
 31
0.0
  0
LINE
  5
C6C
  8
1
 10
97.466043686341933
 20
34.106416203568649
 30
0.0
 11
97.466043686341891
 21
57.106416203568592
 31
0.0
  0
LINE
  5
C6D
  8
1
 10
101.466043686342
 20
34.106416203568649
 30
0.0
 11
101.46604368634191
 21
57.106416203568592
 31
0.0
  0
LINE
  5
C6E
  8
1
 10
132.46604368634189
 20
78.106416203568614
 30
0.0
 11
132.46604368634189
 21
89.106416203568614
 31
0.0
  0
LINE
  5
C6F
  8
2
 10
91.966043686341948
 20
43.606416203568607
 30
0.0
 11
91.966043686341948
 21
36.606416203568592
 31
0.0
  0
LINE
  5
C70
  8
2
 10
106.96604368634191
 20
36.606416203568592
 30
0.0
 11
106.96604368634191
 21
43.606416203568607
 31
0.0
  0
LINE
  5
C71
  8
2
 10
88.716043686341933
 20
54.606416203568607
 30
0.0
 11
88.716043686342005
 21
43.606416203568642
 31
0.0
  0
LINE
  5
C72
  8
2
 10
110.21604368634191
 20
43.606416203568607
 30
0.0
 11
110.21604368634191
 21
54.606416203568607
 31
0.0
  0
LINE
  5
C73
  8
0
 10
133.46604368634181
 20
66.106416203568614
 30
0.0
 11
133.56411989769521
 21
66.106416203568614
 31
0.0
  0
LINE
  5
C74
  8
2
 10
148.46604368634189
 20
44.106416203568578
 30
0.0
 11
159.46604368634189
 21
44.106416203568607
 31
0.0
  0
LINE
  5
C75
  8
2
 10
143.46604368634189
 20
56.106416203568578
 30
0.0
 11
143.46604368634189
 21
49.106416203568607
 31
0.0
  0
LINE
  5
C76
  8
2
 10
143.46604368634189
 20
49.106416203568607
 30
0.0
 11
148.46604368634189
 21
44.106416203568578
 31
0.0
  0
LINE
  5
C77
  8
2
 10
131.25505752736109
 20
66.106416203568614
 30
0.0
 11
126.96604368634181
 21
68.106416203568614
 31
0.0
  0
LINE
  5
C78
  8
2
 10
131.25505752736109
 20
66.106416203568614
 30
0.0
 11
133.46604368634181
 21
66.106416203568614
 31
0.0
  0
ARC
  5
C79
  8
2
 10
133.46604368634181
 20
56.106416203568621
 30
0.0
 40
10.0
 50
0.0000000000008142
 51
90.0
  0
LINE
  5
C7A
  8
2
 10
139.46604368634189
 20
61.606416203568607
 30
0.0
 11
126.96604368634181
 21
61.606416203568607
 31
0.0
  0
LINE
  5
C7B
  8
2
 10
139.46604368634189
 20
36.606416203568607
 30
0.0
 11
139.46604368634189
 21
61.606416203568607
 31
0.0
  0
LINE
  5
C7C
  8
2
 10
88.716043686341933
 20
43.606416203568607
 30
0.0
 11
110.21604368634191
 21
43.606416203568607
 31
0.0
  0
LINE
  5
C7D
  8
0
 10
109.4604901868767
 20
65.969464140360685
 30
0.0
 11
109.4604901868767
 21
63.106416203568607
 31
0.0
  0
LINE
  5
C7E
  8
0
 10
124.4715971858072
 20
63.106416203568607
 30
0.0
 11
109.4604901868768
 21
63.106416203568642
 31
0.0
  0
LINE
  5
C7F
  8
0
 10
113.2132669366092
 20
65.969464140360657
 30
0.0
 11
113.2132669366092
 21
63.106416203568607
 31
0.0
  0
LINE
  5
C80
  8
0
 10
120.71882043607449
 20
65.969464140360685
 30
0.0
 11
120.71882043607449
 21
63.106416203568607
 31
0.0
  0
LINE
  5
C81
  8
0
 10
124.4715971858072
 20
65.969464140360657
 30
0.0
 11
124.4715971858072
 21
63.106416203568607
 31
0.0
  0
ARC
  5
C82
  8
0
 10
116.96604368634181
 20
56.606416203568607
 30
0.0
 40
10.08712050091599
 50
68.158733116826525
 51
111.8412668831734
  0
LINE
  5
C83
  8
0
 10
149.96604368634189
 20
83.606416203568614
 30
0.0
 11
146.96604368634189
 21
86.606416203568642
 31
0.0
  0
LINE
  5
C84
  8
0
 10
146.96604368634189
 20
86.606416203568642
 30
0.0
 11
140.46604368634189
 21
86.606416203568585
 31
0.0
  0
LINE
  5
C85
  8
0
 10
140.46604368634189
 20
86.606416203568614
 30
0.0
 11
140.46604368634189
 21
83.606416203568585
 31
0.0
  0
LINE
  5
C86
  8
0
 10
81.466043686341891
 20
36.606416203568607
 30
0.0
 11
81.466043686341891
 21
54.606416203568607
 31
0.0
  0
LINE
  5
C87
  8
0
 10
149.96604368634189
 20
83.606416203568614
 30
0.0
 11
129.96604368634181
 21
83.606416203568614
 31
0.0
  0
LINE
  5
C88
  8
0
 10
129.96604368634181
 20
83.606416203568614
 30
0.0
 11
126.96604368634181
 21
80.606416203568614
 31
0.0
  0
LINE
  5
C89
  8
0
 10
126.96604368634181
 20
80.606416203568614
 30
0.0
 11
126.96604368634181
 21
54.606416203568607
 31
0.0
  0
LINE
  5
C8A
  8
0
 10
126.96604368634181
 20
54.606416203568607
 30
0.0
 11
81.466043686341834
 21
54.606416203568607
 31
0.0
  0
LINE
  5
C8B
  8
0
 10
88.466043686341891
 20
54.606416203568607
 30
0.0
 11
88.466043686341891
 21
36.606416203568607
 31
0.0
  0
LINE
  5
C8C
  8
0
 10
81.466043686341834
 20
36.606416203568607
 30
0.0
 11
159.46604368634189
 21
36.606416203568607
 31
0.0
  0
LINE
  5
C8D
  8
0
 10
159.46604368634189
 20
36.606416203568607
 30
0.0
 11
159.46604368634189
 21
74.106416203568557
 31
0.0
  0
LINE
  5
C8E
  8
0
 10
159.46604368634189
 20
74.106416203568557
 30
0.0
 11
149.96604368634189
 21
83.606416203568614
 31
0.0
  0
CIRCLE
  5
C8F
  8
0
 10
146.96604368634189
 20
69.106416203568614
 30
0.0
 40
5.0000000000000284
  0
ARC
  5
C90
  8
0
 10
116.96604368634191
 20
56.606416203568607
 30
0.0
 40
12.000000000000011
 50
51.283836805528857
 51
128.71616319447111
  0
LINE
  5
C91
  8
1
 10
99.466043686341834
 20
59.606416203568607
 30
0.0
 11
99.466043686341905
 21
31.60641620356861
 31
0.0
  0
LINE
  5
C92
  8
0
 10
89.080788770717575
 20
132.16254451396409
 30
0.0
 11
90.56604368634197
 21
132.16254451396409
 31
0.0
  0
LINE
  5
C93
  8
0
 10
89.080788770717504
 20
137.16254451396341
 30
0.0
 11
90.566043686341914
 21
137.16254451396341
 31
0.0
  0
LINE
  5
C94
  8
2
 10
88.963690423862104
 20
132.595544513964
 30
0.0
 11
81.716051019782924
 21
132.595544513964
 31
0.0
  0
LINE
  5
C95
  8
2
 10
88.963690423862019
 20
136.7295445139635
 30
0.0
 11
81.716051019782924
 21
136.72954451396359
 31
0.0
  0
LINE
  5
C96
  8
1
 10
132.4660433063622
 20
145.16254489394331
 30
0.0
 11
132.4660433063622
 21
124.162544133984
 31
0.0
  0
LINE
  5
C97
  8
0
 10
125.81504318661651
 20
126.662544133984
 30
0.0
 11
125.81504318661671
 21
142.66254489394319
 31
0.0
  0
LINE
  5
C98
  8
0
 10
124.4660429263826
 20
142.66254489394319
 30
0.0
 11
124.4660429263826
 21
126.662544133984
 31
0.0
  0
LINE
  5
C99
  8
0
 10
137.2660436863419
 20
126.662544133984
 30
0.0
 11
124.4660429263826
 21
126.662544133984
 31
0.0
  0
LINE
  5
C9A
  8
0
 10
124.4660429263826
 20
142.66254489394319
 30
0.0
 11
137.2660436863419
 21
142.66254489394319
 31
0.0
  0
LINE
  5
C9B
  8
0
 10
140.46604368634189
 20
139.46254489394329
 30
0.0
 11
140.46604368634189
 21
129.86254413398399
 31
0.0
  0
LINE
  5
C9C
  8
0
 10
137.2660436863419
 20
142.66254489394319
 30
0.0
 11
140.46604368634189
 21
139.46254489394329
 31
0.0
  0
LINE
  5
C9D
  8
0
 10
140.46604368634189
 20
129.86254413398399
 30
0.0
 11
137.2660436863419
 21
126.662544133984
 31
0.0
  0
LINE
  5
C9E
  8
3
 10
164.75961843059659
 20
138.85054451396371
 30
0.0
 11
166.16604368634239
 21
139.66254451396361
 31
0.0
  0
LINE
  5
C9F
  8
3
 10
164.75961843059659
 20
130.47454451396351
 30
0.0
 11
166.16604368634239
 21
129.66254451396361
 31
0.0
  0
LINE
  5
CA0
  8
0
 10
164.75961843059659
 20
129.66254451396361
 30
0.0
 11
164.7596184305969
 21
139.66254451396361
 31
0.0
  0
LINE
  5
CA1
  8
0
 10
165.7660436863425
 20
129.66254451396361
 30
0.0
 11
159.46604368634209
 21
129.66254451396361
 31
0.0
  0
LINE
  5
CA2
  8
3
 10
164.75961843059659
 20
130.47454451396351
 30
0.0
 11
159.46604368634209
 21
130.47454451396351
 31
0.0
  0
LINE
  5
CA3
  8
3
 10
164.7596184305969
 20
138.85054451396371
 30
0.0
 11
159.46604368634209
 21
138.85054451396371
 31
0.0
  0
LINE
  5
CA4
  8
0
 10
165.7660436863425
 20
139.66254451396361
 30
0.0
 11
159.46604368634209
 21
139.6625445139637
 31
0.0
  0
LINE
  5
CA5
  8
0
 10
175.56604368634251
 20
142.66254451396361
 30
0.0
 11
176.16604368634239
 21
141.62331402942229
 31
0.0
  0
LINE
  5
CA6
  8
0
 10
175.56604368634251
 20
126.6625445139636
 30
0.0
 11
176.16604368634239
 21
127.7017749985049
 31
0.0
  0
LINE
  5
CA7
  8
0
 10
175.56604368634251
 20
142.66254451396361
 30
0.0
 11
175.56604368634251
 21
126.6625445139636
 31
0.0
  0
LINE
  5
CA8
  8
0
 10
176.16604368634239
 20
141.62331402942229
 30
0.0
 11
176.16604368634239
 21
127.7017749985049
 31
0.0
  0
LINE
  5
CA9
  8
0
 10
166.16604368634239
 20
142.66254451396361
 30
0.0
 11
175.56604368634251
 21
142.66254451396361
 31
0.0
  0
LINE
  5
CAA
  8
0
 10
166.16604368634239
 20
126.6625445139636
 30
0.0
 11
166.16604368634239
 21
142.66254451396361
 31
0.0
  0
LINE
  5
CAB
  8
0
 10
175.56604368634251
 20
126.6625445139636
 30
0.0
 11
166.16604368634239
 21
126.6625445139636
 31
0.0
  0
ARC
  5
CAC
  8
0
 10
165.7660436863425
 20
129.2625445139636
 30
0.0
 40
0.4
 50
0.0
 51
90.0
  0
ARC
  5
CAD
  8
0
 10
165.7660436863425
 20
140.06254451396359
 30
0.0
 40
0.4
 50
270.0
 51
0.0
  0
LINE
  5
CAE
  8
0
 10
101.46604368634191
 20
125.9125445139637
 30
0.0
 11
97.466043686341933
 21
125.9125445139637
 31
0.0
  0
LINE
  5
CAF
  8
0
 10
91.466043686341948
 20
133.0625445139641
 30
0.0
 11
91.466043686341948
 21
136.26254451396341
 31
0.0
  0
LINE
  5
CB0
  8
3
 10
90.999043686341793
 20
132.595544513964
 30
0.0
 11
88.963690423862104
 21
132.5955445139638
 31
0.0
  0
LINE
  5
CB1
  8
2
 10
89.080788770717575
 20
132.16254451396409
 30
0.0
 11
81.966043686341948
 21
132.16254451396409
 31
0.0
  0
LINE
  5
CB2
  8
3
 10
90.999043686341793
 20
136.7295445139635
 30
0.0
 11
88.963690423862019
 21
136.72954451396339
 31
0.0
  0
LINE
  5
CB3
  8
2
 10
89.080788770717504
 20
137.16254451396341
 30
0.0
 11
81.966043686341948
 21
137.16254451396341
 31
0.0
  0
LINE
  5
CB4
  8
2
 10
81.466043686341948
 20
133.02856991774851
 30
0.0
 11
81.466043686341948
 21
136.29651911017899
 31
0.0
  0
LINE
  5
CB5
  8
0
 10
90.56604368634197
 20
132.16254451396409
 30
0.0
 11
91.466043686341948
 21
133.0625445139641
 31
0.0
  0
LINE
  5
CB6
  8
0
 10
91.466043686341948
 20
136.26254451396341
 30
0.0
 11
90.566043686341914
 21
137.16254451396341
 31
0.0
  0
LINE
  5
CB7
  8
2
 10
81.966043686341948
 20
132.16254451396409
 30
0.0
 11
81.966043686341948
 21
137.16254451396341
 31
0.0
  0
LINE
  5
CB8
  8
2
 10
81.966043686341948
 20
132.16254451396409
 30
0.0
 11
81.466043686341948
 21
133.02856991774851
 31
0.0
  0
LINE
  5
CB9
  8
0
 10
90.56604368634197
 20
132.16254451396409
 30
0.0
 11
90.566043686341914
 21
137.16254451396341
 31
0.0
  0
LINE
  5
CBA
  8
2
 10
81.966043686341948
 20
137.16254451396341
 30
0.0
 11
81.466043686341948
 21
136.29651911017899
 31
0.0
  0
LINE
  5
CBB
  8
1
 10
97.466043686341891
 20
145.9125445139637
 30
0.0
 11
97.466043686341891
 21
123.4125445139637
 31
0.0
  0
LINE
  5
CBC
  8
1
 10
101.466043686342
 20
145.9125445139637
 30
0.0
 11
101.46604368634191
 21
123.4125445139637
 31
0.0
  0
LINE
  5
CBD
  8
1
 10
116.966043686342
 20
143.6625445139637
 30
0.0
 11
116.96604368634191
 21
125.6625445139636
 31
0.0
  0
LINE
  5
CBE
  8
1
 10
76.466043686341834
 20
134.66254451396361
 30
0.0
 11
181.16604368634239
 21
134.66254451396361
 31
0.0
  0
CIRCLE
  5
CBF
  8
0
 10
132.46604368634189
 20
134.66254451396341
 30
0.0
 40
5.0000000000000284
  0
LINE
  5
CC0
  8
0
 10
135.35279503229009
 20
134.66254451396341
 30
0.0
 11
133.90941935931599
 21
137.1625445139635
 31
0.0
  0
LINE
  5
CC1
  8
0
 10
135.35279503229009
 20
134.66254451396341
 30
0.0
 11
133.90941935931599
 21
132.16254451396341
 31
0.0
  0
LINE
  5
CC2
  8
0
 10
131.02266801336791
 20
132.1625445139635
 30
0.0
 11
133.90941935931599
 21
132.16254451396341
 31
0.0
  0
LINE
  5
CC3
  8
0
 10
129.57929234039381
 20
134.66254451396361
 30
0.0
 11
131.02266801336791
 21
132.1625445139635
 31
0.0
  0
LINE
  5
CC4
  8
0
 10
129.57929234039381
 20
134.66254451396361
 30
0.0
 11
131.02266801336791
 21
137.1625445139635
 31
0.0
  0
LINE
  5
CC5
  8
0
 10
133.90941935931599
 20
137.1625445139635
 30
0.0
 11
131.02266801336791
 21
137.1625445139635
 31
0.0
  0
LINE
  5
CC6
  8
0
 10
113.2132669366092
 20
128.16254451396361
 30
0.0
 11
120.71882043607449
 21
128.16254451396361
 31
0.0
  0
LINE
  5
CC7
  8
0
 10
120.71882043607449
 20
128.16254451396361
 30
0.0
 11
124.4715971858072
 21
134.66254451396361
 31
0.0
  0
LINE
  5
CC8
  8
0
 10
124.4715971858072
 20
134.66254451396361
 30
0.0
 11
120.71882043607449
 21
141.1625445139637
 31
0.0
  0
LINE
  5
CC9
  8
0
 10
120.71882043607449
 20
141.1625445139637
 30
0.0
 11
113.2132669366094
 21
141.1625445139637
 31
0.0
  0
LINE
  5
CCA
  8
0
 10
113.2132669366094
 20
141.1625445139637
 30
0.0
 11
109.4604901868767
 21
134.6625445139637
 31
0.0
  0
LINE
  5
CCB
  8
0
 10
109.4604901868767
 20
134.6625445139637
 30
0.0
 11
113.2132669366092
 21
128.16254451396361
 31
0.0
  0
CIRCLE
  5
CCC
  8
0
 10
132.46604368634189
 20
134.6625445139635
 30
0.0
 40
5.4999999999999707
  0
LINE
  5
CCD
  8
0
 10
140.46604368634189
 20
126.6625445139635
 30
0.0
 11
140.46604368634189
 21
142.66254451396341
 31
0.0
  0
LINE
  5
CCE
  8
0
 10
146.96604368634189
 20
126.6625445139634
 30
0.0
 11
146.96604368634189
 21
142.66254451396341
 31
0.0
  0
LINE
  5
CCF
  8
0
 10
97.466043686341891
 20
129.16254451396381
 30
0.0
 11
101.46604368634181
 21
129.16254451396381
 31
0.0
  0
ARC
  5
CD0
  8
0
 10
97.466043686341891
 20
134.66254451396381
 30
0.0
 40
5.5000000000000284
 50
90.0
 51
270.0
  0
LINE
  5
CD1
  8
0
 10
101.46604368634191
 20
140.16254451396381
 30
0.0
 11
97.466043686341933
 21
140.16254451396381
 31
0.0
  0
ARC
  5
CD2
  8
0
 10
101.46604368634191
 20
134.66254451396381
 30
0.0
 40
5.5000000000000284
 50
270.0
 51
90.0
  0
LINE
  5
CD3
  8
0
 10
101.46604368634191
 20
143.4125445139637
 30
0.0
 11
97.466043686341933
 21
143.4125445139637
 31
0.0
  0
ARC
  5
CD4
  8
0
 10
101.46604368634191
 20
134.6625445139637
 30
0.0
 40
8.75
 50
7.6979885517470557
 51
90.0
  0
ARC
  5
CD5
  8
0
 10
101.46604368634191
 20
134.6625445139637
 30
0.0
 40
8.7500000000000284
 50
270.0
 51
352.30201144825207
  0
ARC
  5
CD6
  8
0
 10
97.466043686341891
 20
134.66254451396381
 30
0.0
 40
8.7500000000000284
 50
90.0
 51
270.0
  0
LINE
  5
CD7
  8
0
 10
81.466043686341891
 20
129.16254451396381
 30
0.0
 11
81.466043686341948
 21
140.16254451396381
 31
0.0
  0
LINE
  5
CD8
  8
0
 10
81.466043686341891
 20
129.16254451396381
 30
0.0
 11
88.466043686341891
 21
122.1625445139637
 31
0.0
  0
LINE
  5
CD9
  8
0
 10
88.466043686342005
 20
147.16254451396381
 30
0.0
 11
81.466043686341948
 21
140.16254451396381
 31
0.0
  0
LINE
  5
CDA
  8
0
 10
126.96604368634181
 20
122.1625445139635
 30
0.0
 11
126.96604368634181
 21
126.6625445139636
 31
0.0
  0
LINE
  5
CDB
  8
0
 10
129.96604368634181
 20
126.6625445139636
 30
0.0
 11
129.96604368634181
 21
122.1625445139635
 31
0.0
  0
LINE
  5
CDC
  8
0
 10
159.46604368634189
 20
122.1625445139635
 30
0.0
 11
88.466043686342061
 21
122.1625445139635
 31
0.0
  0
LINE
  5
CDD
  8
0
 10
159.46604368634141
 20
147.1625445139635
 30
0.0
 11
159.46604368634189
 21
122.1625445139635
 31
0.0
  0
LINE
  5
CDE
  8
0
 10
137.26604406632131
 20
126.6625445139635
 30
0.0
 11
159.46604368634189
 21
126.6625445139635
 31
0.0
  0
LINE
  5
CDF
  8
0
 10
149.96604368634189
 20
122.1625445139635
 30
0.0
 11
149.96604368634189
 21
126.6625445139635
 31
0.0
  0
LINE
  5
CE0
  8
0
 10
126.96604368634191
 20
142.66254451396361
 30
0.0
 11
126.96604368634191
 21
147.1625445139635
 31
0.0
  0
LINE
  5
CE1
  8
0
 10
88.466043686341649
 20
147.16254451396341
 30
0.0
 11
159.46604368634189
 21
147.16254451396341
 31
0.0
  0
LINE
  5
CE2
  8
0
 10
159.46604368634189
 20
142.66254451396341
 30
0.0
 11
137.26604406632151
 21
142.66254451396341
 31
0.0
  0
LINE
  5
CE3
  8
0
 10
129.96604368634189
 20
147.1625445139635
 30
0.0
 11
129.96604368634189
 21
142.66254451396361
 31
0.0
  0
LINE
  5
CE4
  8
0
 10
149.96604368634189
 20
142.66254451396341
 30
0.0
 11
149.96604368634189
 21
147.16254451396341
 31
0.0
  0
LINE
  5
CE5
  8
1
 10
99.466043686341905
 20
148.4125445139637
 30
0.0
 11
99.466043686341905
 21
120.9125445139637
 31
0.0
  0
TEXT
  5
DA2
  8
0
 62
     3
 10
0.0
 20
0.0
 30
0.0
 40
10.0
  1
CP100-10050
  7
STANDARD1
  0
ENDSEC
  0
EOF
