  0
SECTION
  2
HEADER
  9
$ACADVER
  1
AC1009
  9
$INSBASE
 10
798.67572335528303
 20
137.84630522417569
 30
0.0
  9
$EXTMIN
 10
0.0
 20
-2.960436562073669
 30
0.0
  9
$EXTMAX
 10
295.3487359888245
 20
197.6172130703888
 30
0.0
  9
$LIMMIN
 10
0.0
 20
0.0
  9
$LIMMAX
 10
375.0
 20
270.0
  9
$ORTHOMODE
 70
     0
  9
$REGENMODE
 70
     1
  9
$FILLMODE
 70
     1
  9
$QTEXTMODE
 70
     0
  9
$MIRRTEXT
 70
     0
  9
$DRAGMODE
 70
     2
  9
$LTSCALE
 40
5.0
  9
$OSMODE
 70
  3071
  9
$ATTMODE
 70
     1
  9
$TEXTSIZE
 40
0.2
  9
$TRACEWID
 40
0.05
  9
$TEXTSTYLE
  7
STANDARD
  9
$CLAYER
  8
0
  9
$CELTYPE
  6
BYLAYER
  9
$CECOLOR
 62
   256
  9
$DIMSCALE
 40
1.0
  9
$DIMASZ
 40
3.0
  9
$DIMEXO
 40
2.0
  9
$DIMDLI
 40
0.38
  9
$DIMRND
 40
0.0
  9
$DIMDLE
 40
0.0
  9
$DIMEXE
 40
2.0
  9
$DIMTP
 40
0.0
  9
$DIMTM
 40
0.0
  9
$DIMTXT
 40
3.2000000000000002
  9
$DIMCEN
 40
0.0
  9
$DIMTSZ
 40
0.0
  9
$DIMTOL
 70
     0
  9
$DIMLIM
 70
     0
  9
$DIMTIH
 70
     0
  9
$DIMTOH
 70
     0
  9
$DIMSE1
 70
     0
  9
$DIMSE2
 70
     0
  9
$DIMTAD
 70
     1
  9
$DIMZIN
 70
     0
  9
$DIMBLK
  1

  9
$DIMASO
 70
     0
  9
$DIMSHO
 70
     0
  9
$DIMPOST
  1

  9
$DIMAPOST
  1

  9
$DIMALT
 70
     0
  9
$DIMALTD
 70
     2
  9
$DIMALTF
 40
25.399999999999999
  9
$DIMLFAC
 40
1.0
  9
$DIMTOFL
 70
     1
  9
$DIMTVP
 40
1.6000000000000001
  9
$DIMTIX
 70
     1
  9
$DIMSOXD
 70
     0
  9
$DIMSAH
 70
     0
  9
$DIMBLK1
  1

  9
$DIMBLK2
  1

  9
$DIMSTYLE
  2
STANDARD
  9
$DIMCLRD
 70
     0
  9
$DIMCLRE
 70
     0
  9
$DIMCLRT
 70
     0
  9
$DIMTFAC
 40
1.0
  9
$DIMGAP
 40
0.09
  9
$LUNITS
 70
     2
  9
$LUPREC
 70
     4
  9
$SKETCHINC
 40
0.1
  9
$FILLETRAD
 40
0.0
  9
$AUNITS
 70
     0
  9
$AUPREC
 70
     4
  9
$MENU
  1
E:\r13\win\SUPPORT\ACAD
  9
$ELEVATION
 40
0.0
  9
$PELEVATION
 40
0.0
  9
$THICKNESS
 40
0.0
  9
$LIMCHECK
 70
     0
  9
$BLIPMODE
 70
     0
  9
$CHAMFERA
 40
0.0
  9
$CHAMFERB
 40
0.0
  9
$SKPOLY
 70
     0
  9
$TDCREATE
 40
2449840.6513888892
  9
$TDUPDATE
 40
2456598.4960592249
  9
$TDINDWG
 40
0.2261844097
  9
$TDUSRTIMER
 40
0.2261844097
  9
$USRTIMER
 70
     1
  9
$ANGBASE
 50
0.0
  9
$ANGDIR
 70
     0
  9
$PDMODE
 70
     0
  9
$PDSIZE
 40
0.0
  9
$PLINEWID
 40
0.0
  9
$COORDS
 70
     1
  9
$SPLFRAME
 70
     0
  9
$SPLINETYPE
 70
     6
  9
$SPLINESEGS
 70
     8
  9
$ATTDIA
 70
     0
  9
$ATTREQ
 70
     1
  9
$HANDLING
 70
     1
  9
$HANDSEED
  5
54D
  9
$SURFTAB1
 70
     6
  9
$SURFTAB2
 70
     6
  9
$SURFTYPE
 70
     6
  9
$SURFU
 70
     6
  9
$SURFV
 70
     6
  9
$UCSNAME
  2

  9
$UCSORG
 10
0.0
 20
0.0
 30
0.0
  9
$UCSXDIR
 10
1.0
 20
0.0
 30
0.0
  9
$UCSYDIR
 10
0.0
 20
1.0
 30
0.0
  9
$PUCSNAME
  2

  9
$PUCSORG
 10
0.0
 20
0.0
 30
0.0
  9
$PUCSXDIR
 10
1.0
 20
0.0
 30
0.0
  9
$PUCSYDIR
 10
0.0
 20
1.0
 30
0.0
  9
$USERI1
 70
     0
  9
$USERI2
 70
     1
  9
$USERI3
 70
     0
  9
$USERI4
 70
     0
  9
$USERI5
 70
     0
  9
$USERR1
 40
0.0
  9
$USERR2
 40
0.0
  9
$USERR3
 40
0.0
  9
$USERR4
 40
0.0
  9
$USERR5
 40
0.0
  9
$WORLDVIEW
 70
     1
  9
$SHADEDGE
 70
     3
  9
$SHADEDIF
 70
    70
  9
$TILEMODE
 70
     1
  9
$MAXACTVP
 70
    16
  9
$PLIMCHECK
 70
     0
  9
$PEXTMIN
 10
1.0000000000000000E+020
 20
1.0000000000000000E+020
 30
1.0000000000000000E+020
  9
$PEXTMAX
 10
-1.0000000000000000E+020
 20
-1.0000000000000000E+020
 30
-1.0000000000000000E+020
  9
$PLIMMIN
 10
0.0
 20
0.0
  9
$PLIMMAX
 10
12.0
 20
9.0
  9
$UNITMODE
 70
     0
  9
$VISRETAIN
 70
     0
  9
$PLINEGEN
 70
     0
  9
$PSLTSCALE
 70
     0
  0
ENDSEC
  0
SECTION
  2
TABLES
  0
TABLE
  2
VPORT
 70
     1
  0
VPORT
  2
*ACTIVE
 70
     0
 10
0.0
 20
0.0
 11
1.0
 21
1.0
 12
195.0581083320873
 22
133.5127261426681
 13
0.0
 23
0.0
 14
5.0
 24
5.0
 15
10.0
 25
10.0
 16
0.0
 26
0.0
 36
1.0
 17
0.0
 27
0.0
 37
0.0
 40
275.42274993631997
 41
1.831871345029239
 42
50.0
 43
0.0
 44
0.0
 50
0.0
 51
0.0
 71
     0
 72
   500
 73
     1
 74
     0
 75
     0
 76
     0
 77
     0
 78
     2
  0
ENDTAB
  0
TABLE
  2
LTYPE
 70
     4
  0
LTYPE
  2
CONTINUOUS
 70
     0
  3
Solid Line
 72
    65
 73
     0
 40
0.0
  0
LTYPE
  2
CENTER
 70
     0
  3
____ _ ____ _ ____ _ ____ _ ____ _ ____ _ ____
 72
    65
 73
     4
 40
2.0
 49
1.25
 49
-0.25
 49
0.25
 49
-0.25
  0
LTYPE
  2
HIDDEN
 70
     0
  3
_ _ _ _ _ _ _ _ _ _ _ _ _ _ _ _ _ _ _ _ _ _ _
 72
    65
 73
     2
 40
0.375
 49
0.25
 49
-0.125
  0
LTYPE
  2
PHANTOM2
 70
     0
  3
Phantom (.5x) ___ _ _ ___ _ _ ___ _ _ ___ _ _
 72
    65
 73
     6
 40
1.25
 49
0.625
 49
-0.125
 49
0.125
 49
-0.125
 49
0.125
 49
-0.125
  0
ENDTAB
  0
TABLE
  2
LAYER
 70
     5
  0
LAYER
  2
0
 70
     0
 62
     7
  6
CONTINUOUS
  0
LAYER
  2
1
 70
     0
 62
     1
  6
CENTER
  0
LAYER
  2
2
 70
     0
 62
     2
  6
HIDDEN
  0
LAYER
  2
3
 70
     0
 62
     3
  6
CONTINUOUS
  0
LAYER
  2
5
 70
     0
 62
     3
  6
PHANTOM2
  0
ENDTAB
  0
TABLE
  2
STYLE
 70
     2
  0
STYLE
  2
STANDARD
 70
     0
 40
0.0
 41
1.0
 50
0.0
 71
     0
 42
0.2
  3
TXT
  4
BIGFONT
  0
STYLE
  2
STANDARD1
 70
     0
 40
0.0
 41
1.0
 50
0.0
 71
     0
 42
3.0
  3
txt
  4

  0
ENDTAB
  0
TABLE
  2
VIEW
 70
     1
  0
VIEW
  2
ALL
 70
     0
 40
270.0
 10
220.99159663865549
 20
135.0
 41
0.0
 11
0.0
 21
0.0
 31
1.0
 12
0.0
 22
0.0
 32
0.0
 42
0.0
 43
0.0
 44
0.0
 50
0.0
 71
     0
  0
ENDTAB
  0
TABLE
  2
UCS
 70
     0
  0
ENDTAB
  0
TABLE
  2
APPID
 70
     3
  0
APPID
  2
ACAD
 70
     0
  0
APPID
  2
ACAD_MLEADERVER
 70
     0
  0
APPID
  2
ACAD_NAV_VCDISPLAY
 70
     0
  0
ENDTAB
  0
TABLE
  2
DIMSTYLE
 70
     1
  0
DIMSTYLE
  2
STANDARD
 70
     0
  3

  4

  5

  6

  7

 40
1.0
 41
0.18
 42
0.0625
 43
0.38
 44
0.18
 45
0.0
 46
0.0
 47
0.0
 48
0.0
140
0.18
141
0.09
142
0.0
143
25.399999999999999
144
1.0
145
0.0
146
1.0
147
0.09
 71
     0
 72
     0
 73
     1
 74
     1
 75
     0
 76
     0
 77
     0
 78
     0
170
     0
171
     2
172
     0
173
     0
174
     0
175
     0
176
     0
177
     0
178
     0
  0
ENDTAB
  0
ENDSEC
  0
SECTION
  2
BLOCKS
  0
BLOCK
  8
0
  2
$MODEL_SPACE
 70
     0
 10
0.0
 20
0.0
 30
0.0
  3
$MODEL_SPACE
  1

  0
ENDBLK
  5
9
  8
0
  0
BLOCK
 67
     1
  8
0
  2
$PAPER_SPACE
 70
     0
 10
0.0
 20
0.0
 30
0.0
  3
$PAPER_SPACE
  1

  0
ENDBLK
  5
F
 67
     1
  8
0
  0
ENDSEC
  0
SECTION
  2
ENTITIES
  0
LINE
  5
2C3
  8
5
 10
190.27737372923991
 20
103.1172125707679
 30
0.0
 11
195.34873628684761
 21
103.1172125707679
 31
0.0
  0
LINE
  5
2C4
  8
5
 10
190.27737372923991
 20
87.117212570767919
 30
0.0
 11
190.27737372923991
 21
103.1172125707679
 31
0.0
  0
LINE
  5
2C5
  8
5
 10
195.34873628684761
 20
87.117212570767947
 30
0.0
 11
190.27737372923991
 21
87.117212570767919
 31
0.0
  0
LINE
  5
2C6
  8
5
 10
158.21379979630871
 20
99.30521257076785
 30
0.0
 11
151.73601198295481
 21
99.30521257076785
 31
0.0
  0
LINE
  5
2C7
  8
5
 10
158.21379979630879
 20
100.1172125707679
 30
0.0
 11
153.14243723870101
 21
100.1172125707679
 31
0.0
  0
LINE
  5
2C8
  8
5
 10
133.64873628684751
 20
73.782927696424764
 30
0.0
 11
127.7060310547438
 21
95.655716651694917
 31
0.0
  0
LINE
  5
2C9
  8
5
 10
158.21379979630871
 20
90.117212570767904
 30
0.0
 11
153.14243723870081
 21
90.117212570767904
 31
0.0
  0
LINE
  5
2CA
  8
5
 10
158.21379979630859
 20
90.929212570767874
 30
0.0
 11
151.73601198295509
 21
90.929212570767874
 31
0.0
  0
LINE
  5
2CB
  8
5
 10
146.08869881894711
 20
104.2770579551652
 30
0.0
 11
151.29431359651389
 21
85.117212570768046
 31
0.0
  0
LINE
  5
2CC
  8
5
 10
149.7593473199191
 20
90.766827032552925
 30
0.0
 11
130.4590174304729
 21
85.523043459735646
 31
0.0
  0
LINE
  5
2CD
  8
5
 10
124.0740472393644
 20
99.488535133172576
 30
0.0
 11
125.0221615279027
 21
101.1440358003002
 31
0.0
  0
LINE
  5
2CE
  8
5
 10
140.73375373011999
 20
99.195270563346554
 30
0.0
 11
139.1606186446005
 21
104.9853695805099
 31
0.0
  0
LINE
  5
2CF
  8
5
 10
137.64570094780839
 20
98.356265191695769
 30
0.0
 11
136.07256586228891
 21
104.1463642088592
 31
0.0
  0
LINE
  5
2D0
  8
5
 10
126.595297151347
 20
95.353936929287812
 30
0.0
 11
140.73375373011999
 21
99.195270563346554
 31
0.0
  0
LINE
  5
2D1
  8
5
 10
125.9776071088896
 20
98.294869378877394
 30
0.0
 11
124.9064978714889
 21
96.424607800251167
 31
0.0
  0
LINE
  5
2D2
  8
5
 10
124.93979590654109
 20
96.302050670984656
 30
0.0
 11
126.595297151347
 21
95.353936929287812
 31
0.0
  0
LINE
  5
2D3
  8
5
 10
124.9064978714889
 20
96.424607800251167
 30
0.0
 11
124.93979590654109
 21
96.302050670984656
 31
0.0
  0
LINE
  5
2D4
  8
5
 10
125.9776071088896
 20
98.294869378877394
 30
0.0
 11
124.1073452438938
 21
99.365978116248726
 31
0.0
  0
LINE
  5
2D5
  8
5
 10
124.0740472393644
 20
99.488535133172576
 30
0.0
 11
124.1073452438938
 21
99.365978116248726
 31
0.0
  0
LINE
  5
2D6
  8
5
 10
139.16061864460039
 20
104.98536958051
 30
0.0
 11
125.0221615279027
 21
101.1440358003002
 31
0.0
  0
LINE
  5
2D7
  8
5
 10
150.9773737292399
 20
91.367212570767904
 30
0.0
 11
153.14243723870101
 21
90.117212570767705
 31
0.0
  0
LINE
  5
2D8
  8
5
 10
150.9773737292399
 20
91.367212570767904
 30
0.0
 11
150.9773737292399
 21
98.867212570767933
 31
0.0
  0
LINE
  5
2D9
  8
5
 10
150.9773737292399
 20
98.867212570767933
 30
0.0
 11
153.14243723870121
 21
100.1172125707682
 31
0.0
  0
LINE
  5
2DA
  8
5
 10
153.14243723870081
 20
90.117212570767904
 30
0.0
 11
153.14243723870101
 21
100.1172125707679
 31
0.0
  0
ARC
  5
2DB
  8
5
 10
152.07737372924029
 20
95.117212570767904
 30
0.0
 40
3.5
 50
108.31769841120369
 51
251.68230158878961
  0
LINE
  5
2DC
  8
5
 10
146.08869881894711
 20
104.2770579551652
 30
0.0
 11
143.02068463616411
 21
106.0341262447439
 31
0.0
  0
LINE
  5
2DD
  8
5
 10
139.16061865827481
 20
104.98536953018041
 30
0.0
 11
143.02068463616411
 21
106.0341262447439
 31
0.0
  0
LINE
  5
2DE
  8
5
 10
204.7487362868477
 20
87.117212570767975
 30
0.0
 11
207.4491672544732
 21
87.117212570767975
 31
0.0
  0
LINE
  5
2DF
  8
5
 10
204.74873628684759
 20
103.117212570768
 30
0.0
 11
207.4491672544732
 21
103.1172125707678
 31
0.0
  0
LINE
  5
2E0
  8
5
 10
207.4491672544732
 20
103.1172125707678
 30
0.0
 11
208.0491672544731
 21
102.0779820862267
 31
0.0
  0
LINE
  5
2E1
  8
5
 10
207.4491672544732
 20
87.117212570767975
 30
0.0
 11
208.0491672544731
 21
88.156443055309225
 31
0.0
  0
LINE
  5
2E2
  8
5
 10
208.0491672544731
 20
102.0779820862267
 30
0.0
 11
208.0491672544731
 21
88.156443055309225
 31
0.0
  0
LINE
  5
2E3
  8
5
 10
134.67906881318191
 20
83.647545097102366
 30
0.0
 11
136.84501504296961
 21
100.2112233549294
 31
0.0
  0
LINE
  5
2E4
  8
5
 10
157.12999613488219
 20
101.0884588425543
 30
0.0
 11
155.0415191608117
 21
85.117212570768118
 31
0.0
  0
LINE
  5
2E5
  8
5
 10
134.9691713534248
 20
105.1471137912671
 30
0.0
 11
136.4816965373806
 21
106.30981355083129
 31
0.0
  0
LINE
  5
2E6
  8
5
 10
150.23105330035389
 20
98.460800614034014
 30
0.0
 11
151.0090189697363
 21
104.41015100236299
 31
0.0
  0
LINE
  5
2E7
  8
5
 10
147.0580664541589
 20
98.8757156340981
 30
0.0
 11
147.83603212354129
 21
104.82506602242709
 31
0.0
  0
LINE
  5
2E8
  8
5
 10
135.70373142071799
 20
100.36046309022591
 30
0.0
 11
150.23105330035389
 21
98.460800614033957
 31
0.0
  0
LINE
  5
2E9
  8
5
 10
136.26623655347871
 20
103.31244761545931
 30
0.0
 11
134.55749786193019
 21
101.99891594285469
 31
0.0
  0
LINE
  5
2EA
  8
5
 10
134.54103091744011
 20
101.8729879919799
 30
0.0
 11
135.70373142071799
 21
100.36046309022591
 31
0.0
  0
LINE
  5
2EB
  8
5
 10
134.55749786193019
 20
101.99891594285469
 30
0.0
 11
134.54103091744011
 21
101.8729879919799
 31
0.0
  0
LINE
  5
2EC
  8
5
 10
136.26623655347871
 20
103.31244761545931
 30
0.0
 11
134.95270442402929
 21
105.02118595582481
 31
0.0
  0
LINE
  5
2ED
  8
5
 10
134.9691713534248
 20
105.1471137912671
 30
0.0
 11
134.95270442402929
 21
105.02118595582481
 31
0.0
  0
LINE
  5
2EE
  8
5
 10
151.00901896973619
 20
104.41015100236309
 30
0.0
 11
136.4816965373806
 21
106.30981355083129
 31
0.0
  0
LINE
  5
2EF
  8
5
 10
158.74916725447309
 20
91.367212570767975
 30
0.0
 11
160.91423076393411
 21
90.117212570767705
 31
0.0
  0
LINE
  5
2F0
  8
5
 10
159.84916725447329
 20
90.929212570767874
 30
0.0
 11
159.50780550818831
 21
90.929212570767874
 31
0.0
  0
LINE
  5
2F1
  8
5
 10
159.84916725447329
 20
99.305212570767935
 30
0.0
 11
159.50780550818831
 21
99.305212570767964
 31
0.0
  0
LINE
  5
2F2
  8
5
 10
158.74916725447309
 20
91.367212570767975
 30
0.0
 11
158.74916725447309
 21
98.867212570767975
 31
0.0
  0
LINE
  5
2F3
  8
5
 10
158.74916725447309
 20
98.867212570767975
 30
0.0
 11
160.9142307639342
 21
100.1172125707683
 31
0.0
  0
LINE
  5
2F4
  8
5
 10
160.914230763934
 20
90.117212570767975
 30
0.0
 11
160.9142307639342
 21
100.1172125707679
 31
0.0
  0
ARC
  5
2F5
  8
5
 10
159.84916725447351
 20
95.117212570767975
 30
0.0
 40
3.5
 50
108.3176984112104
 51
251.68230158878961
  0
LINE
  5
2F6
  8
5
 10
157.12999613488219
 20
101.0884588425543
 30
0.0
 11
154.97525252071759
 21
103.8915071755691
 31
0.0
  0
LINE
  5
2F7
  8
5
 10
151.0090189629741
 20
104.4101509506492
 30
0.0
 11
154.97525252071759
 21
103.8915071755691
 31
0.0
  0
LINE
  5
2F8
  8
5
 10
155.3147429221018
 20
87.206641390452106
 30
0.0
 11
135.48357513338431
 21
89.799860265852743
 31
0.0
  0
LINE
  5
2F9
  8
0
 10
81.148736435859973
 20
72.767212570768294
 30
0.0
 11
61.148736435859981
 21
72.767212570768294
 31
0.0
  0
LINE
  5
2FA
  8
0
 10
61.14873643586008
 20
80.117212570768416
 30
0.0
 11
60.148736435859853
 21
80.117212570768345
 31
0.0
  0
LINE
  5
2FB
  8
0
 10
61.14873643586008
 20
70.117212570768345
 30
0.0
 11
60.148736435859853
 21
70.117212570768316
 31
0.0
  0
LINE
  5
2FC
  8
0
 10
81.148736435859846
 20
60.117212570768281
 30
0.0
 11
61.148736435859981
 21
60.11721257076826
 31
0.0
  0
LINE
  5
2FD
  8
0
 10
61.148736435859981
 20
60.11721257076826
 30
0.0
 11
61.148736435859981
 21
88.617212570768345
 31
0.0
  0
LINE
  5
2FE
  8
0
 10
81.148736435859973
 20
60.11721257076826
 30
0.0
 11
81.148736435859973
 21
88.617212570768345
 31
0.0
  0
LINE
  5
2FF
  8
0
 10
98.648736286847793
 20
88.617212570768316
 30
0.0
 11
43.648736584871472
 21
88.617212570768345
 31
0.0
  0
LINE
  5
300
  8
0
 10
82.148736435859632
 20
70.117212570768345
 30
0.0
 11
81.148736435860073
 21
70.117212570768373
 31
0.0
  0
LINE
  5
301
  8
0
 10
82.148736435859632
 20
80.117212570768316
 30
0.0
 11
81.148736435860073
 21
80.117212570768373
 31
0.0
  0
LINE
  5
302
  8
0
 10
60.148736435859853
 20
85.117212570768373
 30
0.0
 11
43.648736584871358
 21
85.117212570768373
 31
0.0
  0
LINE
  5
303
  8
0
 10
60.148736435859853
 20
82.617212570768316
 30
0.0
 11
43.648736584871358
 21
82.617212570768345
 31
0.0
  0
LINE
  5
304
  8
0
 10
60.148736435859853
 20
55.117212570768181
 30
0.0
 11
60.148736435859853
 21
85.117212570768373
 31
0.0
  0
LINE
  5
305
  8
0
 10
82.148736435859632
 20
55.11721257076826
 30
0.0
 11
82.148736435859746
 21
85.117212570768274
 31
0.0
  0
LINE
  5
306
  8
0
 10
98.648736286848035
 20
82.617212570768345
 30
0.0
 11
82.148736435859746
 21
82.617212570768345
 31
0.0
  0
LINE
  5
307
  8
0
 10
98.648736286848035
 20
85.117212570768345
 30
0.0
 11
82.148736435859874
 21
85.117212570768345
 31
0.0
  0
LINE
  5
308
  8
1
 10
56.64873643585986
 20
75.117212570768103
 30
0.0
 11
47.648736435859853
 21
75.117212570768103
 31
0.0
  0
CIRCLE
  5
309
  8
3
 10
52.14873643585986
 20
75.117212570768146
 30
0.0
 40
1.6209999999999991
  0
CIRCLE
  5
30A
  8
0
 10
52.14873643585986
 20
75.117212570768146
 30
0.0
 40
2.0
  0
LINE
  5
30B
  8
0
 10
53.148736435045628
 20
75.694562839488157
 30
0.0
 11
53.148736435045628
 21
74.539862301108968
 31
0.0
  0
LINE
  5
30C
  8
0
 10
53.148736435044732
 20
74.539862302048249
 30
0.0
 11
52.148736435045642
 21
73.962512032858484
 31
0.0
  0
LINE
  5
30D
  8
0
 10
52.148736435859632
 20
73.962512033329148
 30
0.0
 11
51.148736435859632
 21
74.539862302518571
 31
0.0
  0
LINE
  5
30E
  8
0
 10
51.14873643667363
 20
74.539862302048817
 30
0.0
 11
51.14873643667363
 21
75.694562840428006
 31
0.0
  0
LINE
  5
30F
  8
0
 10
51.14873643667363
 20
75.694562839488043
 30
0.0
 11
52.14873643667363
 21
76.271913108677808
 31
0.0
  0
LINE
  5
310
  8
0
 10
52.148736435859632
 20
76.271913108207144
 30
0.0
 11
53.148736435859632
 21
75.694562839017721
 31
0.0
  0
LINE
  5
311
  8
1
 10
94.648736435859874
 20
75.117212570768345
 30
0.0
 11
85.64873643585986
 21
75.117212570768274
 31
0.0
  0
LINE
  5
312
  8
1
 10
52.14873643585986
 20
70.617212570768146
 30
0.0
 11
52.14873643585986
 21
79.617212570768146
 31
0.0
  0
LINE
  5
313
  8
1
 10
90.148736435859846
 20
70.617212570768316
 30
0.0
 11
90.148736435859846
 21
79.617212570768316
 31
0.0
  0
LINE
  5
314
  8
0
 10
43.648736055880129
 20
99.117212570768316
 30
0.0
 11
43.648736055880129
 21
105.1172126229223
 31
0.0
  0
LINE
  5
315
  8
1
 10
51.648736435859739
 20
107.6172126229223
 30
0.0
 11
51.648736435859739
 21
96.617212570768274
 31
0.0
  0
LINE
  5
316
  8
0
 10
59.648736815839349
 20
99.117212570768274
 30
0.0
 11
59.648736815839349
 21
105.1172126229223
 31
0.0
  0
LINE
  5
317
  8
0
 10
59.648736815839349
 20
105.1172126229223
 30
0.0
 11
43.648736055880022
 21
105.1172126229223
 31
0.0
  0
LINE
  5
318
  8
0
 10
43.648736055880129
 20
99.117212570768288
 30
0.0
 11
59.648736815839243
 21
99.117212570768288
 31
0.0
  0
LINE
  5
319
  8
0
 10
59.648736815839243
 20
102.1172125386377
 30
0.0
 11
43.648736055880022
 21
102.1172125386377
 31
0.0
  0
LINE
  5
31A
  8
0
 10
59.648736815839243
 20
103.7047125194525
 30
0.0
 11
43.648736055880022
 21
103.7047125194525
 31
0.0
  0
LINE
  5
31B
  8
0
 10
59.648736815839243
 20
100.5297124996153
 30
0.0
 11
43.648736055880129
 21
100.5297124996154
 31
0.0
  0
LINE
  5
31C
  8
0
 10
43.648736584871237
 20
105.11721331582611
 30
0.0
 11
43.648736584871472
 21
55.11721257076811
 31
0.0
  0
LINE
  5
31D
  8
0
 10
98.648736286848262
 20
55.117212570768352
 30
0.0
 11
98.648736286848035
 21
105.1172133158264
 31
0.0
  0
LINE
  5
31E
  8
1
 10
71.14873643585986
 20
50.117212570768231
 30
0.0
 11
71.14873643585986
 21
110.11721331582631
 31
0.0
  0
LINE
  5
31F
  8
0
 10
43.648736584871237
 20
105.11721331582611
 30
0.0
 11
98.648736286848035
 21
105.1172133158264
 31
0.0
  0
LINE
  5
320
  8
0
 10
98.648736286848262
 20
55.117212570768352
 30
0.0
 11
43.648736584871472
 21
55.11721257076811
 31
0.0
  0
LINE
  5
321
  8
0
 10
240.3487362868475
 20
55.11721257076811
 30
0.0
 11
295.34873598882427
 21
55.11721257076789
 31
0.0
  0
LINE
  5
322
  8
0
 10
295.3487359888245
 20
105.11721331582589
 30
0.0
 11
240.3487362868477
 21
105.11721331582611
 31
0.0
  0
LINE
  5
323
  8
0
 10
98.648736815839371
 20
100.5297124996153
 30
0.0
 11
82.648736055880249
 21
100.5297124996154
 31
0.0
  0
LINE
  5
324
  8
0
 10
98.648736815839371
 20
103.7047125194525
 30
0.0
 11
82.648736055880136
 21
103.7047125194525
 31
0.0
  0
LINE
  5
325
  8
0
 10
98.648736815839371
 20
102.1172125386377
 30
0.0
 11
82.648736055880136
 21
102.1172125386377
 31
0.0
  0
LINE
  5
326
  8
0
 10
82.648736055880249
 20
99.117212570768288
 30
0.0
 11
98.648736815839371
 21
99.117212570768288
 31
0.0
  0
LINE
  5
327
  8
0
 10
98.64873681583947
 20
105.1172126229223
 30
0.0
 11
82.648736055880136
 21
105.1172126229223
 31
0.0
  0
LINE
  5
328
  8
0
 10
98.64873681583947
 20
99.117212570768274
 30
0.0
 11
98.64873681583947
 21
105.1172126229223
 31
0.0
  0
LINE
  5
329
  8
1
 10
90.64873643585986
 20
107.6172126229223
 30
0.0
 11
90.64873643585986
 21
96.617212570768274
 31
0.0
  0
LINE
  5
32A
  8
0
 10
82.648736055880249
 20
99.117212570768316
 30
0.0
 11
82.648736055880249
 21
105.1172126229223
 31
0.0
  0
LINE
  5
32B
  8
0
 10
131.1487355268882
 20
103.7682124791036
 30
0.0
 11
132.4977358141262
 21
105.1172126229221
 31
0.0
  0
LINE
  5
32C
  8
0
 10
147.14873628684771
 20
99.117212570768132
 30
0.0
 11
147.14873628684751
 21
105.1172126229221
 31
0.0
  0
LINE
  5
32D
  8
1
 10
139.1487359068679
 20
107.6172126229222
 30
0.0
 11
139.14873590686781
 21
96.617212570768132
 31
0.0
  0
LINE
  5
32E
  8
0
 10
143.94873628684749
 20
99.117212570768132
 30
0.0
 11
143.94873628684741
 21
105.1172126229221
 31
0.0
  0
LINE
  5
32F
  8
0
 10
132.49773637155181
 20
99.117212570768146
 30
0.0
 11
147.14873628684771
 21
99.117212570768089
 31
0.0
  0
LINE
  5
330
  8
0
 10
132.6727359555052
 20
102.1172125386375
 30
0.0
 11
131.1487355268882
 21
100.5932125174741
 31
0.0
  0
LINE
  5
331
  8
0
 10
131.1487355268882
 20
100.466212481756
 30
0.0
 11
132.49773637155181
 21
99.117212570768132
 31
0.0
  0
LINE
  5
332
  8
0
 10
131.1487355268882
 20
100.5932125174741
 30
0.0
 11
131.1487355268882
 21
100.466212481756
 31
0.0
  0
LINE
  5
333
  8
0
 10
132.6727359555052
 20
102.1172125386375
 30
0.0
 11
131.1487355268882
 21
103.64121255980081
 31
0.0
  0
LINE
  5
334
  8
0
 10
131.1487355268882
 20
103.7682124791036
 30
0.0
 11
131.1487355268882
 21
103.64121255980081
 31
0.0
  0
LINE
  5
335
  8
0
 10
147.1487362868474
 20
105.1172126229222
 30
0.0
 11
132.4977358141262
 21
105.1172126229221
 31
0.0
  0
LINE
  5
336
  8
0
 10
133.64873628684771
 20
55.117212570768089
 30
0.0
 11
133.64873628684771
 21
99.117212570768089
 31
0.0
  0
LINE
  5
337
  8
0
 10
157.14873628684771
 20
105.1172125707681
 30
0.0
 11
157.14873628684779
 21
55.117212570768061
 31
0.0
  0
LINE
  5
338
  8
0
 10
157.14873628684771
 20
105.1172125707681
 30
0.0
 11
188.64873628684771
 21
105.117212570768
 31
0.0
  0
LINE
  5
339
  8
0
 10
188.64873628684771
 20
105.117212570768
 30
0.0
 11
188.64873628684771
 21
55.117212570768061
 31
0.0
  0
LINE
  5
33A
  8
0
 10
156.0487362868476
 20
91.367212570767975
 30
0.0
 11
157.14873628684759
 21
90.732127274659277
 31
0.0
  0
LINE
  5
33B
  8
2
 10
157.14873628684771
 20
90.732127274659405
 30
0.0
 11
158.21379979630851
 21
90.117212570768089
 31
0.0
  0
LINE
  5
33C
  8
2
 10
157.14873628684771
 20
99.502297866876546
 30
0.0
 11
158.21379979630851
 21
100.1172125707678
 31
0.0
  0
LINE
  5
33D
  8
3
 10
157.14873628684779
 20
90.929212570767874
 30
0.0
 11
156.80737454056279
 21
90.929212570767874
 31
0.0
  0
LINE
  5
33E
  8
3
 10
157.14873628684779
 20
99.305212570767935
 30
0.0
 11
156.80737454056279
 21
99.305212570767964
 31
0.0
  0
LINE
  5
33F
  8
2
 10
188.64873628684771
 20
90.117212570767947
 30
0.0
 11
158.21379979630851
 21
90.117212570767975
 31
0.0
  0
LINE
  5
340
  8
2
 10
188.64873628684751
 20
90.929212570767845
 30
0.0
 11
157.14873628684771
 21
90.929212570767902
 31
0.0
  0
LINE
  5
341
  8
2
 10
188.64873628684751
 20
99.305212570767992
 30
0.0
 11
157.14873628684771
 21
99.305212570767907
 31
0.0
  0
LINE
  5
342
  8
2
 10
188.64873628684751
 20
100.117212570768
 30
0.0
 11
158.21379979630871
 21
100.1172125707679
 31
0.0
  0
LINE
  5
343
  8
0
 10
188.64873628684771
 20
55.117212570768061
 30
0.0
 11
133.64873628684771
 21
55.117212570768089
 31
0.0
  0
LINE
  5
344
  8
1
 10
143.64873628684771
 20
82.617212570768089
 30
0.0
 11
143.64873628684771
 21
67.617212570768089
 31
0.0
  0
LINE
  5
345
  8
2
 10
136.14873628684759
 20
76.271913108206945
 30
0.0
 11
136.8154029529714
 21
75.117212570768061
 31
0.0
  0
LINE
  5
346
  8
2
 10
136.14873628684751
 20
73.962512033329006
 30
0.0
 11
136.8154029529714
 21
75.117212570768061
 31
0.0
  0
LINE
  5
347
  8
2
 10
134.14873628684771
 20
76.271913108206888
 30
0.0
 11
136.14873628684759
 21
76.271913108206945
 31
0.0
  0
LINE
  5
348
  8
2
 10
134.14873628684771
 20
75.69456283948756
 30
0.0
 11
136.14873628684759
 21
75.69456283948756
 31
0.0
  0
LINE
  5
349
  8
2
 10
134.14873628684771
 20
74.539862302048732
 30
0.0
 11
136.14873628684751
 21
74.539862302048732
 31
0.0
  0
LINE
  5
34A
  8
2
 10
134.14873628684771
 20
73.962512033328935
 30
0.0
 11
136.14873628684751
 21
73.962512033328935
 31
0.0
  0
LINE
  5
34B
  8
2
 10
136.14873628684759
 20
76.271913108206945
 30
0.0
 11
136.14873628684751
 21
73.962512033328935
 31
0.0
  0
LINE
  5
34C
  8
2
 10
134.22992053482551
 20
76.738212570775659
 30
0.0
 11
137.34873628684761
 21
76.73821257077563
 31
0.0
  0
LINE
  5
34D
  8
2
 10
134.22992053482551
 20
73.496212570760463
 30
0.0
 11
137.3487362868477
 21
73.496212570760463
 31
0.0
  0
LINE
  5
34E
  8
2
 10
134.44873628684769
 20
77.117212570774413
 30
0.0
 11
134.14873628684779
 21
76.597597328503753
 31
0.0
  0
LINE
  5
34F
  8
2
 10
134.44873628684761
 20
73.117212570761581
 30
0.0
 11
134.14873628684779
 21
73.636827813032198
 31
0.0
  0
LINE
  5
350
  8
2
 10
134.44873628684769
 20
77.117212570774413
 30
0.0
 11
134.44873628684769
 21
73.117212570761694
 31
0.0
  0
LINE
  5
351
  8
2
 10
137.3487362868477
 20
77.117212570774413
 30
0.0
 11
138.14873628684759
 21
76.317212570774416
 31
0.0
  0
LINE
  5
352
  8
2
 10
138.14873628684759
 20
73.917212570761649
 30
0.0
 11
137.3487362868477
 21
73.117212570761637
 31
0.0
  0
LINE
  5
353
  8
2
 10
137.3487362868477
 20
77.117212570774413
 30
0.0
 11
137.3487362868477
 21
73.117212570761581
 31
0.0
  0
LINE
  5
354
  8
2
 10
138.14873628684759
 20
76.317212570774416
 30
0.0
 11
138.14873628684759
 21
73.917212570761649
 31
0.0
  0
LINE
  5
355
  8
2
 10
134.44873628684769
 20
77.117212570774413
 30
0.0
 11
137.34873628684781
 21
77.117212570774456
 31
0.0
  0
LINE
  5
356
  8
2
 10
134.44873628684769
 20
73.117212570761694
 30
0.0
 11
137.34873628684781
 21
73.117212570761694
 31
0.0
  0
LINE
  5
357
  8
2
 10
134.14873628684771
 20
76.597597328503639
 30
0.0
 11
134.14873628684771
 21
73.636827813032426
 31
0.0
  0
LINE
  5
358
  8
0
 10
90.148736435859618
 20
76.271913108207315
 30
0.0
 11
91.148736435859647
 21
75.694562839017891
 31
0.0
  0
LINE
  5
359
  8
0
 10
89.14873643667363
 20
75.694562839488214
 30
0.0
 11
90.148736436673616
 21
76.271913108677978
 31
0.0
  0
LINE
  5
35A
  8
0
 10
89.14873643667363
 20
74.539862302048988
 30
0.0
 11
89.14873643667363
 21
75.694562840428176
 31
0.0
  0
LINE
  5
35B
  8
0
 10
90.148736435859618
 20
73.962512033329318
 30
0.0
 11
89.148736435859632
 21
74.539862302518742
 31
0.0
  0
LINE
  5
35C
  8
0
 10
91.148736435044725
 20
74.539862302048419
 30
0.0
 11
90.148736435045635
 21
73.962512032858655
 31
0.0
  0
LINE
  5
35D
  8
0
 10
91.148736435045635
 20
75.694562839488327
 30
0.0
 11
91.148736435045635
 21
74.539862301109125
 31
0.0
  0
CIRCLE
  5
35E
  8
0
 10
90.148736435859846
 20
75.117212570768316
 30
0.0
 40
2.0
  0
CIRCLE
  5
35F
  8
3
 10
90.148736435859846
 20
75.117212570768316
 30
0.0
 40
1.6209999999999991
  0
LINE
  5
360
  8
3
 10
157.14873648201311
 20
163.429212690409
 30
0.0
 11
156.8073747357283
 21
163.429212690409
 31
0.0
  0
LINE
  5
361
  8
3
 10
157.14873648201311
 20
171.80521269040909
 30
0.0
 11
156.8073747357283
 21
171.80521269040909
 31
0.0
  0
ARC
  5
362
  8
0
 10
157.1487364820135
 20
167.6172126904091
 30
0.0
 40
3.5
 50
108.3176984112104
 51
251.68230158878961
  0
ARC
  5
363
  8
0
 10
194.948736482013
 20
173.01721269040911
 30
0.0
 40
0.4
 50
270.0
 51
0.0
  0
ARC
  5
364
  8
0
 10
194.948736482013
 20
162.2172126904091
 30
0.0
 40
0.4
 50
0.0
 51
90.0
  0
LINE
  5
365
  8
0
 10
156.04873648201311
 20
171.3672126904091
 30
0.0
 11
157.14873648201311
 21
172.00229798651759
 31
0.0
  0
LINE
  5
366
  8
0
 10
156.04873648201311
 20
163.8672126904091
 30
0.0
 11
157.14873648201311
 21
163.23212739430039
 31
0.0
  0
LINE
  5
367
  8
0
 10
204.74873648201319
 20
159.6172126904091
 30
0.0
 11
195.34873648201309
 21
159.6172126904091
 31
0.0
  0
LINE
  5
368
  8
0
 10
195.34873648201309
 20
159.6172126904091
 30
0.0
 11
195.34873648201309
 21
175.6172126904091
 31
0.0
  0
LINE
  5
369
  8
0
 10
195.34873648201309
 20
175.6172126904091
 30
0.0
 11
204.74873648201319
 21
175.6172126904091
 31
0.0
  0
LINE
  5
36A
  8
0
 10
205.34873648201309
 20
174.5779822058679
 30
0.0
 11
205.34873648201309
 21
160.6564431749504
 31
0.0
  0
LINE
  5
36B
  8
0
 10
204.74873648201319
 20
175.6172126904091
 30
0.0
 11
204.74873648201319
 21
159.6172126904091
 31
0.0
  0
LINE
  5
36C
  8
0
 10
204.74873648201319
 20
159.6172126904091
 30
0.0
 11
205.34873648201309
 21
160.6564431749504
 31
0.0
  0
LINE
  5
36D
  8
0
 10
204.74873648201319
 20
175.61721269040899
 30
0.0
 11
205.34873648201309
 21
174.5779822058679
 31
0.0
  0
LINE
  5
36E
  8
0
 10
156.04873648201311
 20
163.8672126904091
 30
0.0
 11
156.04873648201311
 21
171.3672126904091
 31
0.0
  0
LINE
  5
36F
  8
0
 10
194.948736482013
 20
172.6172126904091
 30
0.0
 11
188.64873649505159
 21
172.6172126904091
 31
0.0
  0
LINE
  5
370
  8
3
 10
193.94231122626741
 20
171.80521269040921
 30
0.0
 11
188.64873649505159
 21
171.80521269040909
 31
0.0
  0
LINE
  5
371
  8
3
 10
193.94231122626741
 20
163.429212690409
 30
0.0
 11
188.64873649505159
 21
163.429212690409
 31
0.0
  0
LINE
  5
372
  8
0
 10
194.948736482013
 20
162.6172126904091
 30
0.0
 11
188.64873649505159
 21
162.6172126904091
 31
0.0
  0
LINE
  5
373
  8
0
 10
193.94231122626741
 20
162.6172126904091
 30
0.0
 11
193.94231122626741
 21
172.6172126904091
 31
0.0
  0
LINE
  5
374
  8
3
 10
193.94231122626741
 20
163.429212690409
 30
0.0
 11
195.34873648201309
 21
162.6172126904091
 31
0.0
  0
LINE
  5
375
  8
3
 10
193.94231122626741
 20
171.80521269040909
 30
0.0
 11
195.34873648201309
 21
172.6172126904091
 31
0.0
  0
LINE
  5
376
  8
3
 10
193.94231103110189
 20
99.305212570767964
 30
0.0
 11
195.34873628684761
 21
100.1172125707679
 31
0.0
  0
LINE
  5
377
  8
3
 10
193.94231103110189
 20
90.929212570767874
 30
0.0
 11
195.34873628684761
 21
90.117212570767975
 31
0.0
  0
LINE
  5
378
  8
0
 10
193.94231103110189
 20
90.117212570767975
 30
0.0
 11
193.94231103110189
 21
100.1172125707679
 31
0.0
  0
LINE
  5
379
  8
0
 10
194.94873628684749
 20
90.117212570767975
 30
0.0
 11
188.64873628684771
 21
90.117212570767975
 31
0.0
  0
LINE
  5
37A
  8
3
 10
193.94231103110189
 20
90.929212570767874
 30
0.0
 11
188.64873628684771
 21
90.929212570767874
 31
0.0
  0
LINE
  5
37B
  8
3
 10
193.94231103110189
 20
99.305212570768077
 30
0.0
 11
188.64873628684771
 21
99.305212570768035
 31
0.0
  0
LINE
  5
37C
  8
0
 10
194.94873628684749
 20
100.1172125707679
 30
0.0
 11
188.64873628684771
 21
100.1172125707679
 31
0.0
  0
LINE
  5
37D
  8
0
 10
156.0487362868476
 20
91.367212570767975
 30
0.0
 11
156.0487362868476
 21
98.867212570767975
 31
0.0
  0
LINE
  5
37E
  8
0
 10
204.7487362868477
 20
103.1172125707678
 30
0.0
 11
205.34873628684761
 21
102.0779820862267
 31
0.0
  0
LINE
  5
37F
  8
0
 10
204.7487362868477
 20
87.117212570767975
 30
0.0
 11
205.34873628684761
 21
88.156443055309225
 31
0.0
  0
LINE
  5
380
  8
0
 10
204.7487362868477
 20
103.117212570768
 30
0.0
 11
204.7487362868477
 21
87.117212570767975
 31
0.0
  0
LINE
  5
381
  8
0
 10
205.34873628684761
 20
102.0779820862267
 30
0.0
 11
205.34873628684761
 21
88.156443055309225
 31
0.0
  0
LINE
  5
382
  8
0
 10
195.34873628684761
 20
103.117212570768
 30
0.0
 11
204.7487362868477
 21
103.117212570768
 31
0.0
  0
LINE
  5
383
  8
0
 10
195.34873628684761
 20
87.117212570767975
 30
0.0
 11
195.34873628684761
 21
103.117212570768
 31
0.0
  0
LINE
  5
384
  8
0
 10
204.7487362868477
 20
87.117212570767975
 30
0.0
 11
195.34873628684761
 21
87.117212570767975
 31
0.0
  0
LINE
  5
385
  8
0
 10
156.0487362868476
 20
98.867212570767975
 30
0.0
 11
157.14873628684759
 21
99.502297866876688
 31
0.0
  0
LINE
  5
386
  8
2
 10
158.21379979630851
 20
90.117212570767975
 30
0.0
 11
158.21379979630871
 21
100.1172125707679
 31
0.0
  0
LINE
  5
387
  8
2
 10
200.34873628684761
 20
92.807811494008348
 30
0.0
 11
205.34873628684761
 21
92.807811494008462
 31
0.0
  0
LINE
  5
388
  8
2
 10
200.34873628684761
 20
90.498410417250639
 30
0.0
 11
205.34873628684761
 21
90.498410417250639
 31
0.0
  0
LINE
  5
389
  8
2
 10
200.34873628684761
 20
90.498410417250639
 30
0.0
 11
200.34873628684761
 21
99.73601472428507
 31
0.0
  0
LINE
  5
38A
  8
2
 10
200.34873628684761
 20
97.426613647527475
 30
0.0
 11
205.34873628684761
 21
97.426613647527475
 31
0.0
  0
LINE
  5
38B
  8
2
 10
200.34873628684761
 20
99.736014724285184
 30
0.0
 11
205.34873628684761
 21
99.736014724285184
 31
0.0
  0
LINE
  5
38C
  8
2
 10
200.34873628684761
 20
99.736014724285184
 30
0.0
 11
197.68206962018081
 21
95.117212570767975
 31
0.0
  0
LINE
  5
38D
  8
2
 10
200.34873628684761
 20
90.498410417250767
 30
0.0
 11
197.68206962018081
 21
95.117212570767862
 31
0.0
  0
ARC
  5
38E
  8
0
 10
194.94873628684749
 20
89.717212570767984
 30
0.0
 40
0.4
 50
0.0
 51
90.0
  0
ARC
  5
38F
  8
0
 10
194.94873628684749
 20
100.5172125707679
 30
0.0
 40
0.4
 50
270.0
 51
0.0
  0
ARC
  5
390
  8
0
 10
157.14873628684799
 20
95.117212570767975
 30
0.0
 40
3.5
 50
108.3176984112104
 51
251.68230158878961
  0
LINE
  5
391
  8
0
 10
143.9487368619927
 20
156.11721307038849
 30
0.0
 11
144.14873648201299
 21
156.1172126904091
 31
0.0
  0
LINE
  5
392
  8
0
 10
144.14873648201299
 20
179.1172126904091
 30
0.0
 11
143.9487368619927
 21
179.11721231042961
 31
0.0
  0
LINE
  5
393
  8
1
 10
171.14873648201299
 20
163.8672126904091
 30
0.0
 11
171.14873648201299
 21
141.3672126904091
 31
0.0
  0
LINE
  5
394
  8
1
 10
182.39873648201311
 20
152.6172126904091
 30
0.0
 11
159.89873648201299
 21
152.6172126904091
 31
0.0
  0
CIRCLE
  5
395
  8
0
 10
171.14873648201299
 20
152.6172126904091
 30
0.0
 40
5.4999999999998863
  0
CIRCLE
  5
396
  8
0
 10
171.14873648201299
 20
152.6172126904091
 30
0.0
 40
8.7499999999998863
  0
LINE
  5
397
  8
0
 10
188.64873649505159
 20
190.1172135844788
 30
0.0
 11
188.64873649505159
 21
145.11721179633949
 31
0.0
  0
LINE
  5
398
  8
0
 10
183.64873648201311
 20
140.1172126904091
 30
0.0
 11
188.64873649505159
 21
145.11721179633949
 31
0.0
  0
LINE
  5
399
  8
0
 10
143.9487368619927
 20
140.1172123104293
 30
0.0
 11
183.64873648201311
 21
140.1172126904091
 31
0.0
  0
LINE
  5
39A
  8
0
 10
147.14873648201311
 20
153.1172126904091
 30
0.0
 11
147.14873648201311
 21
140.1172126904091
 31
0.0
  0
ARC
  5
39B
  8
0
 10
144.14873648201299
 20
153.1172126904091
 30
0.0
 40
3.0
 50
0.0
 51
90.0
  0
LINE
  5
39C
  8
0
 10
140.59211215498709
 20
145.61721269040891
 30
0.0
 11
137.70536080903909
 21
145.61721269040899
 31
0.0
  0
LINE
  5
39D
  8
0
 10
136.26198513606499
 20
148.11721269040891
 30
0.0
 11
137.70536080903909
 21
145.61721269040899
 31
0.0
  0
LINE
  5
39E
  8
0
 10
136.26198513606499
 20
148.11721269040891
 30
0.0
 11
137.70536080903909
 21
150.61721269040899
 31
0.0
  0
LINE
  5
39F
  8
0
 10
137.70536080903909
 20
150.61721269040899
 30
0.0
 11
140.59211215498721
 21
150.61721269040899
 31
0.0
  0
LINE
  5
3A0
  8
0
 10
142.03548782796119
 20
148.11721269040891
 30
0.0
 11
140.59211215498721
 21
150.61721269040899
 31
0.0
  0
LINE
  5
3A1
  8
0
 10
142.03548782796119
 20
148.11721269040891
 30
0.0
 11
140.59211215498709
 21
145.61721269040891
 31
0.0
  0
CIRCLE
  5
3A2
  8
0
 10
139.14873648201319
 20
148.11721269040891
 30
0.0
 40
5.0
  0
CIRCLE
  5
3A3
  8
0
 10
139.14873648201319
 20
148.11721269040891
 30
0.0
 40
5.5
  0
LINE
  5
3A4
  8
0
 10
132.4977363622674
 20
156.1172130703884
 30
0.0
 11
132.4977363622676
 21
140.1172123104293
 31
0.0
  0
LINE
  5
3A5
  8
0
 10
131.14873610203361
 20
140.1172123104293
 30
0.0
 11
131.14873610203361
 21
156.11721307038849
 31
0.0
  0
LINE
  5
3A6
  8
0
 10
143.9487368619927
 20
156.11721307038849
 30
0.0
 11
131.14873610203361
 21
156.11721307038849
 31
0.0
  0
LINE
  5
3A7
  8
0
 10
131.14873610203361
 20
140.1172123104293
 30
0.0
 11
143.9487368619927
 21
140.1172123104293
 31
0.0
  0
LINE
  5
3A8
  8
0
 10
147.1487368619928
 20
143.3172123104292
 30
0.0
 11
147.1487368619928
 21
152.9172130703885
 31
0.0
  0
LINE
  5
3A9
  8
0
 10
143.9487368619927
 20
140.1172123104293
 30
0.0
 11
147.1487368619928
 21
143.3172123104292
 31
0.0
  0
LINE
  5
3AA
  8
0
 10
147.1487368619928
 20
152.9172130703885
 30
0.0
 11
143.9487368619927
 21
156.11721307038849
 31
0.0
  0
LINE
  5
3AB
  8
1
 10
139.14873648201319
 20
137.6172123104293
 30
0.0
 11
139.14873648201319
 21
158.61721307038849
 31
0.0
  0
LINE
  5
3AC
  8
1
 10
149.6487368619928
 20
148.11721269040891
 30
0.0
 11
128.64873610203361
 21
148.11721269040891
 31
0.0
  0
LINE
  5
3AD
  8
0
 10
143.9487368619927
 20
195.1172130703888
 30
0.0
 11
183.64873648201311
 21
195.1172126904091
 31
0.0
  0
LINE
  5
3AE
  8
0
 10
183.64873648201311
 20
195.1172126904091
 30
0.0
 11
188.64873649505159
 21
190.1172135844788
 31
0.0
  0
CIRCLE
  5
3AF
  8
0
 10
171.14873648201299
 20
182.6172126904091
 30
0.0
 40
8.7499999999998863
  0
CIRCLE
  5
3B0
  8
0
 10
171.14873648201299
 20
182.6172126904091
 30
0.0
 40
5.4999999999998863
  0
LINE
  5
3B1
  8
1
 10
149.6487368619928
 20
187.11721269040919
 30
0.0
 11
128.64873610203361
 21
187.11721269040919
 31
0.0
  0
LINE
  5
3B2
  8
1
 10
139.14873648201319
 20
197.6172130703888
 30
0.0
 11
139.14873648201319
 21
176.61721231042961
 31
0.0
  0
LINE
  5
3B3
  8
0
 10
147.1487368619928
 20
182.3172123104296
 30
0.0
 11
143.9487368619927
 21
179.11721231042961
 31
0.0
  0
LINE
  5
3B4
  8
0
 10
143.9487368619927
 20
195.1172130703888
 30
0.0
 11
147.1487368619928
 21
191.9172130703889
 31
0.0
  0
LINE
  5
3B5
  8
0
 10
147.1487368619928
 20
191.9172130703889
 30
0.0
 11
147.1487368619928
 21
182.3172123104296
 31
0.0
  0
LINE
  5
3B6
  8
0
 10
131.14873610203361
 20
195.1172130703888
 30
0.0
 11
143.9487368619927
 21
195.1172130703888
 31
0.0
  0
LINE
  5
3B7
  8
0
 10
143.9487368619927
 20
179.11721231042961
 30
0.0
 11
131.14873610203361
 21
179.11721231042969
 31
0.0
  0
LINE
  5
3B8
  8
0
 10
131.14873610203361
 20
195.1172130703888
 30
0.0
 11
131.14873610203361
 21
179.11721231042961
 31
0.0
  0
LINE
  5
3B9
  8
0
 10
132.4977363622674
 20
179.11721231042969
 30
0.0
 11
132.4977363622676
 21
195.1172130703888
 31
0.0
  0
CIRCLE
  5
3BA
  8
0
 10
139.14873648201319
 20
187.11721269040919
 30
0.0
 40
5.5
  0
CIRCLE
  5
3BB
  8
0
 10
139.14873648201319
 20
187.11721269040919
 30
0.0
 40
5.0
  0
LINE
  5
3BC
  8
1
 10
182.39873648201311
 20
182.6172126904091
 30
0.0
 11
159.89873648201299
 21
182.6172126904091
 31
0.0
  0
LINE
  5
3BD
  8
1
 10
171.14873648201299
 20
171.3672126904091
 30
0.0
 11
171.14873648201299
 21
193.8672126904091
 31
0.0
  0
LINE
  5
3BE
  8
1
 10
278.34873613783589
 20
95.117212570768004
 30
0.0
 11
257.34873613783589
 21
95.117212570768004
 31
0.0
  0
CIRCLE
  5
3BF
  8
0
 10
267.84873613783589
 20
95.117212570768004
 30
0.0
 40
8.0
  0
LINE
  5
3C0
  8
0
 10
263.84873613783537
 20
97.426613647526153
 30
0.0
 11
263.84873613783628
 21
92.807811494009854
 31
0.0
  0
LINE
  5
3C1
  8
0
 10
267.84873613783589
 20
99.736014724285212
 30
0.0
 11
263.84873613783537
 21
97.426613647526153
 31
0.0
  0
LINE
  5
3C2
  8
0
 10
271.84873613783589
 20
97.426613647527518
 30
0.0
 11
267.84873613783589
 21
99.736014724285212
 31
0.0
  0
LINE
  5
3C3
  8
0
 10
271.84873613783589
 20
92.807811494009854
 30
0.0
 11
271.84873613783589
 21
97.426613647527518
 31
0.0
  0
LINE
  5
3C4
  8
0
 10
267.84873613783628
 20
90.49841041725125
 30
0.0
 11
271.84873613783589
 21
92.807811494009854
 31
0.0
  0
LINE
  5
3C5
  8
0
 10
263.84873613783628
 20
92.807811494009854
 30
0.0
 11
267.84873613783628
 21
90.49841041725125
 31
0.0
  0
CIRCLE
  5
3C6
  8
0
 10
267.84873613783589
 20
95.117212570768004
 30
0.0
 40
6.9607695154587068
  0
LINE
  5
3C7
  8
1
 10
267.84873613783589
 20
50.117212570767997
 30
0.0
 11
267.84873613783589
 21
110.11721331582601
 31
0.0
  0
LINE
  5
3C8
  8
0
 10
240.3487362868475
 20
55.11721257076811
 30
0.0
 11
240.3487362868477
 21
105.11721331582611
 31
0.0
  0
LINE
  5
3C9
  8
0
 10
245.34873524376641
 20
105.11721331582611
 30
0.0
 11
245.34873524376621
 21
55.117212570768089
 31
0.0
  0
LINE
  5
3CA
  8
0
 10
290.3487370319055
 20
55.117212570767919
 30
0.0
 11
290.34873703190578
 21
105.11721331582589
 31
0.0
  0
LINE
  5
3CB
  8
0
 10
295.3487359888245
 20
105.11721331582589
 30
0.0
 11
295.34873598882427
 21
55.11721257076789
 31
0.0
  0
LINE
  5
3CC
  8
1
 10
128.64873648201291
 20
167.6172126904091
 30
0.0
 11
210.34873648201301
 21
167.6172126904091
 31
0.0
  0
LINE
  5
3CD
  8
0
 10
142.03548782796119
 20
187.11721269040919
 30
0.0
 11
140.59211215498709
 21
189.61721269040919
 31
0.0
  0
LINE
  5
3CE
  8
0
 10
142.03548782796119
 20
187.11721269040919
 30
0.0
 11
140.59211215498721
 21
184.61721269040919
 31
0.0
  0
LINE
  5
3CF
  8
0
 10
137.70536080903909
 20
184.61721269040919
 30
0.0
 11
140.59211215498721
 21
184.61721269040919
 31
0.0
  0
LINE
  5
3D0
  8
0
 10
136.26198513606499
 20
187.11721269040919
 30
0.0
 11
137.70536080903909
 21
184.61721269040919
 31
0.0
  0
LINE
  5
3D1
  8
0
 10
136.26198513606499
 20
187.11721269040919
 30
0.0
 11
137.70536080903909
 21
189.61721269040919
 31
0.0
  0
LINE
  5
3D2
  8
0
 10
140.59211215498709
 20
189.61721269040919
 30
0.0
 11
137.70536080903909
 21
189.61721269040919
 31
0.0
  0
LINE
  5
3D3
  8
0
 10
153.64873648201299
 20
195.1172126904091
 30
0.0
 11
153.64873648201299
 21
140.1172126904091
 31
0.0
  0
ARC
  5
3D4
  8
0
 10
144.14873648201299
 20
182.1172126904091
 30
0.0
 40
3.0
 50
270.0
 51
0.0
  0
LINE
  5
3D5
  8
0
 10
151.14873648201311
 20
140.1172126904091
 30
0.0
 11
151.14873648201311
 21
195.1172126904091
 31
0.0
  0
LINE
  5
3D6
  8
0
 10
147.14873648201311
 20
182.1172126904091
 30
0.0
 11
147.14873648201311
 21
195.1172126904091
 31
0.0
  0
LINE
  5
3D7
  8
0
 10
133.64873648201299
 20
179.1172126904091
 30
0.0
 11
133.64873648201299
 21
156.1172126904091
 31
0.0
  0
LINE
  5
3D8
  8
0
 10
157.14873648201311
 20
178.6172126904091
 30
0.0
 11
153.64873648201299
 21
178.6172126904091
 31
0.0
  0
LINE
  5
3D9
  8
0
 10
157.14873648201311
 20
156.6172126904091
 30
0.0
 11
153.64873648201299
 21
156.6172126904091
 31
0.0
  0
LINE
  5
3DA
  8
0
 10
157.14873648201311
 20
140.1172126904091
 30
0.0
 11
157.14873648201311
 21
195.1172126904091
 31
0.0
  0
LINE
  5
3DB
  8
0
 10
154.69924673922989
 20
170.1172126904091
 30
0.0
 11
153.64873648201299
 21
170.1172126904091
 31
0.0
  0
LINE
  5
3DC
  8
0
 10
153.64873648201299
 20
165.1172126904091
 30
0.0
 11
154.69924673922989
 21
165.1172126904091
 31
0.0
  0
LINE
  5
3DD
  8
1
 10
210.34873628684761
 20
95.117212570767975
 30
0.0
 11
148.64873628684779
 21
95.117212570767975
 31
0.0
  0
LINE
  5
3DE
  8
1
 10
131.14873628684779
 20
75.117212570768032
 30
0.0
 11
151.14873628684771
 21
75.117212570768146
 31
0.0
  0
LINE
  5
3DF
  8
1
 10
171.14873628684779
 20
50.117212570768032
 30
0.0
 11
171.14873628684771
 21
110.1172125707681
 31
0.0
  0
LINE
  5
3E0
  8
2
 10
133.99873628684759
 20
73.117212570768032
 30
0.0
 11
139.06616059189179
 21
73.117212570768061
 31
0.0
  0
LINE
  5
3E1
  8
2
 10
139.06616059189179
 20
77.117212570768032
 30
0.0
 11
133.9987362868477
 21
77.117212570768061
 31
0.0
  0
LINE
  5
3E2
  8
2
 10
176.64873628684771
 20
55.617212570768032
 30
0.0
 11
176.64873628684751
 21
94.117212570768046
 31
0.0
  0
LINE
  5
3E3
  8
2
 10
165.64873628684731
 20
94.117212570768046
 30
0.0
 11
165.64873628684771
 21
55.617212570768032
 31
0.0
  0
LINE
  5
3E4
  8
2
 10
165.64873628684771
 20
55.617212570768032
 30
0.0
 11
165.14873628684759
 21
55.117212570768032
 31
0.0
  0
LINE
  5
3E5
  8
2
 10
177.14873628684771
 20
55.117212570768032
 30
0.0
 11
176.64873628684771
 21
55.617212570768032
 31
0.0
  0
LINE
  5
3E6
  8
2
 10
133.9987362868477
 20
77.117212570768032
 30
0.0
 11
133.64873628684771
 21
77.467212570768055
 31
0.0
  0
LINE
  5
3E7
  8
2
 10
133.64873628684771
 20
72.767212570768038
 30
0.0
 11
133.9987362868477
 21
73.117212570768061
 31
0.0
  0
LINE
  5
3E8
  8
2
 10
179.89873628684771
 20
94.117212570768061
 30
0.0
 11
179.89873628684771
 21
104.617212570768
 31
0.0
  0
LINE
  5
3E9
  8
2
 10
162.39873628684771
 20
104.617212570768
 30
0.0
 11
162.39873628684771
 21
94.117212570768046
 31
0.0
  0
LINE
  5
3EA
  8
2
 10
179.89873628684771
 20
104.617212570768
 30
0.0
 11
180.39873628684771
 21
105.117212570768
 31
0.0
  0
LINE
  5
3EB
  8
2
 10
161.89873628684771
 20
105.117212570768
 30
0.0
 11
162.39873628684771
 21
104.617212570768
 31
0.0
  0
LINE
  5
3EC
  8
2
 10
153.64873628684759
 20
85.117212570767947
 30
0.0
 11
153.64873628684759
 21
60.617212570767968
 31
0.0
  0
LINE
  5
3ED
  8
2
 10
153.14873628684771
 20
60.117212570767997
 30
0.0
 11
135.64873628684771
 21
60.117212570767997
 31
0.0
  0
LINE
  5
3EE
  8
2
 10
153.14873628684771
 20
60.117212570767997
 30
0.0
 11
153.64873628684759
 21
60.617212570767968
 31
0.0
  0
LINE
  5
3EF
  8
2
 10
135.64873628684771
 20
60.117212570767997
 30
0.0
 11
133.64873628684771
 21
75.117212570768004
 31
0.0
  0
LINE
  5
3F0
  8
2
 10
165.64873628684771
 20
55.617212570768032
 30
0.0
 11
176.64873628684771
 21
55.617212570768032
 31
0.0
  0
LINE
  5
3F1
  8
2
 10
133.9987362868477
 20
73.117212570768061
 30
0.0
 11
133.9987362868477
 21
77.117212570768032
 31
0.0
  0
LINE
  5
3F2
  8
2
 10
162.39873628684779
 20
94.117212570768061
 30
0.0
 11
179.89873628684779
 21
94.117212570768061
 31
0.0
  0
LINE
  5
3F3
  8
2
 10
162.39873628684771
 20
104.617212570768
 30
0.0
 11
179.89873628684771
 21
104.617212570768
 31
0.0
  0
LINE
  5
3F4
  8
0
 10
153.64873628684759
 20
102.6172125707681
 30
0.0
 11
153.64873628684759
 21
85.117212570768089
 31
0.0
  0
LINE
  5
3F5
  8
0
 10
153.64873628684759
 20
102.6172125707681
 30
0.0
 11
151.14873628684771
 21
105.1172125707681
 31
0.0
  0
LINE
  5
3F6
  8
0
 10
147.14873628684771
 20
105.1172125707681
 30
0.0
 11
151.14873628684771
 21
105.1172125707681
 31
0.0
  0
LINE
  5
3F7
  8
0
 10
153.64873628684759
 20
88.617212570768075
 30
0.0
 11
133.64873628684771
 21
88.617212570768075
 31
0.0
  0
CIRCLE
  5
3F8
  8
0
 10
143.64873628684771
 20
75.117212570768089
 30
0.0
 40
5.0
  0
LINE
  5
3F9
  8
0
 10
136.14873628684759
 20
85.117212570768089
 30
0.0
 11
157.14873628684771
 21
85.117212570768089
 31
0.0
  0
LINE
  5
3FA
  8
0
 10
136.14873628684759
 20
85.117212570768089
 30
0.0
 11
133.64873628684771
 21
82.617212570768089
 31
0.0
  0
LINE
  5
3FB
  8
0
 10
183.64873628684759
 20
55.117212570768089
 30
0.0
 11
183.64873628684751
 21
105.1172125707681
 31
0.0
  0
LINE
  5
3FC
  8
1
 10
282.84873613783589
 20
52.617212570767919
 30
0.0
 11
282.84873613783571
 21
107.61721331582601
 31
0.0
  0
LINE
  5
3FD
  8
1
 10
252.848736137836
 20
52.617212570768061
 30
0.0
 11
252.8487361378358
 21
107.61721331582611
 31
0.0
  0
LINE
  5
3FE
  8
1
 10
56.148736435859981
 20
52.617212570768281
 30
0.0
 11
56.148736435859739
 21
107.61721331582631
 31
0.0
  0
LINE
  5
3FF
  8
1
 10
86.148736435859846
 20
52.617212570768139
 30
0.0
 11
86.148736435859647
 21
107.61721331582621
 31
0.0
  0
TEXT
  5
4BD
  8
0
 62
     3
 10
0.0
 20
0.0
 30
0.0
 40
10.0
  1
CP102-10050
  7
STANDARD1
  0
ENDSEC
  0
EOF
