  0
SECTION
  2
HEADER
  9
$ACADVER
  1
AC1009
  9
$INSBASE
 10
360.41591948990327
 20
27.605051712696309
 30
0.0
  9
$EXTMIN
 10
0.0
 20
-2.960436562073669
 30
0.0
  9
$EXTMAX
 10
156.7759763373009
 20
106.42276914593501
 30
0.0
  9
$LIMMIN
 10
0.0
 20
0.0
  9
$LIMMAX
 10
375.0
 20
270.0
  9
$ORTHOMODE
 70
     0
  9
$REGENMODE
 70
     1
  9
$FILLMODE
 70
     1
  9
$QTEXTMODE
 70
     0
  9
$MIRRTEXT
 70
     0
  9
$DRAGMODE
 70
     2
  9
$LTSCALE
 40
5.0
  9
$OSMODE
 70
  3071
  9
$ATTMODE
 70
     1
  9
$TEXTSIZE
 40
0.2
  9
$TRACEWID
 40
0.05
  9
$TEXTSTYLE
  7
STANDARD
  9
$CLAYER
  8
0
  9
$CELTYPE
  6
BYLAYER
  9
$CECOLOR
 62
   256
  9
$DIMSCALE
 40
1.0
  9
$DIMASZ
 40
3.0
  9
$DIMEXO
 40
2.0
  9
$DIMDLI
 40
0.38
  9
$DIMRND
 40
0.0
  9
$DIMDLE
 40
0.0
  9
$DIMEXE
 40
2.0
  9
$DIMTP
 40
0.0
  9
$DIMTM
 40
0.0
  9
$DIMTXT
 40
3.2000000000000002
  9
$DIMCEN
 40
0.0
  9
$DIMTSZ
 40
0.0
  9
$DIMTOL
 70
     0
  9
$DIMLIM
 70
     0
  9
$DIMTIH
 70
     0
  9
$DIMTOH
 70
     0
  9
$DIMSE1
 70
     0
  9
$DIMSE2
 70
     0
  9
$DIMTAD
 70
     1
  9
$DIMZIN
 70
     0
  9
$DIMBLK
  1

  9
$DIMASO
 70
     0
  9
$DIMSHO
 70
     0
  9
$DIMPOST
  1

  9
$DIMAPOST
  1

  9
$DIMALT
 70
     0
  9
$DIMALTD
 70
     2
  9
$DIMALTF
 40
25.399999999999999
  9
$DIMLFAC
 40
1.0
  9
$DIMTOFL
 70
     1
  9
$DIMTVP
 40
1.6000000000000001
  9
$DIMTIX
 70
     1
  9
$DIMSOXD
 70
     0
  9
$DIMSAH
 70
     0
  9
$DIMBLK1
  1

  9
$DIMBLK2
  1

  9
$DIMSTYLE
  2
STANDARD
  9
$DIMCLRD
 70
     0
  9
$DIMCLRE
 70
     0
  9
$DIMCLRT
 70
     0
  9
$DIMTFAC
 40
1.0
  9
$DIMGAP
 40
0.09
  9
$LUNITS
 70
     2
  9
$LUPREC
 70
     4
  9
$SKETCHINC
 40
0.1
  9
$FILLETRAD
 40
0.0
  9
$AUNITS
 70
     0
  9
$AUPREC
 70
     4
  9
$MENU
  1
E:\r13\win\SUPPORT\ACAD
  9
$ELEVATION
 40
0.0
  9
$PELEVATION
 40
0.0
  9
$THICKNESS
 40
0.0
  9
$LIMCHECK
 70
     0
  9
$BLIPMODE
 70
     0
  9
$CHAMFERA
 40
0.0
  9
$CHAMFERB
 40
0.0
  9
$SKPOLY
 70
     0
  9
$TDCREATE
 40
2449840.6513888892
  9
$TDUPDATE
 40
2456598.4965037499
  9
$TDINDWG
 40
0.355442963
  9
$TDUSRTIMER
 40
0.355442963
  9
$USRTIMER
 70
     1
  9
$ANGBASE
 50
0.0
  9
$ANGDIR
 70
     0
  9
$PDMODE
 70
     0
  9
$PDSIZE
 40
0.0
  9
$PLINEWID
 40
0.0
  9
$COORDS
 70
     1
  9
$SPLFRAME
 70
     0
  9
$SPLINETYPE
 70
     6
  9
$SPLINESEGS
 70
     8
  9
$ATTDIA
 70
     0
  9
$ATTREQ
 70
     1
  9
$HANDLING
 70
     1
  9
$HANDSEED
  5
26E
  9
$SURFTAB1
 70
     6
  9
$SURFTAB2
 70
     6
  9
$SURFTYPE
 70
     6
  9
$SURFU
 70
     6
  9
$SURFV
 70
     6
  9
$UCSNAME
  2

  9
$UCSORG
 10
0.0
 20
0.0
 30
0.0
  9
$UCSXDIR
 10
1.0
 20
0.0
 30
0.0
  9
$UCSYDIR
 10
0.0
 20
1.0
 30
0.0
  9
$PUCSNAME
  2

  9
$PUCSORG
 10
0.0
 20
0.0
 30
0.0
  9
$PUCSXDIR
 10
1.0
 20
0.0
 30
0.0
  9
$PUCSYDIR
 10
0.0
 20
1.0
 30
0.0
  9
$USERI1
 70
     0
  9
$USERI2
 70
     1
  9
$USERI3
 70
     0
  9
$USERI4
 70
     0
  9
$USERI5
 70
     0
  9
$USERR1
 40
0.0
  9
$USERR2
 40
0.0
  9
$USERR3
 40
0.0
  9
$USERR4
 40
0.0
  9
$USERR5
 40
0.0
  9
$WORLDVIEW
 70
     1
  9
$SHADEDGE
 70
     3
  9
$SHADEDIF
 70
    70
  9
$TILEMODE
 70
     1
  9
$MAXACTVP
 70
    16
  9
$PLIMCHECK
 70
     0
  9
$PEXTMIN
 10
1.0000000000000000E+020
 20
1.0000000000000000E+020
 30
1.0000000000000000E+020
  9
$PEXTMAX
 10
-1.0000000000000000E+020
 20
-1.0000000000000000E+020
 30
-1.0000000000000000E+020
  9
$PLIMMIN
 10
0.0
 20
0.0
  9
$PLIMMAX
 10
12.0
 20
9.0
  9
$UNITMODE
 70
     0
  9
$VISRETAIN
 70
     0
  9
$PLINEGEN
 70
     0
  9
$PSLTSCALE
 70
     0
  0
ENDSEC
  0
SECTION
  2
TABLES
  0
TABLE
  2
VPORT
 70
     1
  0
VPORT
  2
*ACTIVE
 70
     0
 10
0.0
 20
0.0
 11
1.0
 21
1.0
 12
195.0581083320873
 22
133.5127261426681
 13
0.0
 23
0.0
 14
5.0
 24
5.0
 15
10.0
 25
10.0
 16
0.0
 26
0.0
 36
1.0
 17
0.0
 27
0.0
 37
0.0
 40
275.42274993631997
 41
1.831871345029239
 42
50.0
 43
0.0
 44
0.0
 50
0.0
 51
0.0
 71
     0
 72
   500
 73
     1
 74
     0
 75
     0
 76
     0
 77
     0
 78
     2
  0
ENDTAB
  0
TABLE
  2
LTYPE
 70
     4
  0
LTYPE
  2
CONTINUOUS
 70
     0
  3
Solid Line
 72
    65
 73
     0
 40
0.0
  0
LTYPE
  2
CENTER
 70
     0
  3
____ _ ____ _ ____ _ ____ _ ____ _ ____ _ ____
 72
    65
 73
     4
 40
2.0
 49
1.25
 49
-0.25
 49
0.25
 49
-0.25
  0
LTYPE
  2
HIDDEN
 70
     0
  3
_ _ _ _ _ _ _ _ _ _ _ _ _ _ _ _ _ _ _ _ _ _ _
 72
    65
 73
     2
 40
0.375
 49
0.25
 49
-0.125
  0
LTYPE
  2
PHANTOM2
 70
     0
  3
Phantom (.5x) ___ _ _ ___ _ _ ___ _ _ ___ _ _
 72
    65
 73
     6
 40
1.25
 49
0.625
 49
-0.125
 49
0.125
 49
-0.125
 49
0.125
 49
-0.125
  0
ENDTAB
  0
TABLE
  2
LAYER
 70
     5
  0
LAYER
  2
0
 70
     0
 62
     7
  6
CONTINUOUS
  0
LAYER
  2
1
 70
     0
 62
     1
  6
CENTER
  0
LAYER
  2
2
 70
     0
 62
     2
  6
HIDDEN
  0
LAYER
  2
5
 70
     0
 62
     3
  6
PHANTOM2
  0
LAYER
  2
3
 70
     0
 62
     3
  6
CONTINUOUS
  0
ENDTAB
  0
TABLE
  2
STYLE
 70
     2
  0
STYLE
  2
STANDARD
 70
     0
 40
0.0
 41
1.0
 50
0.0
 71
     0
 42
0.2
  3
TXT
  4
BIGFONT
  0
STYLE
  2
STANDARD1
 70
     0
 40
0.0
 41
1.0
 50
0.0
 71
     0
 42
3.0
  3
txt
  4

  0
ENDTAB
  0
TABLE
  2
VIEW
 70
     1
  0
VIEW
  2
ALL
 70
     0
 40
270.0
 10
220.99159663865549
 20
135.0
 41
0.0
 11
0.0
 21
0.0
 31
1.0
 12
0.0
 22
0.0
 32
0.0
 42
0.0
 43
0.0
 44
0.0
 50
0.0
 71
     0
  0
ENDTAB
  0
TABLE
  2
UCS
 70
     0
  0
ENDTAB
  0
TABLE
  2
APPID
 70
     3
  0
APPID
  2
ACAD
 70
     0
  0
APPID
  2
ACAD_MLEADERVER
 70
     0
  0
APPID
  2
ACAD_NAV_VCDISPLAY
 70
     0
  0
ENDTAB
  0
TABLE
  2
DIMSTYLE
 70
     1
  0
DIMSTYLE
  2
STANDARD
 70
     0
  3

  4

  5

  6

  7

 40
1.0
 41
0.18
 42
0.0625
 43
0.38
 44
0.18
 45
0.0
 46
0.0
 47
0.0
 48
0.0
140
0.18
141
0.09
142
0.0
143
25.399999999999999
144
1.0
145
0.0
146
1.0
147
0.09
 71
     0
 72
     0
 73
     1
 74
     1
 75
     0
 76
     0
 77
     0
 78
     0
170
     0
171
     2
172
     0
173
     0
174
     0
175
     0
176
     0
177
     0
178
     0
  0
ENDTAB
  0
ENDSEC
  0
SECTION
  2
BLOCKS
  0
BLOCK
  8
0
  2
$MODEL_SPACE
 70
     0
 10
0.0
 20
0.0
 30
0.0
  3
$MODEL_SPACE
  1

  0
ENDBLK
  5
9
  8
0
  0
BLOCK
 67
     1
  8
0
  2
$PAPER_SPACE
 70
     0
 10
0.0
 20
0.0
 30
0.0
  3
$PAPER_SPACE
  1

  0
ENDBLK
  5
F
 67
     1
  8
0
  0
BLOCK
  8
0
  2
*X0
 70
     1
 10
0.0
 20
0.0
 30
0.0
  3
*X0
  1

  0
LINE
  5
209
  8
0
 62
     0
 10
45.720487462459971
 20
30.322769145934959
 30
0.0
 11
46.775976337300897
 21
31.378258020775888
 31
0.0
  0
LINE
  5
20A
  8
0
 62
     0
 10
44.306273900086858
 20
30.322769145934899
 30
0.0
 11
46.775976337300932
 21
32.792471583148973
 31
0.0
  0
LINE
  5
20B
  8
0
 62
     0
 10
42.892060337713751
 20
30.322769145934899
 30
0.0
 11
46.77597633730096
 21
34.206685145522101
 31
0.0
  0
LINE
  5
20C
  8
0
 62
     0
 10
41.477846775340637
 20
30.322769145934899
 30
0.0
 11
46.77597633730096
 21
35.620898707895208
 31
0.0
  0
LINE
  5
20D
  8
0
 62
     0
 10
40.063633212967602
 20
30.322769145934959
 30
0.0
 11
46.21007982237429
 21
36.469215755341651
 31
0.0
  0
LINE
  5
20E
  8
0
 62
     0
 10
39.275976337300847
 20
30.949325832641311
 30
0.0
 11
44.795866260001191
 21
36.469215755341651
 31
0.0
  0
LINE
  5
20F
  8
0
 62
     0
 10
39.275976337300868
 20
32.363539395014392
 30
0.0
 11
43.381652697628127
 21
36.469215755341622
 31
0.0
  0
LINE
  5
210
  8
0
 62
     0
 10
39.275976337300911
 20
33.77775295738752
 30
0.0
 11
41.967439135255027
 21
36.469215755341651
 31
0.0
  0
LINE
  5
211
  8
0
 62
     0
 10
39.275976337300911
 20
35.191966519760634
 30
0.0
 11
40.553225572881921
 21
36.469215755341651
 31
0.0
  0
LINE
  5
212
  8
0
 62
     0
 10
39.134239078484597
 20
36.464442823317398
 30
0.0
 11
39.139012010508822
 21
36.469215755341651
 31
0.0
  0
LINE
  5
213
  8
0
 62
     0
 10
28.749924713982811
 20
30.322769145934899
 30
0.0
 11
29.275976337300911
 21
30.848820769252999
 31
0.0
  0
LINE
  5
214
  8
0
 62
     0
 10
27.335711151609761
 20
30.322769145934959
 30
0.0
 11
29.275976337300911
 21
32.263034331626102
 31
0.0
  0
LINE
  5
215
  8
0
 62
     0
 10
25.92149758923663
 20
30.322769145934899
 30
0.0
 11
29.275976337300911
 21
33.677247893999208
 31
0.0
  0
LINE
  5
216
  8
0
 62
     0
 10
24.507284026863552
 20
30.322769145934931
 30
0.0
 11
29.275976337300929
 21
35.091461456372294
 31
0.0
  0
LINE
  5
217
  8
0
 62
     0
 10
23.093070464490442
 20
30.322769145934899
 30
0.0
 11
29.23951707389719
 21
36.469215755341622
 31
0.0
  0
LINE
  5
218
  8
0
 62
     0
 10
21.877213887242078
 20
30.521126131059649
 30
0.0
 11
27.82530351152408
 21
36.469215755341651
 31
0.0
  0
LINE
  5
219
  8
0
 62
     0
 10
21.77597633730096
 20
31.834102143491641
 30
0.0
 11
26.411089949150981
 21
36.469215755341651
 31
0.0
  0
LINE
  5
21A
  8
0
 62
     0
 10
21.77597633730096
 20
33.248315705864741
 30
0.0
 11
24.99687638677787
 21
36.469215755341651
 31
0.0
  0
LINE
  5
21B
  8
0
 62
     0
 10
21.775976337300989
 20
34.662529268237847
 30
0.0
 11
23.582662824404789
 21
36.469215755341651
 31
0.0
  0
LINE
  5
21C
  8
0
 62
     0
 10
21.775976337300989
 20
36.076742830610897
 30
0.0
 11
22.168449262031711
 21
36.469215755341622
 31
0.0
  0
ENDBLK
  5
21E
  8
0
  0
BLOCK
  8
0
  2
*X1
 70
     1
 10
0.0
 20
0.0
 30
0.0
  3
*X1
  1

  0
LINE
  5
220
  8
0
 62
     0
 10
46.775976337300932
 20
36.007309619567678
 30
0.0
 11
46.314070201526931
 21
36.469215755341651
 31
0.0
  0
LINE
  5
221
  8
0
 62
     0
 10
46.775976337300897
 20
34.5930960571946
 30
0.0
 11
44.899856639153882
 21
36.469215755341622
 31
0.0
  0
LINE
  5
222
  8
0
 62
     0
 10
46.775976337300868
 20
33.178882494821522
 30
0.0
 11
43.485643076780718
 21
36.469215755341679
 31
0.0
  0
LINE
  5
223
  8
0
 62
     0
 10
46.775976337300868
 20
31.764668932448419
 30
0.0
 11
42.07142951440764
 21
36.469215755341651
 31
0.0
  0
LINE
  5
224
  8
0
 62
     0
 10
46.643101727794743
 20
30.483329979581441
 30
0.0
 11
40.657215952034562
 21
36.469215755341622
 31
0.0
  0
LINE
  5
225
  8
0
 62
     0
 10
45.3894489990682
 20
30.322769145934899
 30
0.0
 11
39.243002389661513
 21
36.469215755341622
 31
0.0
  0
LINE
  5
226
  8
0
 62
     0
 10
43.975235436695129
 20
30.322769145934931
 30
0.0
 11
39.275976337300911
 21
35.022028245329153
 31
0.0
  0
LINE
  5
227
  8
0
 62
     0
 10
42.561021874322023
 20
30.322769145934899
 30
0.0
 11
39.275976337300868
 21
33.607814682956047
 31
0.0
  0
LINE
  5
228
  8
0
 62
     0
 10
41.146808311948909
 20
30.322769145934899
 30
0.0
 11
39.275976337300818
 21
32.193601120582997
 31
0.0
  0
LINE
  5
229
  8
0
 62
     0
 10
39.732594749575782
 20
30.322769145934931
 30
0.0
 11
39.275976337300818
 21
30.779387558209891
 31
0.0
  0
LINE
  5
22A
  8
0
 62
     0
 10
29.385173907553359
 20
36.427549300838081
 30
0.0
 11
29.343507453049799
 21
36.469215755341679
 31
0.0
  0
LINE
  5
22B
  8
0
 62
     0
 10
29.275976337300872
 20
35.122533308717472
 30
0.0
 11
27.929293890676689
 21
36.469215755341651
 31
0.0
  0
LINE
  5
22C
  8
0
 62
     0
 10
29.275976337300872
 20
33.708319746344358
 30
0.0
 11
26.51508032830359
 21
36.469215755341651
 31
0.0
  0
LINE
  5
22D
  8
0
 62
     0
 10
29.275976337300929
 20
32.294106183971252
 30
0.0
 11
25.10086676593053
 21
36.469215755341622
 31
0.0
  0
LINE
  5
22E
  8
0
 62
     0
 10
29.275976337300911
 20
30.879892621598181
 30
0.0
 11
23.68665320355743
 21
36.469215755341651
 31
0.0
  0
LINE
  5
22F
  8
0
 62
     0
 10
28.418886250591068
 20
30.322769145934899
 30
0.0
 11
22.27243964118432
 21
36.469215755341651
 31
0.0
  0
LINE
  5
230
  8
0
 62
     0
 10
27.004672688217941
 20
30.322769145934931
 30
0.0
 11
21.775976337300929
 21
35.551465496851932
 31
0.0
  0
LINE
  5
231
  8
0
 62
     0
 10
25.590459125844831
 20
30.322769145934931
 30
0.0
 11
21.775976337300911
 21
34.137251934478861
 31
0.0
  0
LINE
  5
232
  8
0
 62
     0
 10
24.176245563471781
 20
30.322769145934931
 30
0.0
 11
21.775976337300929
 21
32.723038372105748
 31
0.0
  0
LINE
  5
233
  8
0
 62
     0
 10
22.76203200109865
 20
30.322769145934959
 30
0.0
 11
21.775976337300929
 21
31.30882480973267
 31
0.0
  0
ENDBLK
  5
235
  8
0
  0
ENDSEC
  0
SECTION
  2
ENTITIES
  0
LINE
  5
27
  8
1
 10
105.5259763373008
 20
37.322769145935069
 30
0.0
 11
97.025976337300904
 21
37.322769145935069
 31
0.0
  0
LINE
  5
2A
  8
1
 10
101.2759763373009
 20
33.072769145935069
 30
0.0
 11
101.2759763373008
 21
41.572769145934949
 31
0.0
  0
LINE
  5
2B
  8
0
 10
147.27597633730079
 20
30.322769145934959
 30
0.0
 11
147.27597633730079
 21
23.322769145934959
 31
0.0
  0
LINE
  5
2C
  8
0
 10
141.27597633730079
 20
23.322769145934959
 30
0.0
 11
141.27597633730079
 21
30.322769145934959
 31
0.0
  0
LINE
  5
2D
  8
0
 10
152.7759763373009
 20
46.922769145935007
 30
0.0
 11
152.7759763373009
 21
45.322769145935013
 31
0.0
  0
LINE
  5
2E
  8
0
 10
135.77597633730079
 20
45.322769145935013
 30
0.0
 11
135.77597633730079
 21
46.922769145935007
 31
0.0
  0
ARC
  5
2F
  8
0
 10
156.2759763373009
 20
30.822769145934959
 30
0.0
 40
0.5000000000000071
 50
270.0
 51
359.9999999999996
  0
LINE
  5
30
  8
0
 10
132.27597633730079
 20
30.322769145934959
 30
0.0
 11
156.2759763373009
 21
30.322769145934959
 31
0.0
  0
ARC
  5
31
  8
0
 10
132.27597633730079
 20
30.822769145934959
 30
0.0
 40
0.5
 50
180.0
 51
270.0
  0
LINE
  5
32
  8
0
 10
156.77597633730079
 20
30.822769145934959
 30
0.0
 11
156.7759763373009
 21
43.822769145934963
 31
0.0
  0
LINE
  5
33
  8
0
 10
131.77597633730079
 20
43.822769145934963
 30
0.0
 11
131.77597633730079
 21
30.822769145934959
 31
0.0
  0
ARC
  5
34
  8
0
 10
155.2759763373009
 20
43.822769145934963
 30
0.0
 40
1.5000000000000071
 50
359.9999999999996
 51
90.0
  0
ARC
  5
35
  8
0
 10
133.27597633730079
 20
43.822769145934963
 30
0.0
 40
1.5000000000000071
 50
90.0
 51
180.0
  0
LINE
  5
36
  8
0
 10
155.2759763373009
 20
45.32276914593492
 30
0.0
 11
133.27597633730079
 21
45.32276914593492
 31
0.0
  0
LINE
  5
37
  8
0
 10
141.27597633730079
 20
23.322769145934959
 30
0.0
 11
147.27597633730079
 21
23.322769145934959
 31
0.0
  0
LINE
  5
38
  8
0
 10
135.77597633730079
 20
46.922769145935007
 30
0.0
 11
152.7759763373009
 21
46.922769145935007
 31
0.0
  0
LINE
  5
39
  8
1
 10
144.2759763373009
 20
16.92276914593501
 30
0.0
 11
144.27597633730079
 21
59.922769145935
 31
0.0
  0
LINE
  5
3A
  8
5
 10
149.9099509335164
 20
54.922769145935
 30
0.0
 11
138.6420017410851
 21
54.922769145935
 31
0.0
  0
LINE
  5
3D
  8
5
 10
150.7759763373007
 20
54.422769145935007
 30
0.0
 11
137.7759763373007
 21
54.422769145935007
 31
0.0
  0
LINE
  5
3E
  8
5
 10
137.7759763373007
 20
54.422769145935007
 30
0.0
 11
138.6420017410851
 21
54.922769145935
 31
0.0
  0
LINE
  5
3F
  8
5
 10
150.7759763373007
 20
54.422769145935007
 30
0.0
 11
149.9099509335164
 21
54.922769145935
 31
0.0
  0
LINE
  5
40
  8
5
 10
137.7759763373007
 20
54.422769145935007
 30
0.0
 11
137.7759763373007
 21
46.922769145935007
 31
0.0
  0
LINE
  5
41
  8
5
 10
150.7759763373007
 20
46.922769145935007
 30
0.0
 11
150.7759763373007
 21
54.422769145935007
 31
0.0
  0
LINE
  5
42
  8
5
 10
141.47597633730081
 20
21.92276914593501
 30
0.0
 11
147.0759763373008
 21
21.92276914593501
 31
0.0
  0
LINE
  5
43
  8
5
 10
140.9524763373006
 20
30.322769145934959
 30
0.0
 11
140.95247633730071
 21
22.446269145934991
 31
0.0
  0
LINE
  5
44
  8
5
 10
140.2759763373007
 20
30.322769145934959
 30
0.0
 11
140.2759763373007
 21
23.122769145934971
 31
0.0
  0
LINE
  5
45
  8
5
 10
140.27597633730079
 20
23.122769145934999
 30
0.0
 11
141.47597633730081
 21
21.92276914593501
 31
0.0
  0
LINE
  5
46
  8
5
 10
140.2759763373007
 20
23.122769145934939
 30
0.0
 11
148.27597633730079
 21
23.122769145935049
 31
0.0
  0
LINE
  5
47
  8
5
 10
148.2759763373007
 20
30.322769145934959
 30
0.0
 11
148.27597633730079
 21
23.122769145935081
 31
0.0
  0
LINE
  5
48
  8
5
 10
147.5994763373009
 20
30.322769145934959
 30
0.0
 11
147.5994763373009
 21
22.446269145935251
 31
0.0
  0
LINE
  5
49
  8
5
 10
147.0759763373008
 20
21.92276914593501
 30
0.0
 11
148.27597633730079
 21
23.122769145935049
 31
0.0
  0
LINE
  5
4A
  8
5
 10
31.475976337300949
 20
21.92276914593501
 30
0.0
 11
30.27597633730096
 21
23.122769145935049
 31
0.0
  0
LINE
  5
4B
  8
5
 10
30.95247633730088
 20
30.322769145934959
 30
0.0
 11
30.952476337300819
 21
22.446269145935251
 31
0.0
  0
LINE
  5
4C
  8
5
 10
30.275976337301021
 20
30.322769145934959
 30
0.0
 11
30.275976337300911
 21
23.122769145935081
 31
0.0
  0
LINE
  5
4D
  8
5
 10
38.275976337301017
 20
23.122769145934939
 30
0.0
 11
30.275976337300911
 21
23.122769145935049
 31
0.0
  0
LINE
  5
4E
  8
5
 10
38.27597633730096
 20
23.122769145934999
 30
0.0
 11
37.075976337300972
 21
21.92276914593501
 31
0.0
  0
LINE
  5
4F
  8
5
 10
38.275976337301017
 20
30.322769145934959
 30
0.0
 11
38.275976337301017
 21
23.122769145934971
 31
0.0
  0
LINE
  5
50
  8
5
 10
37.599476337301162
 20
30.322769145934959
 30
0.0
 11
37.599476337301041
 21
22.446269145934991
 31
0.0
  0
LINE
  5
51
  8
5
 10
37.075976337300972
 20
21.92276914593501
 30
0.0
 11
31.475976337300949
 21
21.92276914593501
 31
0.0
  0
LINE
  5
52
  8
5
 10
27.775976337301021
 20
46.922769145935007
 30
0.0
 11
27.775976337301021
 21
54.422769145935007
 31
0.0
  0
LINE
  5
53
  8
5
 10
40.775976337301017
 20
54.422769145935007
 30
0.0
 11
40.775976337301017
 21
46.922769145935007
 31
0.0
  0
LINE
  5
54
  8
5
 10
27.775976337301021
 20
54.422769145935007
 30
0.0
 11
28.64200174108532
 21
54.922769145935
 31
0.0
  0
LINE
  5
55
  8
5
 10
40.775976337301017
 20
54.422769145935007
 30
0.0
 11
39.909950933516598
 21
54.922769145935
 31
0.0
  0
LINE
  5
56
  8
5
 10
27.775976337301021
 20
54.422769145935007
 30
0.0
 11
40.775976337301017
 21
54.422769145935007
 31
0.0
  0
LINE
  5
57
  8
5
 10
28.64200174108532
 20
54.922769145935
 30
0.0
 11
39.909950933516598
 21
54.922769145935
 31
0.0
  0
LINE
  5
59
  8
1
 10
96.275976337301245
 20
104.92276914593501
 30
0.0
 11
96.275976337301245
 21
82.922769145934964
 31
0.0
  0
LINE
  5
5A
  8
5
 10
100.2759763373013
 20
26.12276914593491
 30
0.0
 11
92.275976337301245
 21
26.122769145935031
 31
0.0
  0
LINE
  5
5B
  8
5
 10
93.475976337301304
 20
24.922769145934978
 30
0.0
 11
92.275976337301302
 21
26.122769145935031
 31
0.0
  0
LINE
  5
5C
  8
5
 10
100.2759763373013
 20
26.122769145934971
 30
0.0
 11
99.075976337301313
 21
24.922769145934978
 31
0.0
  0
LINE
  5
5D
  8
5
 10
99.075976337301313
 20
24.922769145934978
 30
0.0
 11
93.475976337301304
 21
24.922769145934978
 31
0.0
  0
LINE
  5
5E
  8
5
 10
100.2759763373013
 20
30.322769145934959
 30
0.0
 11
100.2759763373013
 21
26.122769145934971
 31
0.0
  0
LINE
  5
5F
  8
5
 10
99.599476337301496
 20
30.322769145934959
 30
0.0
 11
99.599476337301383
 21
25.446269145934991
 31
0.0
  0
LINE
  5
60
  8
5
 10
92.952476337301221
 20
30.322769145934959
 30
0.0
 11
92.952476337301164
 21
25.446269145935219
 31
0.0
  0
LINE
  5
61
  8
5
 10
92.275976337301358
 20
30.322769145934959
 30
0.0
 11
92.275976337301245
 21
26.122769145935081
 31
0.0
  0
LINE
  5
62
  8
5
 10
89.775976337301358
 20
57.422769145934993
 30
0.0
 11
90.642001741085664
 21
57.922769145934993
 31
0.0
  0
LINE
  5
63
  8
5
 10
102.7759763373013
 20
57.422769145934993
 30
0.0
 11
101.9099509335169
 21
57.922769145934993
 31
0.0
  0
LINE
  5
64
  8
5
 10
89.775976337301358
 20
57.422769145934993
 30
0.0
 11
102.7759763373013
 21
57.422769145934993
 31
0.0
  0
LINE
  5
65
  8
5
 10
90.642001741085664
 20
57.922769145934993
 30
0.0
 11
101.9099509335169
 21
57.922769145934993
 31
0.0
  0
LINE
  5
66
  8
5
 10
89.775976337301358
 20
49.922769145934993
 30
0.0
 11
89.775976337301358
 21
57.422769145934993
 31
0.0
  0
LINE
  5
67
  8
5
 10
102.7759763373013
 20
57.422769145934993
 30
0.0
 11
102.7759763373013
 21
49.922769145934993
 31
0.0
  0
LINE
  5
68
  8
5
 10
102.7759763373013
 20
54.422769145935021
 30
0.0
 11
102.7759763373013
 21
46.922769145935028
 31
0.0
  0
LINE
  5
69
  8
5
 10
89.775976337301358
 20
46.922769145935028
 30
0.0
 11
89.775976337301358
 21
54.422769145935021
 31
0.0
  0
LINE
  5
6A
  8
5
 10
90.642001741085664
 20
54.922769145935021
 30
0.0
 11
101.9099509335169
 21
54.922769145935021
 31
0.0
  0
LINE
  5
6B
  8
5
 10
89.775976337301358
 20
54.422769145935021
 30
0.0
 11
102.7759763373013
 21
54.422769145935021
 31
0.0
  0
LINE
  5
6C
  8
5
 10
102.7759763373013
 20
54.422769145935021
 30
0.0
 11
101.9099509335169
 21
54.922769145935021
 31
0.0
  0
LINE
  5
6D
  8
5
 10
89.775976337301358
 20
54.422769145935021
 30
0.0
 11
90.642001741085664
 21
54.922769145935021
 31
0.0
  0
LINE
  5
6E
  8
5
 10
99.075976337301313
 20
21.922769145935039
 30
0.0
 11
93.475976337301304
 21
21.922769145935039
 31
0.0
  0
LINE
  5
6F
  8
5
 10
92.275976337301358
 20
30.322769145934959
 30
0.0
 11
92.275976337301245
 21
23.122769145935081
 31
0.0
  0
LINE
  5
70
  8
5
 10
92.952476337301221
 20
30.322769145934959
 30
0.0
 11
92.952476337301164
 21
22.446269145935279
 31
0.0
  0
LINE
  5
71
  8
5
 10
99.599476337301496
 20
30.322769145934959
 30
0.0
 11
99.599476337301383
 21
22.44626914593502
 31
0.0
  0
LINE
  5
72
  8
5
 10
100.2759763373013
 20
30.322769145934959
 30
0.0
 11
100.2759763373013
 21
23.122769145934999
 31
0.0
  0
LINE
  5
73
  8
5
 10
100.2759763373013
 20
23.12276914593502
 30
0.0
 11
99.075976337301313
 21
21.922769145935039
 31
0.0
  0
LINE
  5
74
  8
5
 10
93.475976337301304
 20
21.922769145935039
 30
0.0
 11
92.275976337301302
 21
23.122769145935081
 31
0.0
  0
LINE
  5
75
  8
5
 10
100.2759763373013
 20
23.122769145934971
 30
0.0
 11
92.275976337301245
 21
23.122769145935081
 31
0.0
  0
LINE
  5
76
  8
0
 10
104.7759763373013
 20
46.922769145935028
 30
0.0
 11
87.775976337301245
 21
46.922769145935028
 31
0.0
  0
LINE
  5
77
  8
5
 10
80.336636509080719
 20
44.883429317714779
 30
0.0
 11
83.336636509080734
 21
47.883429317714828
 31
0.0
  0
ARC
  5
78
  8
2
 10
104.2759763373009
 20
40.322769145934977
 30
0.0
 40
1.7499999999999929
 50
315.00000000000028
 51
135.0
  0
LINE
  5
7B
  8
2
 10
102.5134132043773
 20
36.085332278858573
 30
0.0
 11
105.5134132043773
 21
39.085332278858523
 31
0.0
  0
LINE
  5
7C
  8
2
 10
103.03853947022441
 20
41.560206013011452
 30
0.0
 11
100.03853947022441
 21
38.560206013011509
 31
0.0
  0
ARC
  5
7D
  8
2
 10
101.2759763373009
 20
37.322769145935069
 30
0.0
 40
1.7499999999999929
 50
135.0
 51
315.00000000000028
  0
ARC
  5
7E
  8
5
 10
84.39729668086062
 20
46.822769145935013
 30
0.0
 40
1.500000000000022
 50
90.0
 51
135.0
  0
LINE
  5
7F
  8
5
 10
109.7759763373008
 20
33.822769145935013
 30
0.0
 11
109.7759763373009
 21
33.822769145935013
 31
0.0
  0
LINE
  5
80
  8
5
 10
75.275976337300904
 20
33.322769145934977
 30
0.0
 11
109.2759763373009
 21
33.32276914593502
 31
0.0
  0
LINE
  5
81
  8
5
 10
104.7759763373013
 20
49.922769145934993
 30
0.0
 11
87.775976337301245
 21
49.922769145934993
 31
0.0
  0
ARC
  5
82
  8
5
 10
75.275976337300847
 20
39.115662364748459
 30
0.0
 40
0.5
 50
134.9999999999994
 51
180.0000000000004
  0
LINE
  5
83
  8
5
 10
74.775976337300904
 20
33.822769145935013
 30
0.0
 11
74.775976337300847
 21
39.115662364748459
 31
0.0
  0
ARC
  5
84
  8
5
 10
75.275976337300847
 20
33.822769145935013
 30
0.0
 40
0.5
 50
180.0000000000004
 51
270.0
  0
LINE
  5
85
  8
0
 10
71.92242294670757
 20
36.469215755341679
 30
0.0
 11
80.336636509080677
 21
44.883429317714842
 31
0.0
  0
LINE
  5
86
  8
0
 10
106.7759763373008
 20
43.822769145934963
 30
0.0
 11
106.7759763373008
 21
30.822769145934959
 31
0.0
  0
ARC
  5
87
  8
5
 10
109.2759763373008
 20
33.822769145935013
 30
0.0
 40
0.5
 50
270.0
 51
0.0
  0
LINE
  5
88
  8
5
 10
106.7759763373008
 20
48.322769145934991
 30
0.0
 11
106.7759763373008
 21
43.822769145934963
 31
0.0
  0
ARC
  5
89
  8
5
 10
108.2759763373008
 20
46.822769145935013
 30
0.0
 40
1.5
 50
0.0
 51
90.0
  0
LINE
  5
8A
  8
5
 10
84.39729668086062
 20
48.322769145934991
 30
0.0
 11
108.2759763373008
 21
48.322769145934991
 31
0.0
  0
LINE
  5
8B
  8
5
 10
109.7759763373008
 20
46.822769145935013
 30
0.0
 11
109.7759763373008
 21
33.822769145935013
 31
0.0
  0
LINE
  5
8C
  8
5
 10
104.7759763373012
 20
48.322769145934991
 30
0.0
 11
104.7759763373012
 21
49.922769145934993
 31
0.0
  0
LINE
  5
8D
  8
5
 10
87.775976337301245
 20
49.922769145934993
 30
0.0
 11
87.775976337301245
 21
48.322769145934991
 31
0.0
  0
LINE
  5
8E
  8
1
 10
86.275976337300946
 20
18.322769145934981
 30
0.0
 11
86.275976337300904
 21
35.322769145934963
 31
0.0
  0
LINE
  5
8F
  8
1
 10
96.275976337301174
 20
16.92276914593501
 30
0.0
 11
96.275976337301245
 21
62.922769145934971
 31
0.0
  0
CIRCLE
  5
90
  8
0
 10
101.2759763373008
 20
37.322769145934927
 30
0.0
 40
1.5
  0
LINE
  5
91
  8
0
 10
89.275976337300904
 20
23.322769145934959
 30
0.0
 11
83.275976337300847
 21
23.322769145934959
 31
0.0
  0
ARC
  5
92
  8
0
 10
72.275976337300847
 20
36.115662364748403
 30
0.0
 40
0.500000000000004
 50
135.00000000000031
 51
180.0000000000004
  0
LINE
  5
93
  8
0
 10
71.77597633730079
 20
30.822769145934959
 30
0.0
 11
71.775976337300847
 21
36.115662364748403
 31
0.0
  0
ARC
  5
94
  8
0
 10
72.275976337300847
 20
30.822769145934959
 30
0.0
 40
0.5
 50
180.0000000000004
 51
270.0
  0
ARC
  5
95
  8
0
 10
81.397296680860563
 20
43.822769145934963
 30
0.0
 40
1.5000000000000011
 50
90.0
 51
135.0
  0
LINE
  5
96
  8
0
 10
100.03853947022441
 20
38.560206013011431
 30
0.0
 11
97.038539470224407
 21
35.560206013011509
 31
0.0
  0
ARC
  5
97
  8
0
 10
101.2759763373008
 20
37.322769145934963
 30
0.0
 40
1.7500000000000031
 50
315.00000000000028
 51
134.99999999999969
  0
LINE
  5
98
  8
0
 10
99.513413204377287
 20
33.085332278858573
 30
0.0
 11
102.5134132043773
 21
36.085332278858488
 31
0.0
  0
ARC
  5
99
  8
0
 10
98.275976337300861
 20
34.322769145935041
 30
0.0
 40
1.7500000000000031
 50
134.99999999999969
 51
315.00000000000028
  0
LINE
  5
9A
  8
0
 10
103.7759763373009
 20
45.322769145934949
 30
0.0
 11
103.7759763373008
 21
30.322769145934959
 31
0.0
  0
LINE
  5
9B
  8
0
 10
106.2759763373008
 20
30.322769145934959
 30
0.0
 11
72.275976337300847
 21
30.322769145934959
 31
0.0
  0
ARC
  5
9C
  8
0
 10
106.2759763373008
 20
30.822769145934959
 30
0.0
 40
0.5
 50
270.0
 51
0.0
  0
ARC
  5
9D
  8
0
 10
105.2759763373008
 20
43.822769145934963
 30
0.0
 40
1.5
 50
0.0
 51
90.0
  0
LINE
  5
9E
  8
0
 10
81.397296680860563
 20
45.322769145934949
 30
0.0
 11
105.2759763373008
 21
45.322769145934949
 31
0.0
  0
LINE
  5
9F
  8
0
 10
104.7759763373012
 20
45.322769145935013
 30
0.0
 11
104.7759763373012
 21
46.922769145935028
 31
0.0
  0
LINE
  5
A0
  8
0
 10
87.775976337301245
 20
46.922769145935028
 30
0.0
 11
87.775976337301245
 21
45.322769145935013
 31
0.0
  0
LINE
  5
A1
  8
0
 10
89.275976337300904
 20
23.322769145934959
 30
0.0
 11
89.275976337300904
 21
30.322769145934959
 31
0.0
  0
LINE
  5
A2
  8
0
 10
83.275976337300904
 20
30.322769145934959
 30
0.0
 11
83.275976337300904
 21
23.322769145934959
 31
0.0
  0
LINE
  5
A3
  8
1
 10
111.7759763373008
 20
93.922769145934964
 30
0.0
 11
66.775976337300904
 21
93.922769145935021
 31
0.0
  0
CIRCLE
  5
A4
  8
0
 10
96.275976337301174
 20
93.92276914593495
 30
0.0
 40
8.5
  0
ARC
  5
A5
  8
0
 10
72.275976337300904
 20
105.92276914593489
 30
0.0
 40
0.5000000000000071
 50
90.000000000000398
 51
180.0
  0
LINE
  5
A6
  8
0
 10
71.775976337300904
 20
98.922769145934964
 30
0.0
 11
71.775976337300904
 21
105.92276914593489
 31
0.0
  0
LINE
  5
A7
  8
0
 10
71.775976337300904
 20
81.922769145934964
 30
0.0
 11
71.775976337300904
 21
88.922769145934964
 31
0.0
  0
ARC
  5
A8
  8
0
 10
72.275976337300904
 20
81.92276914593495
 30
0.0
 40
0.5
 50
180.0
 51
270.0
  0
LINE
  5
A9
  8
0
 10
73.775976337300904
 20
96.922769145934964
 30
0.0
 11
71.775976337300904
 21
98.922769145935021
 31
0.0
  0
LINE
  5
AA
  8
0
 10
73.775976337300904
 20
90.922769145934964
 30
0.0
 11
73.775976337300904
 21
96.922769145934964
 31
0.0
  0
LINE
  5
AB
  8
0
 10
71.775976337300904
 20
88.922769145935021
 30
0.0
 11
73.775976337300904
 21
90.922769145934964
 31
0.0
  0
LINE
  5
AC
  8
0
 10
72.275976337300904
 20
106.42276914593489
 30
0.0
 11
103.7759763373008
 21
106.42276914593501
 31
0.0
  0
LINE
  5
AD
  8
0
 10
103.7759763373008
 20
81.422769145934964
 30
0.0
 11
72.275976337300904
 21
81.422769145935021
 31
0.0
  0
LINE
  5
AE
  8
0
 10
81.397296680860563
 20
106.42276914593501
 30
0.0
 11
81.397296680860563
 21
81.422769145934964
 31
0.0
  0
ARC
  5
AF
  8
0
 10
103.7759763373008
 20
103.42276914593489
 30
0.0
 40
3.0000000000000071
 50
0.0
 51
90.000000000000398
  0
ARC
  5
B0
  8
0
 10
103.7759763373008
 20
84.42276914593495
 30
0.0
 40
3.0
 50
270.0
 51
0.0
  0
LINE
  5
B1
  8
0
 10
106.7759763373008
 20
103.42276914593501
 30
0.0
 11
106.7759763373008
 21
84.422769145934964
 31
0.0
  0
LINE
  5
B2
  8
1
 10
34.275976337300847
 20
16.92276914593501
 30
0.0
 11
34.27597633730096
 21
59.922769145935
 31
0.0
  0
LINE
  5
B3
  8
0
 10
42.775976337300897
 20
46.922769145935007
 30
0.0
 11
25.7759763373009
 21
46.922769145935007
 31
0.0
  0
LINE
  5
B4
  8
0
 10
37.275976337300897
 20
23.322769145934959
 30
0.0
 11
31.2759763373009
 21
23.322769145934959
 31
0.0
  0
LINE
  5
B5
  8
0
 10
23.2759763373009
 20
45.32276914593492
 30
0.0
 11
45.275976337300897
 21
45.32276914593492
 31
0.0
  0
ARC
  5
B6
  8
0
 10
45.275976337300897
 20
43.822769145934963
 30
0.0
 40
1.5000000000000071
 50
0.0
 51
90.0
  0
ARC
  5
B7
  8
0
 10
23.2759763373009
 20
43.822769145934963
 30
0.0
 40
1.5000000000000071
 50
90.0
 51
180.0000000000004
  0
LINE
  5
B8
  8
0
 10
46.775976337300897
 20
43.822769145934963
 30
0.0
 11
46.775976337300897
 21
30.822769145934959
 31
0.0
  0
LINE
  5
B9
  8
0
 10
21.77597633730096
 20
30.822769145934959
 30
0.0
 11
21.775976337300911
 21
43.822769145934963
 31
0.0
  0
LINE
  5
BA
  8
0
 10
37.275976337300897
 20
38.322769145934927
 30
0.0
 11
31.2759763373009
 21
38.322769145934927
 31
0.0
  0
LINE
  5
BB
  8
0
 10
39.12952972789418
 20
36.469215755341679
 30
0.0
 11
37.275976337300897
 21
38.322769145934927
 31
0.0
  0
LINE
  5
BC
  8
0
 10
37.27597633730096
 20
30.322769145934959
 30
0.0
 11
37.275976337300897
 21
38.322769145934927
 31
0.0
  0
ARC
  5
BD
  8
0
 10
38.77597633730096
 20
36.115662364748403
 30
0.0
 40
0.4999999999999639
 50
0.0000000000008142
 51
45.00000000000432
  0
LINE
  5
BE
  8
0
 10
39.12952972789418
 20
36.469215755341679
 30
0.0
 11
46.77597633730084
 21
36.469215755341679
 31
0.0
  0
LINE
  5
BF
  8
0
 10
39.275976337300847
 20
30.322769145934959
 30
0.0
 11
39.275976337300911
 21
36.115662364748403
 31
0.0
  0
ARC
  5
C0
  8
0
 10
46.275976337300897
 20
30.822769145934959
 30
0.0
 40
0.5
 50
270.0
 51
0.0
  0
LINE
  5
C1
  8
0
 10
31.2759763373009
 20
38.322769145934927
 30
0.0
 11
29.422422946707631
 21
36.469215755341679
 31
0.0
  0
LINE
  5
C2
  8
0
 10
29.275976337300911
 20
36.115662364748403
 30
0.0
 11
29.275976337300911
 21
30.322769145934959
 31
0.0
  0
LINE
  5
C3
  8
0
 10
31.2759763373009
 20
30.322769145934959
 30
0.0
 11
31.2759763373009
 21
38.322769145934927
 31
0.0
  0
LINE
  5
C4
  8
0
 10
46.275976337300897
 20
30.322769145934959
 30
0.0
 11
22.2759763373009
 21
30.322769145934959
 31
0.0
  0
ARC
  5
C5
  8
0
 10
29.775976337301021
 20
36.115662364748353
 30
0.0
 40
0.5000000000001137
 50
135.00000000000489
 51
180.0000000000004
  0
LINE
  5
C6
  8
0
 10
21.775976337300911
 20
36.469215755341679
 30
0.0
 11
29.422422946707631
 21
36.469215755341679
 31
0.0
  0
ARC
  5
C7
  8
0
 10
22.2759763373009
 20
30.822769145934959
 30
0.0
 40
0.5000000000000071
 50
180.0000000000004
 51
270.0
  0
LINE
  5
C8
  8
0
 10
42.775976337300897
 20
45.322769145935013
 30
0.0
 11
42.775976337300897
 21
46.922769145935007
 31
0.0
  0
LINE
  5
C9
  8
0
 10
25.7759763373009
 20
46.922769145935007
 30
0.0
 11
25.7759763373009
 21
45.322769145935013
 31
0.0
  0
LINE
  5
CA
  8
0
 10
37.275976337300897
 20
23.322769145934959
 30
0.0
 11
37.275976337300897
 21
30.322769145934959
 31
0.0
  0
LINE
  5
CB
  8
0
 10
31.2759763373009
 20
30.322769145934959
 30
0.0
 11
31.2759763373009
 21
23.322769145934959
 31
0.0
  0
INSERT
  5
E5
  8
3
  6
CONTINUOUS
  2
*X0
 10
0.0
 20
0.0
 30
0.0
1001
ACAD
1000
HATCH
1002
{
1070
    19
1000
ANSI31
1040
8.0
1040
0.0
1000
R14_HATCH_DATA
1000
E5
1011
1.0
1021
0.0
1031
0.0
1021
0.0
1031
0.0
1011
0.0
1021
0.0
1031
0.0
1021
1.0
1031
0.0
1011
0.0
1021
0.0
1031
0.0
1021
0.0
1031
1.0
1040
0.0
1010
0.0
1020
0.0
1030
1.0
1000
ANSI31
1070
     0
1070
     0
1071
        2
1071
        1
1071
        6
1070
     1
1040
29.27597633730085
1040
30.322769145934942
1040
22.2759763373009
1040
30.322769145934942
1070
     2
1040
22.2759763373009
1040
30.822769145934942
1040
0.5000000000000071
1040
1.5707963267948959
1040
3.141592653589786
1070
     0
1070
     1
1040
21.77597633730096
1040
30.822769145934942
1040
21.77597633730096
1040
36.469215755341672
1070
     1
1040
21.775976337300911
1040
36.469215755341672
1040
29.422422946707631
1040
36.469215755341672
1070
     2
1040
29.775976337301021
1040
36.115662364748353
1040
0.5000000000001137
1040
2.3561944901924301
1040
3.1415926535898002
1070
     1
1070
     1
1040
29.275976337300911
1040
36.115662364748388
1040
29.275976337300911
1040
30.322769145934942
1071
        0
1071
        1
1071
        6
1070
     1
1040
46.77597633730096
1040
36.469215755341672
1040
46.775976337300897
1040
30.822769145934942
1070
     2
1040
46.275976337300897
1040
30.822769145934942
1040
0.5
1040
6.2831853071795862
1040
7.8539816339744819
1070
     0
1070
     1
1040
46.275976337300897
1040
30.322769145934942
1040
39.275976337300911
1040
30.322769145934942
1070
     1
1040
39.275976337300847
1040
30.322769145934942
1040
39.275976337300911
1040
36.115662364748388
1070
     2
1040
38.77597633730096
1040
36.115662364748403
1040
0.4999999999999639
1040
0.0000000000000142
1040
0.7853981633975237
1070
     1
1070
     1
1040
39.12952972789418
1040
36.469215755341672
1040
46.77597633730084
1040
36.469215755341672
1071
        0
1070
     0
1070
     1
1040
0.0
1040
8.0
1070
     0
1070
     1
1040
0.7853981633974483
1040
-334.16137326641189
1040
-25.704185799498191
1040
-0.7071067811865475
1040
0.7071067811865476
1070
     0
1071
        1
1040
-334.16137326641189
1040
-25.704185799498191
1040
0.0
1002
}
  0
INSERT
  5
E6
  8
3
  6
CONTINUOUS
  2
*X1
 10
0.0
 20
0.0
 30
0.0
1001
ACAD
1000
HATCH
1002
{
1070
    19
1000
ANSI31
1040
8.0
1040
1.5707963267948959
1000
R14_HATCH_DATA
1000
E6
1011
1.0
1021
0.0
1031
0.0
1021
0.0
1031
0.0
1011
0.0
1021
0.0
1031
0.0
1021
1.0
1031
0.0
1011
0.0
1021
0.0
1031
0.0
1021
0.0
1031
1.0
1040
0.0
1010
0.0
1020
0.0
1030
1.0
1000
ANSI31
1070
     0
1070
     0
1071
        2
1071
        1
1071
        6
1070
     1
1040
29.27597633730085
1040
30.322769145934942
1040
22.2759763373009
1040
30.322769145934942
1070
     2
1040
22.2759763373009
1040
30.822769145934942
1040
0.5000000000000071
1040
1.5707963267948959
1040
3.141592653589786
1070
     0
1070
     1
1040
21.77597633730096
1040
30.822769145934942
1040
21.77597633730096
1040
36.469215755341672
1070
     1
1040
21.775976337300911
1040
36.469215755341672
1040
29.422422946707631
1040
36.469215755341672
1070
     2
1040
29.775976337301021
1040
36.115662364748353
1040
0.5000000000001137
1040
2.3561944901924301
1040
3.1415926535898002
1070
     1
1070
     1
1040
29.275976337300911
1040
36.115662364748388
1040
29.275976337300911
1040
30.322769145934942
1071
        0
1071
        1
1071
        6
1070
     1
1040
46.77597633730096
1040
36.469215755341672
1040
46.775976337300897
1040
30.822769145934942
1070
     2
1040
46.275976337300897
1040
30.822769145934942
1040
0.5
1040
6.2831853071795862
1040
7.8539816339744819
1070
     0
1070
     1
1040
46.275976337300897
1040
30.322769145934942
1040
39.275976337300911
1040
30.322769145934942
1070
     1
1040
39.275976337300847
1040
30.322769145934942
1040
39.275976337300911
1040
36.115662364748388
1070
     2
1040
38.77597633730096
1040
36.115662364748403
1040
0.4999999999999639
1040
0.0000000000000142
1040
0.7853981633975237
1070
     1
1070
     1
1040
39.12952972789418
1040
36.469215755341672
1040
46.77597633730084
1040
36.469215755341672
1071
        0
1070
     0
1070
     1
1040
1.5707963267948959
1040
8.0
1070
     0
1070
     1
1040
2.3561944901923439
1040
-334.16137326641189
1040
-25.704185799498191
1040
-0.7071067811865476
1040
-0.7071067811865475
1070
     0
1071
        1
1040
-334.16137326641189
1040
-25.704185799498191
1040
0.0
1002
}
  0
CIRCLE
  5
ED
  8
0
 10
96.275976337301245
 20
93.922769145934978
 30
0.0
 40
4.5
  0
TEXT
  5
1B0
  8
0
 62
     3
 10
0.0
 20
0.0
 30
0.0
 40
10.0
  1
CP106-08015
  7
STANDARD1
  0
ENDSEC
  0
EOF
