  0
SECTION
  2
HEADER
  9
$ACADVER
  1
AC1009
  9
$INSBASE
 10
208.74887396900519
 20
88.427426223619477
 30
0.0
  9
$EXTMIN
 10
0.0
 20
-2.960436562073669
 30
0.0
  9
$EXTMAX
 10
164.08125213130339
 20
117.9492715855671
 30
0.0
  9
$LIMMIN
 10
0.0
 20
0.0
  9
$LIMMAX
 10
375.0
 20
270.0
  9
$ORTHOMODE
 70
     1
  9
$REGENMODE
 70
     1
  9
$FILLMODE
 70
     1
  9
$QTEXTMODE
 70
     0
  9
$MIRRTEXT
 70
     0
  9
$DRAGMODE
 70
     2
  9
$LTSCALE
 40
5.0
  9
$OSMODE
 70
  3071
  9
$ATTMODE
 70
     1
  9
$TEXTSIZE
 40
0.2
  9
$TRACEWID
 40
0.05
  9
$TEXTSTYLE
  7
STANDARD
  9
$CLAYER
  8
0
  9
$CELTYPE
  6
BYLAYER
  9
$CECOLOR
 62
   256
  9
$DIMSCALE
 40
1.0
  9
$DIMASZ
 40
3.0
  9
$DIMEXO
 40
2.0
  9
$DIMDLI
 40
0.38
  9
$DIMRND
 40
0.0
  9
$DIMDLE
 40
0.0
  9
$DIMEXE
 40
2.0
  9
$DIMTP
 40
0.0
  9
$DIMTM
 40
0.0
  9
$DIMTXT
 40
3.2000000000000002
  9
$DIMCEN
 40
0.0
  9
$DIMTSZ
 40
0.0
  9
$DIMTOL
 70
     0
  9
$DIMLIM
 70
     0
  9
$DIMTIH
 70
     0
  9
$DIMTOH
 70
     0
  9
$DIMSE1
 70
     0
  9
$DIMSE2
 70
     0
  9
$DIMTAD
 70
     1
  9
$DIMZIN
 70
     0
  9
$DIMBLK
  1

  9
$DIMASO
 70
     0
  9
$DIMSHO
 70
     0
  9
$DIMPOST
  1

  9
$DIMAPOST
  1

  9
$DIMALT
 70
     0
  9
$DIMALTD
 70
     2
  9
$DIMALTF
 40
25.399999999999999
  9
$DIMLFAC
 40
1.0
  9
$DIMTOFL
 70
     1
  9
$DIMTVP
 40
1.6000000000000001
  9
$DIMTIX
 70
     1
  9
$DIMSOXD
 70
     0
  9
$DIMSAH
 70
     0
  9
$DIMBLK1
  1

  9
$DIMBLK2
  1

  9
$DIMSTYLE
  2
STANDARD
  9
$DIMCLRD
 70
     0
  9
$DIMCLRE
 70
     0
  9
$DIMCLRT
 70
     0
  9
$DIMTFAC
 40
1.0
  9
$DIMGAP
 40
0.09
  9
$LUNITS
 70
     2
  9
$LUPREC
 70
     4
  9
$SKETCHINC
 40
0.1
  9
$FILLETRAD
 40
0.0
  9
$AUNITS
 70
     0
  9
$AUPREC
 70
     4
  9
$MENU
  1
E:\r13\win\SUPPORT\ACAD
  9
$ELEVATION
 40
0.0
  9
$PELEVATION
 40
0.0
  9
$THICKNESS
 40
0.0
  9
$LIMCHECK
 70
     0
  9
$BLIPMODE
 70
     0
  9
$CHAMFERA
 40
0.0
  9
$CHAMFERB
 40
0.0
  9
$SKPOLY
 70
     0
  9
$TDCREATE
 40
2449840.6513888892
  9
$TDUPDATE
 40
2456598.4966444098
  9
$TDINDWG
 40
0.4186359491
  9
$TDUSRTIMER
 40
0.4186359491
  9
$USRTIMER
 70
     1
  9
$ANGBASE
 50
0.0
  9
$ANGDIR
 70
     0
  9
$PDMODE
 70
     0
  9
$PDSIZE
 40
0.0
  9
$PLINEWID
 40
0.0
  9
$COORDS
 70
     1
  9
$SPLFRAME
 70
     0
  9
$SPLINETYPE
 70
     6
  9
$SPLINESEGS
 70
     8
  9
$ATTDIA
 70
     0
  9
$ATTREQ
 70
     1
  9
$HANDLING
 70
     1
  9
$HANDSEED
  5
2B0
  9
$SURFTAB1
 70
     6
  9
$SURFTAB2
 70
     6
  9
$SURFTYPE
 70
     6
  9
$SURFU
 70
     6
  9
$SURFV
 70
     6
  9
$UCSNAME
  2

  9
$UCSORG
 10
0.0
 20
0.0
 30
0.0
  9
$UCSXDIR
 10
1.0
 20
0.0
 30
0.0
  9
$UCSYDIR
 10
0.0
 20
1.0
 30
0.0
  9
$PUCSNAME
  2

  9
$PUCSORG
 10
0.0
 20
0.0
 30
0.0
  9
$PUCSXDIR
 10
1.0
 20
0.0
 30
0.0
  9
$PUCSYDIR
 10
0.0
 20
1.0
 30
0.0
  9
$USERI1
 70
     0
  9
$USERI2
 70
     1
  9
$USERI3
 70
     0
  9
$USERI4
 70
     0
  9
$USERI5
 70
     0
  9
$USERR1
 40
0.0
  9
$USERR2
 40
0.0
  9
$USERR3
 40
0.0
  9
$USERR4
 40
0.0
  9
$USERR5
 40
0.0
  9
$WORLDVIEW
 70
     1
  9
$SHADEDGE
 70
     3
  9
$SHADEDIF
 70
    70
  9
$TILEMODE
 70
     1
  9
$MAXACTVP
 70
    16
  9
$PLIMCHECK
 70
     0
  9
$PEXTMIN
 10
1.0000000000000000E+020
 20
1.0000000000000000E+020
 30
1.0000000000000000E+020
  9
$PEXTMAX
 10
-1.0000000000000000E+020
 20
-1.0000000000000000E+020
 30
-1.0000000000000000E+020
  9
$PLIMMIN
 10
0.0
 20
0.0
  9
$PLIMMAX
 10
12.0
 20
9.0
  9
$UNITMODE
 70
     0
  9
$VISRETAIN
 70
     0
  9
$PLINEGEN
 70
     0
  9
$PSLTSCALE
 70
     0
  0
ENDSEC
  0
SECTION
  2
TABLES
  0
TABLE
  2
VPORT
 70
     1
  0
VPORT
  2
*ACTIVE
 70
     0
 10
0.0
 20
0.0
 11
1.0
 21
1.0
 12
195.0581083320873
 22
133.5127261426681
 13
0.0
 23
0.0
 14
5.0
 24
5.0
 15
10.0
 25
10.0
 16
0.0
 26
0.0
 36
1.0
 17
0.0
 27
0.0
 37
0.0
 40
275.42274993631997
 41
1.831871345029239
 42
50.0
 43
0.0
 44
0.0
 50
0.0
 51
0.0
 71
     0
 72
   500
 73
     1
 74
     0
 75
     0
 76
     0
 77
     0
 78
     2
  0
ENDTAB
  0
TABLE
  2
LTYPE
 70
     4
  0
LTYPE
  2
CONTINUOUS
 70
     0
  3
Solid Line
 72
    65
 73
     0
 40
0.0
  0
LTYPE
  2
CENTER
 70
     0
  3
____ _ ____ _ ____ _ ____ _ ____ _ ____ _ ____
 72
    65
 73
     4
 40
2.0
 49
1.25
 49
-0.25
 49
0.25
 49
-0.25
  0
LTYPE
  2
HIDDEN
 70
     0
  3
_ _ _ _ _ _ _ _ _ _ _ _ _ _ _ _ _ _ _ _ _ _ _
 72
    65
 73
     2
 40
0.375
 49
0.25
 49
-0.125
  0
LTYPE
  2
PHANTOM2
 70
     0
  3
Phantom (.5x) ___ _ _ ___ _ _ ___ _ _ ___ _ _
 72
    65
 73
     6
 40
1.25
 49
0.625
 49
-0.125
 49
0.125
 49
-0.125
 49
0.125
 49
-0.125
  0
ENDTAB
  0
TABLE
  2
LAYER
 70
     5
  0
LAYER
  2
0
 70
     0
 62
     7
  6
CONTINUOUS
  0
LAYER
  2
1
 70
     0
 62
     1
  6
CENTER
  0
LAYER
  2
2
 70
     0
 62
     2
  6
HIDDEN
  0
LAYER
  2
5
 70
     0
 62
     3
  6
PHANTOM2
  0
LAYER
  2
3
 70
     0
 62
     3
  6
CONTINUOUS
  0
ENDTAB
  0
TABLE
  2
STYLE
 70
     2
  0
STYLE
  2
STANDARD
 70
     0
 40
0.0
 41
1.0
 50
0.0
 71
     0
 42
0.2
  3
TXT
  4
BIGFONT
  0
STYLE
  2
STANDARD1
 70
     0
 40
0.0
 41
1.0
 50
0.0
 71
     0
 42
3.0
  3
txt
  4

  0
ENDTAB
  0
TABLE
  2
VIEW
 70
     1
  0
VIEW
  2
ALL
 70
     0
 40
270.0
 10
220.99159663865549
 20
135.0
 41
0.0
 11
0.0
 21
0.0
 31
1.0
 12
0.0
 22
0.0
 32
0.0
 42
0.0
 43
0.0
 44
0.0
 50
0.0
 71
     0
  0
ENDTAB
  0
TABLE
  2
UCS
 70
     0
  0
ENDTAB
  0
TABLE
  2
APPID
 70
     3
  0
APPID
  2
ACAD
 70
     0
  0
APPID
  2
ACAD_MLEADERVER
 70
     0
  0
APPID
  2
ACAD_NAV_VCDISPLAY
 70
     0
  0
ENDTAB
  0
TABLE
  2
DIMSTYLE
 70
     1
  0
DIMSTYLE
  2
STANDARD
 70
     0
  3

  4

  5

  6

  7

 40
1.0
 41
0.18
 42
0.0625
 43
0.38
 44
0.18
 45
0.0
 46
0.0
 47
0.0
 48
0.0
140
0.18
141
0.09
142
0.0
143
25.399999999999999
144
1.0
145
0.0
146
1.0
147
0.09
 71
     0
 72
     0
 73
     1
 74
     1
 75
     0
 76
     0
 77
     0
 78
     0
170
     0
171
     2
172
     0
173
     0
174
     0
175
     0
176
     0
177
     0
178
     0
  0
ENDTAB
  0
ENDSEC
  0
SECTION
  2
BLOCKS
  0
BLOCK
  8
0
  2
$MODEL_SPACE
 70
     0
 10
0.0
 20
0.0
 30
0.0
  3
$MODEL_SPACE
  1

  0
ENDBLK
  5
9
  8
0
  0
BLOCK
 67
     1
  8
0
  2
$PAPER_SPACE
 70
     0
 10
0.0
 20
0.0
 30
0.0
  3
$PAPER_SPACE
  1

  0
ENDBLK
  5
F
 67
     1
  8
0
  0
BLOCK
  8
0
  2
*X0
 70
     1
 10
0.0
 20
0.0
 30
0.0
  3
*X0
  1

  0
LINE
  5
21D
  8
0
 62
     0
 10
57.081252131303522
 20
63.40609555303007
 30
0.0
 11
56.638076098766483
 21
63.849271585567102
 31
0.0
  0
LINE
  5
21E
  8
0
 62
     0
 10
57.08125213130355
 20
61.991881990656999
 30
0.0
 11
55.223862536393419
 21
63.849271585567116
 31
0.0
  0
LINE
  5
21F
  8
0
 62
     0
 10
57.081252131303529
 20
60.577668428283907
 30
0.0
 11
53.80964897402032
 21
63.849271585567116
 31
0.0
  0
LINE
  5
220
  8
0
 62
     0
 10
57.081252131303522
 20
59.163454865910801
 30
0.0
 11
52.395435411647199
 21
63.849271585567131
 31
0.0
  0
LINE
  5
221
  8
0
 62
     0
 10
57.081252131303522
 20
57.749241303537701
 30
0.0
 11
50.981221849274121
 21
63.849271585567109
 31
0.0
  0
LINE
  5
222
  8
0
 62
     0
 10
57.081252131303508
 20
56.335027741164602
 30
0.0
 11
49.581252131303579
 21
63.835027741164538
 31
0.0
  0
LINE
  5
223
  8
0
 62
     0
 10
57.081252131303543
 20
54.920814178791531
 30
0.0
 11
49.581252131303593
 21
62.420814178791467
 31
0.0
  0
LINE
  5
224
  8
0
 62
     0
 10
57.081252131303529
 20
53.506600616418432
 30
0.0
 11
49.581252131303593
 21
61.006600616418368
 31
0.0
  0
LINE
  5
225
  8
0
 62
     0
 10
57.081252131303522
 20
52.092387054045332
 30
0.0
 11
49.581252131303579
 21
59.592387054045261
 31
0.0
  0
LINE
  5
226
  8
0
 62
     0
 10
57.081252131303508
 20
50.678173491672233
 30
0.0
 11
49.581252131303579
 21
58.178173491672169
 31
0.0
  0
LINE
  5
227
  8
0
 62
     0
 10
57.081252131303508
 20
49.263959929299148
 30
0.0
 11
49.581252131303579
 21
56.763959929299091
 31
0.0
  0
LINE
  5
228
  8
0
 62
     0
 10
57.081252131303543
 20
47.849746366926048
 30
0.0
 11
49.581252131303593
 21
55.349746366925999
 31
0.0
  0
LINE
  5
229
  8
0
 62
     0
 10
57.081252131303529
 20
46.435532804552963
 30
0.0
 11
49.581252131303593
 21
53.935532804552892
 31
0.0
  0
LINE
  5
22A
  8
0
 62
     0
 10
39.581252131303529
 20
62.521319242179857
 30
0.0
 11
38.253299787916248
 21
63.849271585567131
 31
0.0
  0
LINE
  5
22B
  8
0
 62
     0
 10
57.081252131303522
 20
45.021319242179857
 30
0.0
 11
49.581252131303593
 21
52.521319242179779
 31
0.0
  0
LINE
  5
22C
  8
0
 62
     0
 10
39.581252131303508
 20
61.10710567980675
 30
0.0
 11
36.839086225543149
 21
63.849271585567116
 31
0.0
  0
LINE
  5
22D
  8
0
 62
     0
 10
57.081252131303508
 20
43.60710567980675
 30
0.0
 11
49.581252131303579
 21
51.107105679806679
 31
0.0
  0
LINE
  5
22E
  8
0
 62
     0
 10
39.581252131303508
 20
59.692892117433693
 30
0.0
 11
35.424872663170049
 21
63.849271585567152
 31
0.0
  0
LINE
  5
22F
  8
0
 62
     0
 10
57.081252131303501
 20
42.192892117433693
 30
0.0
 11
49.581252131303579
 21
49.692892117433622
 31
0.0
  0
LINE
  5
230
  8
0
 62
     0
 10
39.581252131303543
 20
58.27867855506058
 30
0.0
 11
34.010659100796993
 21
63.849271585567131
 31
0.0
  0
LINE
  5
231
  8
0
 62
     0
 10
57.010659100796978
 20
40.849271585567131
 30
0.0
 11
49.581252131303607
 21
48.278678555060509
 31
0.0
  0
LINE
  5
232
  8
0
 62
     0
 10
39.581252131303529
 20
56.864464992687481
 30
0.0
 11
32.596445538423893
 21
63.849271585567116
 31
0.0
  0
LINE
  5
233
  8
0
 62
     0
 10
55.596445538423907
 20
40.849271585567102
 30
0.0
 11
49.5812521313036
 21
46.86446499268741
 31
0.0
  0
LINE
  5
234
  8
0
 62
     0
 10
39.581252131303522
 20
55.450251430314381
 30
0.0
 11
32.081252131303508
 21
62.950251430314388
 31
0.0
  0
LINE
  5
235
  8
0
 62
     0
 10
54.182231976050787
 20
40.849271585567116
 30
0.0
 11
49.581252131303593
 21
45.45025143031431
 31
0.0
  0
LINE
  5
236
  8
0
 62
     0
 10
39.581252131303508
 20
54.036037867941282
 30
0.0
 11
32.081252131303508
 21
61.536037867941282
 31
0.0
  0
LINE
  5
237
  8
0
 62
     0
 10
52.768018413677687
 20
40.849271585567109
 30
0.0
 11
49.581252131303579
 21
44.036037867941197
 31
0.0
  0
LINE
  5
238
  8
0
 62
     0
 10
39.581252131303508
 20
52.621824305568211
 30
0.0
 11
32.081252131303501
 21
60.121824305568218
 31
0.0
  0
LINE
  5
239
  8
0
 62
     0
 10
51.353804851304602
 20
40.849271585567116
 30
0.0
 11
49.581252131303579
 21
42.621824305568133
 31
0.0
  0
LINE
  5
23A
  8
0
 62
     0
 10
39.581252131303543
 20
51.207610743195097
 30
0.0
 11
32.081252131303529
 21
58.707610743195119
 31
0.0
  0
LINE
  5
23B
  8
0
 62
     0
 10
49.93959128893151
 20
40.849271585567131
 30
0.0
 11
49.581252131303607
 21
41.207610743195033
 31
0.0
  0
LINE
  5
23C
  8
0
 62
     0
 10
39.581252131303529
 20
49.793397180822012
 30
0.0
 11
32.081252131303529
 21
57.293397180822012
 31
0.0
  0
LINE
  5
23D
  8
0
 62
     0
 10
39.581252131303522
 20
48.379183618448913
 30
0.0
 11
32.081252131303508
 21
55.879183618448913
 31
0.0
  0
LINE
  5
23E
  8
0
 62
     0
 10
39.581252131303508
 20
46.964970056075813
 30
0.0
 11
32.081252131303508
 21
54.464970056075813
 31
0.0
  0
LINE
  5
23F
  8
0
 62
     0
 10
39.581252131303508
 20
45.550756493702728
 30
0.0
 11
32.081252131303508
 21
53.050756493702728
 31
0.0
  0
LINE
  5
240
  8
0
 62
     0
 10
39.581252131303522
 20
44.136542931329643
 30
0.0
 11
32.081252131303543
 21
51.636542931329629
 31
0.0
  0
LINE
  5
241
  8
0
 62
     0
 10
39.581252131303529
 20
42.72232936895653
 30
0.0
 11
32.081252131303529
 21
50.22232936895653
 31
0.0
  0
LINE
  5
242
  8
0
 62
     0
 10
39.581252131303508
 20
41.308115806583437
 30
0.0
 11
32.081252131303522
 21
48.80811580658343
 31
0.0
  0
LINE
  5
243
  8
0
 62
     0
 10
38.625882789946743
 20
40.849271585567109
 30
0.0
 11
32.081252131303508
 21
47.393902244210331
 31
0.0
  0
LINE
  5
244
  8
0
 62
     0
 10
37.211669227573637
 20
40.849271585567131
 30
0.0
 11
32.081252131303522
 21
45.979688681837239
 31
0.0
  0
LINE
  5
245
  8
0
 62
     0
 10
35.797455665200573
 20
40.849271585567116
 30
0.0
 11
32.081252131303543
 21
44.565475119464153
 31
0.0
  0
LINE
  5
246
  8
0
 62
     0
 10
34.38324210282746
 20
40.849271585567116
 30
0.0
 11
32.081252131303529
 21
43.151261557091047
 31
0.0
  0
LINE
  5
247
  8
0
 62
     0
 10
32.96902854045436
 20
40.849271585567116
 30
0.0
 11
32.081252131303543
 21
41.737047994717948
 31
0.0
  0
ENDBLK
  5
249
  8
0
  0
BLOCK
  8
0
  2
*X1
 70
     1
 10
0.0
 20
0.0
 30
0.0
  3
*X1
  1

  0
LINE
  5
24B
  8
0
 62
     0
 10
56.921642720517681
 20
40.849271585567116
 30
0.0
 11
57.08125213130355
 21
41.008880996352978
 31
0.0
  0
LINE
  5
24C
  8
0
 62
     0
 10
55.507429158144589
 20
40.849271585567116
 30
0.0
 11
57.081252131303529
 21
42.423094558726092
 31
0.0
  0
LINE
  5
24D
  8
0
 62
     0
 10
54.093215595771483
 20
40.849271585567116
 30
0.0
 11
57.081252131303529
 21
43.837308121099163
 31
0.0
  0
LINE
  5
24E
  8
0
 62
     0
 10
52.679002033398383
 20
40.849271585567109
 30
0.0
 11
57.081252131303529
 21
45.251521683472262
 31
0.0
  0
LINE
  5
24F
  8
0
 62
     0
 10
51.264788471025291
 20
40.849271585567116
 30
0.0
 11
57.08125213130355
 21
46.665735245845347
 31
0.0
  0
LINE
  5
250
  8
0
 62
     0
 10
49.850574908652199
 20
40.849271585567116
 30
0.0
 11
57.08125213130355
 21
48.079948808218461
 31
0.0
  0
LINE
  5
251
  8
0
 62
     0
 10
49.581252131303579
 20
41.994162370591617
 30
0.0
 11
57.081252131303529
 21
49.494162370591532
 31
0.0
  0
LINE
  5
252
  8
0
 62
     0
 10
49.581252131303579
 20
43.408375932964702
 30
0.0
 11
57.081252131303529
 21
50.908375932964638
 31
0.0
  0
LINE
  5
253
  8
0
 62
     0
 10
49.581252131303579
 20
44.822589495337787
 30
0.0
 11
57.081252131303529
 21
52.322589495337738
 31
0.0
  0
LINE
  5
254
  8
0
 62
     0
 10
49.5812521313036
 20
46.23680305771088
 30
0.0
 11
57.08125213130355
 21
53.73680305771083
 31
0.0
  0
LINE
  5
255
  8
0
 62
     0
 10
49.5812521313036
 20
47.651016620083993
 30
0.0
 11
57.08125213130355
 21
55.151016620083936
 31
0.0
  0
LINE
  5
256
  8
0
 62
     0
 10
49.581252131303579
 20
49.0652301824571
 30
0.0
 11
57.081252131303529
 21
56.565230182457007
 31
0.0
  0
LINE
  5
257
  8
0
 62
     0
 10
49.581252131303579
 20
50.479443744830178
 30
0.0
 11
57.081252131303529
 21
57.979443744830121
 31
0.0
  0
LINE
  5
258
  8
0
 62
     0
 10
49.581252131303579
 20
51.89365730720327
 30
0.0
 11
57.081252131303501
 21
59.393657307203178
 31
0.0
  0
LINE
  5
259
  8
0
 62
     0
 10
38.536866409667418
 20
40.849271585567109
 30
0.0
 11
39.581252131303529
 21
41.893657307203213
 31
0.0
  0
LINE
  5
25A
  8
0
 62
     0
 10
49.581252131303572
 20
53.307870869576327
 30
0.0
 11
57.081252131303508
 21
60.80787086957627
 31
0.0
  0
LINE
  5
25B
  8
0
 62
     0
 10
37.122652847294333
 20
40.849271585567116
 30
0.0
 11
39.581252131303508
 21
43.30787086957627
 31
0.0
  0
LINE
  5
25C
  8
0
 62
     0
 10
49.5812521313036
 20
54.722084431949469
 30
0.0
 11
57.08125213130355
 21
62.222084431949412
 31
0.0
  0
LINE
  5
25D
  8
0
 62
     0
 10
35.708439284921262
 20
40.849271585567116
 30
0.0
 11
39.581252131303508
 21
44.722084431949412
 31
0.0
  0
LINE
  5
25E
  8
0
 62
     0
 10
49.581252131303579
 20
56.136297994322568
 30
0.0
 11
57.081252131303529
 21
63.63629799432249
 31
0.0
  0
LINE
  5
25F
  8
0
 62
     0
 10
34.29422572254817
 20
40.849271585567116
 30
0.0
 11
39.581252131303529
 21
46.136297994322483
 31
0.0
  0
LINE
  5
260
  8
0
 62
     0
 10
49.581252131303579
 20
57.55051155669566
 30
0.0
 11
55.880012160175063
 21
63.849271585567116
 31
0.0
  0
LINE
  5
261
  8
0
 62
     0
 10
32.880012160175063
 20
40.849271585567116
 30
0.0
 11
39.581252131303529
 21
47.550511556695589
 31
0.0
  0
LINE
  5
262
  8
0
 62
     0
 10
49.58125213130355
 20
58.96472511906871
 30
0.0
 11
54.46579859780195
 21
63.849271585567109
 31
0.0
  0
LINE
  5
263
  8
0
 62
     0
 10
32.081252131303529
 20
41.464725119068689
 30
0.0
 11
39.581252131303529
 21
48.964725119068689
 31
0.0
  0
LINE
  5
264
  8
0
 62
     0
 10
49.581252131303572
 20
60.378938681441802
 30
0.0
 11
53.051585035428879
 21
63.849271585567116
 31
0.0
  0
LINE
  5
265
  8
0
 62
     0
 10
32.08125213130355
 20
42.878938681441781
 30
0.0
 11
39.581252131303508
 21
50.378938681441753
 31
0.0
  0
LINE
  5
266
  8
0
 62
     0
 10
49.581252131303579
 20
61.793152243814909
 30
0.0
 11
51.637371473055786
 21
63.849271585567116
 31
0.0
  0
LINE
  5
267
  8
0
 62
     0
 10
32.081252131303529
 20
44.293152243814887
 30
0.0
 11
39.581252131303529
 21
51.793152243814887
 31
0.0
  0
LINE
  5
268
  8
0
 62
     0
 10
49.581252131303579
 20
63.207365806188022
 30
0.0
 11
50.223157910682687
 21
63.849271585567116
 31
0.0
  0
LINE
  5
269
  8
0
 62
     0
 10
32.081252131303529
 20
45.707365806187958
 30
0.0
 11
39.581252131303529
 21
53.207365806187958
 31
0.0
  0
LINE
  5
26A
  8
0
 62
     0
 10
32.081252131303529
 20
47.121579368561072
 30
0.0
 11
39.581252131303529
 21
54.621579368561072
 31
0.0
  0
LINE
  5
26B
  8
0
 62
     0
 10
32.081252131303529
 20
48.535792930934157
 30
0.0
 11
39.581252131303529
 21
56.035792930934157
 31
0.0
  0
LINE
  5
26C
  8
0
 62
     0
 10
32.08125213130355
 20
49.950006493307257
 30
0.0
 11
39.581252131303508
 21
57.450006493307228
 31
0.0
  0
LINE
  5
26D
  8
0
 62
     0
 10
32.081252131303529
 20
51.364220055680363
 30
0.0
 11
39.581252131303529
 21
58.864220055680327
 31
0.0
  0
LINE
  5
26E
  8
0
 62
     0
 10
32.081252131303529
 20
52.778433618053441
 30
0.0
 11
39.581252131303529
 21
60.278433618053441
 31
0.0
  0
LINE
  5
26F
  8
0
 62
     0
 10
32.081252131303529
 20
54.19264718042654
 30
0.0
 11
39.581252131303529
 21
61.69264718042654
 31
0.0
  0
LINE
  5
270
  8
0
 62
     0
 10
32.081252131303529
 20
55.606860742799633
 30
0.0
 11
39.581252131303501
 21
63.106860742799611
 31
0.0
  0
LINE
  5
271
  8
0
 62
     0
 10
32.08125213130355
 20
57.021074305172739
 30
0.0
 11
38.909449411697942
 21
63.849271585567131
 31
0.0
  0
LINE
  5
272
  8
0
 62
     0
 10
32.081252131303508
 20
58.435287867545838
 30
0.0
 11
37.495235849324828
 21
63.849271585567116
 31
0.0
  0
LINE
  5
273
  8
0
 62
     0
 10
32.081252131303529
 20
59.849501429918909
 30
0.0
 11
36.081022286951743
 21
63.849271585567116
 31
0.0
  0
LINE
  5
274
  8
0
 62
     0
 10
32.081252131303529
 20
61.263714992292023
 30
0.0
 11
34.66680872457863
 21
63.849271585567116
 31
0.0
  0
LINE
  5
275
  8
0
 62
     0
 10
32.081252131303529
 20
62.677928554665108
 30
0.0
 11
33.252595162205523
 21
63.849271585567109
 31
0.0
  0
ENDBLK
  5
277
  8
0
  0
ENDSEC
  0
SECTION
  2
ENTITIES
  0
POLYLINE
  5
27
  8
0
  6
CONTINUOUS
 62
     7
 66
     1
 10
0.0
 20
0.0
 30
0.0
 70
   128
  0
VERTEX
  5
1F7
  8
0
  6
CONTINUOUS
 62
     7
 10
160.08125217396929
 20
56.801490492657251
 30
0.0
  0
VERTEX
  5
1F8
  8
0
  6
CONTINUOUS
 62
     7
 10
160.2916774783933
 20
56.501197134478211
 30
0.0
  0
VERTEX
  5
1F9
  8
0
  6
CONTINUOUS
 62
     7
 10
160.50646374716399
 20
56.090161641461968
 30
0.0
  0
VERTEX
  5
1FA
  8
0
  6
CONTINUOUS
 62
     7
 10
160.58125174387331
 20
55.763319571836121
 30
0.0
  0
SEQEND
  5
1FB
  8
0
  6
CONTINUOUS
 62
     7
  0
POLYLINE
  5
28
  8
0
  6
CONTINUOUS
 62
     7
 66
     1
 10
0.0
 20
0.0
 30
0.0
 70
   128
  0
VERTEX
  5
1FC
  8
0
  6
CONTINUOUS
 62
     7
 10
143.19089643583521
 20
56.949271585567118
 30
0.0
  0
VERTEX
  5
1FD
  8
0
  6
CONTINUOUS
 62
     7
 10
143.3793615062439
 20
57.193212648256008
 30
0.0
  0
VERTEX
  5
1FE
  8
0
  6
CONTINUOUS
 62
     7
 10
143.7910708111429
 20
57.665214379651729
 30
0.0
  0
VERTEX
  5
1FF
  8
0
  6
CONTINUOUS
 62
     7
 10
144.27049518345831
 20
58.165116672737781
 30
0.0
  0
VERTEX
  5
200
  8
0
  6
CONTINUOUS
 62
     7
 10
144.90456706627251
 20
58.770586242301647
 30
0.0
  0
VERTEX
  5
201
  8
0
  6
CONTINUOUS
 62
     7
 10
145.6187424693907
 20
59.390515526158993
 30
0.0
  0
VERTEX
  5
202
  8
0
  6
CONTINUOUS
 62
     7
 10
146.40682111277229
 20
60.006240819914517
 30
0.0
  0
VERTEX
  5
203
  8
0
  6
CONTINUOUS
 62
     7
 10
147.13671351565961
 20
60.515400459392247
 30
0.0
  0
VERTEX
  5
204
  8
0
  6
CONTINUOUS
 62
     7
 10
147.92549647173831
 20
60.99354333184499
 30
0.0
  0
VERTEX
  5
205
  8
0
  6
CONTINUOUS
 62
     7
 10
148.77213272049079
 20
61.416827579362582
 30
0.0
  0
VERTEX
  5
206
  8
0
  6
CONTINUOUS
 62
     7
 10
149.65858300930799
 20
61.752245267255489
 30
0.0
  0
VERTEX
  5
207
  8
0
  6
CONTINUOUS
 62
     7
 10
150.59644276990539
 20
61.976807629091923
 30
0.0
  0
VERTEX
  5
208
  8
0
  6
CONTINUOUS
 62
     7
 10
151.24881316225029
 20
62.047014450056743
 30
0.0
  0
VERTEX
  5
209
  8
0
  6
CONTINUOUS
 62
     7
 10
151.9094381285085
 20
62.047249143345539
 30
0.0
  0
VERTEX
  5
20A
  8
0
  6
CONTINUOUS
 62
     7
 10
152.56187612905151
 20
61.977491219861633
 30
0.0
  0
VERTEX
  5
20B
  8
0
  6
CONTINUOUS
 62
     7
 10
153.38363034899331
 20
61.788883497340798
 30
0.0
  0
VERTEX
  5
20C
  8
0
  6
CONTINUOUS
 62
     7
 10
154.16702641888509
 20
61.512280692680001
 30
0.0
  0
VERTEX
  5
20D
  8
0
  6
CONTINUOUS
 62
     7
 10
155.03332474983279
 20
61.104307388289101
 30
0.0
  0
VERTEX
  5
20E
  8
0
  6
CONTINUOUS
 62
     7
 10
155.84088922261239
 20
60.634302412493348
 30
0.0
  0
VERTEX
  5
20F
  8
0
  6
CONTINUOUS
 62
     7
 10
156.5881065536941
 20
60.128339072091698
 30
0.0
  0
VERTEX
  5
210
  8
0
  6
CONTINUOUS
 62
     7
 10
157.52212530716309
 20
59.40901718042624
 30
0.0
  0
VERTEX
  5
211
  8
0
  6
CONTINUOUS
 62
     7
 10
158.3546843823695
 20
58.682473813517213
 30
0.0
  0
VERTEX
  5
212
  8
0
  6
CONTINUOUS
 62
     7
 10
159.0754996497833
 20
57.97880000375045
 30
0.0
  0
VERTEX
  5
213
  8
0
  6
CONTINUOUS
 62
     7
 10
159.57018187983871
 20
57.443485101087212
 30
0.0
  0
VERTEX
  5
214
  8
0
  6
CONTINUOUS
 62
     7
 10
159.9798352901542
 20
56.946220313532471
 30
0.0
  0
SEQEND
  5
215
  8
0
  6
CONTINUOUS
 62
     7
  0
LINE
  5
29
  8
0
 10
143.08125166936799
 20
55.34927125029099
 30
0.0
 11
143.08125213130359
 21
56.949271585567082
 31
0.0
  0
LINE
  5
2A
  8
5
 10
145.08125213130359
 20
56.949271585567153
 30
0.0
 11
145.08125213130359
 21
64.449271585567146
 31
0.0
  0
LINE
  5
2D
  8
5
 10
145.08125213130359
 20
64.449271585567146
 30
0.0
 11
145.94727753508801
 21
64.949271585567146
 31
0.0
  0
LINE
  5
2E
  8
5
 10
158.08125213130359
 20
64.449271585567146
 30
0.0
 11
157.21522672751919
 21
64.949271585567146
 31
0.0
  0
LINE
  5
2F
  8
5
 10
145.08125213130359
 20
64.449271585567146
 30
0.0
 11
158.08125213130359
 21
64.449271585567146
 31
0.0
  0
LINE
  5
30
  8
5
 10
145.94727753508801
 20
64.949271585567146
 30
0.0
 11
157.21522672751919
 21
64.949271585567146
 31
0.0
  0
LINE
  5
31
  8
5
 10
158.08125213130359
 20
64.449271585567146
 30
0.0
 11
158.08125213130359
 21
56.949271585567153
 31
0.0
  0
LINE
  5
32
  8
0
 10
160.0812521313035
 20
56.949271585567082
 30
0.0
 11
143.08125213130359
 21
56.949271585567118
 31
0.0
  0
LINE
  5
33
  8
0
 10
160.0812525932391
 20
55.34927125029099
 30
0.0
 11
160.0812521313035
 21
56.949271585567082
 31
0.0
  0
ARC
  5
34
  8
0
  6
CONTINUOUS
 62
     7
 10
162.5812521313033
 20
53.849271585567116
 30
0.0
 40
1.5
 50
0.0
 51
89.999999999996746
  0
LINE
  5
35
  8
0
  6
CONTINUOUS
 62
     7
 10
160.5812521313035
 20
55.763319439752308
 30
0.0
 11
160.58125213130339
 21
55.349271585567116
 31
0.0
  0
ARC
  5
36
  8
0
  6
CONTINUOUS
 62
     7
 10
140.5812521313033
 20
53.849271585567237
 30
0.0
 40
1.5
 50
90.0
 51
180.0
  0
LINE
  5
37
  8
0
  6
CONTINUOUS
 62
     7
 10
140.58125213130339
 20
55.34927158556723
 30
0.0
 11
162.5812521313033
 21
55.349271585566377
 31
0.0
  0
POLYLINE
  5
38
  8
0
  6
CONTINUOUS
 62
     7
 66
     1
 10
0.0
 20
0.0
 30
0.0
 70
   128
  0
VERTEX
  5
216
  8
0
  6
CONTINUOUS
 62
     7
 10
142.58125251873369
 20
55.763319571836178
 30
0.0
  0
VERTEX
  5
217
  8
0
  6
CONTINUOUS
 62
     7
 10
142.63585037334801
 20
56.035591726525013
 30
0.0
  0
VERTEX
  5
218
  8
0
  6
CONTINUOUS
 62
     7
 10
142.7934115265214
 20
56.370918144805607
 30
0.0
  0
VERTEX
  5
219
  8
0
  6
CONTINUOUS
 62
     7
 10
143.0445836369598
 20
56.759890606029217
 30
0.0
  0
VERTEX
  5
21A
  8
0
  6
CONTINUOUS
 62
     7
 10
143.08125209033031
 20
56.807352671349634
 30
0.0
  0
SEQEND
  5
21B
  8
0
  6
CONTINUOUS
 62
     7
  0
LINE
  5
39
  8
0
  6
CONTINUOUS
 62
     7
 10
142.58125213130339
 20
55.34927158556718
 30
0.0
 11
142.5812521313035
 21
55.763319439752372
 31
0.0
  0
LINE
  5
3A
  8
0
 10
154.58125213130339
 20
40.349271585567116
 30
0.0
 11
154.58125213130339
 21
33.349271585567109
 31
0.0
  0
LINE
  5
3B
  8
0
 10
148.58125213130339
 20
33.349271585567109
 30
0.0
 11
148.58125213130339
 21
40.349271585567116
 31
0.0
  0
LINE
  5
3C
  8
0
 10
162.5812521313035
 20
65.349271585567124
 30
0.0
 11
140.5812521313035
 21
65.349271585567124
 31
0.0
  0
LINE
  5
3D
  8
0
 10
139.08125213130339
 20
63.849271585567116
 30
0.0
 11
139.08125213130339
 21
40.849271585567116
 31
0.0
  0
LINE
  5
3E
  8
0
 10
139.5812521313035
 20
40.349271585567116
 30
0.0
 11
163.5812521313035
 21
40.349271585567116
 31
0.0
  0
LINE
  5
3F
  8
0
 10
164.08125213130339
 20
40.849271585567116
 30
0.0
 11
164.08125213130339
 21
63.849271585567102
 31
0.0
  0
ARC
  5
40
  8
0
 10
163.5812521313035
 20
40.849271585567116
 30
0.0
 40
0.5
 50
270.0
 51
359.9999999999996
  0
ARC
  5
41
  8
0
 10
139.5812521313035
 20
40.849271585567116
 30
0.0
 40
0.5
 50
180.0
 51
270.0
  0
ARC
  5
42
  8
0
 10
140.58125213130339
 20
63.849271585567116
 30
0.0
 40
1.4999999999999849
 50
90.0
 51
180.0
  0
ARC
  5
43
  8
0
 10
162.5812521313035
 20
63.849271585567102
 30
0.0
 40
1.5
 50
359.9999999999996
 51
90.0
  0
LINE
  5
44
  8
0
 10
148.58125213130339
 20
33.349271585567109
 30
0.0
 11
154.58125213130339
 21
33.349271585567109
 31
0.0
  0
LINE
  5
45
  8
1
 10
151.5812521313035
 20
26.94927158556715
 30
0.0
 11
151.5812521313035
 21
70.349271585567095
 31
0.0
  0
LINE
  5
48
  8
5
 10
148.78125213130329
 20
31.94927158556715
 30
0.0
 11
154.38125213130331
 21
31.94927158556715
 31
0.0
  0
LINE
  5
49
  8
5
 10
148.25775213130319
 20
40.349271585567116
 30
0.0
 11
148.25775213130319
 21
32.472771585567223
 31
0.0
  0
LINE
  5
4A
  8
5
 10
147.5812521313033
 20
40.349271585567116
 30
0.0
 11
147.58125213130319
 21
33.149271585567121
 31
0.0
  0
LINE
  5
4B
  8
5
 10
147.5812521313033
 20
33.149271585567128
 30
0.0
 11
148.78125213130329
 21
31.94927158556715
 31
0.0
  0
LINE
  5
4C
  8
5
 10
147.5812521313033
 20
33.149271585567078
 30
0.0
 11
155.5812521313033
 21
33.149271585567192
 31
0.0
  0
LINE
  5
4D
  8
5
 10
155.58125213130319
 20
40.349271585567116
 30
0.0
 11
155.5812521313033
 21
33.149271585567242
 31
0.0
  0
LINE
  5
4E
  8
5
 10
154.90475213130341
 20
40.349271585567116
 30
0.0
 11
154.90475213130341
 21
32.472771585567223
 31
0.0
  0
LINE
  5
4F
  8
5
 10
154.38125213130331
 20
31.94927158556715
 30
0.0
 11
155.5812521313033
 21
33.149271585567192
 31
0.0
  0
LINE
  5
50
  8
1
 10
103.581252131304
 20
116.4492715855671
 30
0.0
 11
103.581252131304
 21
94.449271585567118
 31
0.0
  0
ARC
  5
51
  8
0
 10
100.5812521313035
 20
105.4492715855671
 30
0.0
 40
9.0
 50
89.999999999999986
 51
270.0
  0
CIRCLE
  5
52
  8
0
 10
103.581252131304
 20
105.4492715855671
 30
0.0
 40
4.5
  0
CIRCLE
  5
53
  8
0
 10
103.581252131304
 20
105.4492715855671
 30
0.0
 40
8.5
  0
INSERT
  5
54
  8
3
  6
CONTINUOUS
  2
*X0
 10
0.0
 20
0.0
 30
0.0
1001
ACAD
1000
HATCH
1002
{
1070
    19
1000
ANSI31
1040
8.0
1040
1.5707963267948959
1000
R14_HATCH_DATA
1000
54
1011
1.0
1021
0.0
1031
0.0
1021
0.0
1031
0.0
1011
0.0
1021
0.0
1031
0.0
1021
1.0
1031
0.0
1011
0.0
1021
0.0
1031
0.0
1021
0.0
1031
1.0
1040
0.0
1010
0.0
1020
0.0
1030
1.0
1000
ANSI31
1070
     0
1070
     0
1071
        2
1071
        1
1071
        4
1070
     1
1040
49.581252131303579
1040
40.849271585567116
1040
49.581252131303579
1040
63.849271585567116
1070
     1
1040
49.581252131303579
1040
63.849271585567116
1040
57.081252131303579
1040
63.849271585567116
1070
     1
1040
57.081252131303529
1040
63.849271585567116
1040
57.081252131303529
1040
40.849271585567116
1070
     1
1040
57.081252131303529
1040
40.849271585567116
1040
49.581252131303529
1040
40.849271585567116
1071
        0
1071
        1
1071
        4
1070
     1
1040
39.581252131303529
1040
63.849271585567116
1040
32.081252131303557
1040
63.849271585567116
1070
     1
1040
32.081252131303529
1040
63.849271585567102
1040
32.081252131303529
1040
40.849271585567116
1070
     1
1040
32.081252131303529
1040
40.849271585567116
1040
39.581252131303529
1040
40.849271585567116
1070
     1
1040
39.581252131303529
1040
40.849271585567116
1040
39.581252131303529
1040
63.849271585567116
1071
        0
1070
     0
1070
     1
1040
1.5707963267948959
1040
8.0
1070
     0
1070
     1
1040
2.3561944901923439
1040
-143.85217494632221
1040
-59.51538315278296
1040
-0.7071067811865476
1040
-0.7071067811865475
1070
     0
1071
        1
1040
-143.85217494632221
1040
-59.51538315278296
1040
0.0
1002
}
  0
INSERT
  5
56
  8
3
  6
CONTINUOUS
  2
*X1
 10
0.0
 20
0.0
 30
0.0
1001
ACAD
1000
HATCH
1002
{
1070
    19
1000
ANSI31
1040
8.0
1040
0.0
1000
R14_HATCH_DATA
1000
56
1011
1.0
1021
0.0
1031
0.0
1021
0.0
1031
0.0
1011
0.0
1021
0.0
1031
0.0
1021
1.0
1031
0.0
1011
0.0
1021
0.0
1031
0.0
1021
0.0
1031
1.0
1040
0.0
1010
0.0
1020
0.0
1030
1.0
1000
ANSI31
1070
     0
1070
     0
1071
        2
1071
        1
1071
        4
1070
     1
1040
49.581252131303579
1040
40.849271585567116
1040
49.581252131303579
1040
63.849271585567116
1070
     1
1040
49.581252131303579
1040
63.849271585567116
1040
57.081252131303579
1040
63.849271585567116
1070
     1
1040
57.081252131303529
1040
63.849271585567116
1040
57.081252131303529
1040
40.849271585567116
1070
     1
1040
57.081252131303529
1040
40.849271585567116
1040
49.581252131303529
1040
40.849271585567116
1071
        0
1071
        1
1071
        4
1070
     1
1040
39.581252131303529
1040
63.849271585567116
1040
32.081252131303557
1040
63.849271585567116
1070
     1
1040
32.081252131303529
1040
63.849271585567102
1040
32.081252131303529
1040
40.849271585567116
1070
     1
1040
32.081252131303529
1040
40.849271585567116
1040
39.581252131303529
1040
40.849271585567116
1070
     1
1040
39.581252131303529
1040
40.849271585567116
1040
39.581252131303529
1040
63.849271585567116
1071
        0
1070
     0
1070
     1
1040
0.0
1040
8.0
1070
     0
1070
     1
1040
0.7853981633974483
1040
-143.85217494632221
1040
-59.51538315278296
1040
-0.7071067811865475
1040
0.7071067811865476
1070
     0
1071
        1
1040
-143.85217494632221
1040
-59.51538315278296
1040
0.0
1002
}
  0
LINE
  5
57
  8
5
 10
41.781252131303681
 20
31.94927158556715
 30
0.0
 11
40.581252131303692
 21
33.149271585567192
 31
0.0
  0
LINE
  5
58
  8
5
 10
41.257752131303619
 20
40.349271585567116
 30
0.0
 11
41.257752131303619
 21
32.472771585567223
 31
0.0
  0
LINE
  5
59
  8
5
 10
40.581252131303749
 20
40.349271585567116
 30
0.0
 11
40.581252131303692
 21
33.149271585567242
 31
0.0
  0
LINE
  5
5A
  8
5
 10
48.5812521313037
 20
33.149271585567078
 30
0.0
 11
40.581252131303692
 21
33.149271585567192
 31
0.0
  0
LINE
  5
5B
  8
5
 10
48.5812521313037
 20
33.149271585567128
 30
0.0
 11
47.381252131303647
 21
31.94927158556715
 31
0.0
  0
LINE
  5
5C
  8
5
 10
48.5812521313037
 20
40.349271585567116
 30
0.0
 11
48.581252131303749
 21
33.149271585567121
 31
0.0
  0
LINE
  5
5D
  8
5
 10
47.904752131303781
 20
40.349271585567116
 30
0.0
 11
47.904752131303781
 21
32.472771585567223
 31
0.0
  0
LINE
  5
5E
  8
5
 10
47.381252131303647
 20
31.94927158556715
 30
0.0
 11
41.781252131303681
 21
31.94927158556715
 31
0.0
  0
LINE
  5
5F
  8
0
 10
39.581252131303529
 20
40.849271585567116
 30
0.0
 11
32.081252131303529
 21
40.849271585567116
 31
0.0
  0
LINE
  5
60
  8
5
 10
107.5812521313035
 20
36.149271585567107
 30
0.0
 11
99.581252131303529
 21
36.14927158556722
 31
0.0
  0
LINE
  5
61
  8
5
 10
100.7812521313035
 20
34.949271585567182
 30
0.0
 11
99.581252131303529
 21
36.14927158556722
 31
0.0
  0
LINE
  5
62
  8
5
 10
107.5812521313035
 20
36.149271585567163
 30
0.0
 11
106.3812521313035
 21
34.949271585567182
 31
0.0
  0
LINE
  5
63
  8
5
 10
107.5812521313035
 20
40.349271585567116
 30
0.0
 11
107.5812521313036
 21
36.149271585567149
 31
0.0
  0
LINE
  5
64
  8
5
 10
106.9047521313036
 20
40.349271585567116
 30
0.0
 11
106.9047521313036
 21
35.472771585567237
 31
0.0
  0
LINE
  5
65
  8
5
 10
100.25775213130341
 20
40.349271585567116
 30
0.0
 11
100.25775213130341
 21
35.472771585567237
 31
0.0
  0
LINE
  5
66
  8
5
 10
99.581252131303586
 20
40.349271585567116
 30
0.0
 11
99.581252131303529
 21
36.14927158556727
 31
0.0
  0
LINE
  5
67
  8
5
 10
106.3812521313035
 20
34.949271585567182
 30
0.0
 11
100.7812521313035
 21
34.949271585567182
 31
0.0
  0
LINE
  5
68
  8
5
 10
97.081252131303586
 20
67.449271585567175
 30
0.0
 11
97.947277535087935
 21
67.949271585567175
 31
0.0
  0
LINE
  5
69
  8
5
 10
110.0812521313035
 20
67.449271585567175
 30
0.0
 11
109.2152267275191
 21
67.949271585567175
 31
0.0
  0
LINE
  5
6A
  8
5
 10
97.081252131303529
 20
67.449271585567175
 30
0.0
 11
110.0812521313035
 21
67.449271585567175
 31
0.0
  0
LINE
  5
6B
  8
5
 10
97.947277535087935
 20
67.949271585567175
 30
0.0
 11
109.2152267275191
 21
67.949271585567175
 31
0.0
  0
LINE
  5
6C
  8
5
 10
97.081252131303529
 20
62.168931698067752
 30
0.0
 11
97.081252131303529
 21
67.449271585567175
 31
0.0
  0
LINE
  5
6D
  8
5
 10
110.0812521313035
 20
67.449271585567175
 30
0.0
 11
110.0812521313035
 21
59.949271585567168
 31
0.0
  0
LINE
  5
6E
  8
5
 10
110.0812521313035
 20
64.449271585567146
 30
0.0
 11
110.0812521313035
 21
56.949271585567153
 31
0.0
  0
LINE
  5
6F
  8
5
 10
97.081252131303529
 20
56.949271585567153
 30
0.0
 11
97.081252131303529
 21
64.449271585567146
 31
0.0
  0
LINE
  5
70
  8
5
 10
97.947277535087935
 20
64.949271585567146
 30
0.0
 11
109.2152267275191
 21
64.949271585567146
 31
0.0
  0
LINE
  5
71
  8
5
 10
97.081252131303529
 20
64.449271585567146
 30
0.0
 11
110.0812521313035
 21
64.449271585567146
 31
0.0
  0
LINE
  5
72
  8
5
 10
110.0812521313035
 20
64.449271585567146
 30
0.0
 11
109.2152267275191
 21
64.949271585567146
 31
0.0
  0
LINE
  5
73
  8
5
 10
97.081252131303586
 20
64.449271585567146
 30
0.0
 11
97.947277535087935
 21
64.949271585567146
 31
0.0
  0
LINE
  5
74
  8
5
 10
106.3812521313035
 20
31.94927158556715
 30
0.0
 11
100.7812521313035
 21
31.94927158556715
 31
0.0
  0
LINE
  5
75
  8
5
 10
99.581252131303586
 20
40.349271585567116
 30
0.0
 11
99.581252131303529
 21
33.149271585567242
 31
0.0
  0
LINE
  5
76
  8
5
 10
100.25775213130341
 20
40.349271585567116
 30
0.0
 11
100.25775213130341
 21
32.472771585567223
 31
0.0
  0
LINE
  5
77
  8
5
 10
106.9047521313036
 20
40.349271585567116
 30
0.0
 11
106.9047521313036
 21
32.472771585567223
 31
0.0
  0
LINE
  5
78
  8
5
 10
107.5812521313035
 20
40.349271585567116
 30
0.0
 11
107.5812521313036
 21
33.149271585567121
 31
0.0
  0
LINE
  5
79
  8
5
 10
107.5812521313035
 20
33.149271585567128
 30
0.0
 11
106.3812521313035
 21
31.94927158556715
 31
0.0
  0
LINE
  5
7A
  8
5
 10
100.7812521313035
 20
31.94927158556715
 30
0.0
 11
99.581252131303529
 21
33.149271585567192
 31
0.0
  0
LINE
  5
7B
  8
5
 10
107.5812521313035
 20
33.149271585567078
 30
0.0
 11
99.581252131303529
 21
33.149271585567192
 31
0.0
  0
LINE
  5
7C
  8
5
 10
112.0812521313034
 20
59.949271585567139
 30
0.0
 11
100.340332312762
 21
59.949271585567139
 31
0.0
  0
LINE
  5
7D
  8
5
 10
116.581252131303
 20
43.349271585567116
 30
0.0
 11
85.581252131303003
 21
43.349271585567116
 31
0.0
  0
LINE
  5
7E
  8
5
 10
85.081252131303017
 20
43.849271585567116
 30
0.0
 11
85.081252131303017
 21
66.849271585567124
 31
0.0
  0
ARC
  5
7F
  8
5
 10
85.581252131303003
 20
43.849271585567116
 30
0.0
 40
0.5
 50
180.0000000000004
 51
270.0
  0
ARC
  5
80
  8
5
 10
86.581252131302946
 20
66.84927158556718
 30
0.0
 40
1.4999999999999569
 50
89.999999999998366
 51
180.0000000000004
  0
LINE
  5
81
  8
5
 10
86.581252131303017
 20
68.349271585567124
 30
0.0
 11
91.915501243199913
 21
68.349271585567124
 31
0.0
  0
ARC
  5
82
  8
5
 10
91.915501243199913
 20
66.849271585567124
 30
0.0
 40
1.5000000000000031
 50
23.199843182906289
 51
90.0
  0
ARC
  5
83
  8
5
 10
107.081252131303
 20
73.349271585567152
 30
0.0
 40
15.0
 50
203.1998431829075
 51
270.0
  0
LINE
  5
84
  8
2
 10
110.34381526422651
 20
51.58670845264362
 30
0.0
 11
107.34381526422661
 21
48.58670845264367
 31
0.0
  0
ARC
  5
87
  8
2
 10
111.5812521313029
 20
50.349271585567116
 30
0.0
 40
1.750000000000014
 50
315.00000000000063
 51
134.99999999999841
  0
LINE
  5
88
  8
2
 10
109.8186889983794
 20
46.111834718490741
 30
0.0
 11
112.8186889983794
 21
49.111834718490677
 31
0.0
  0
ARC
  5
89
  8
2
 10
108.581252131303
 20
47.349271585567209
 30
0.0
 40
1.7500000000000031
 50
134.99999999999849
 51
315.00000000000023
  0
LINE
  5
8A
  8
5
 10
107.081252131303
 20
58.349271585567131
 30
0.0
 11
115.581252131303
 21
58.349271585567152
 31
0.0
  0
LINE
  5
8B
  8
5
 10
117.081252131303
 20
56.849271585567152
 30
0.0
 11
117.081252131303
 21
43.849271585567116
 31
0.0
  0
LINE
  5
8C
  8
5
 10
114.081252131303
 20
43.349271585567116
 30
0.0
 11
114.0812521313029
 21
58.349271585567152
 31
0.0
  0
ARC
  5
8D
  8
5
 10
116.581252131303
 20
43.849271585567116
 30
0.0
 40
0.5
 50
270.0
 51
0.0
  0
ARC
  5
8E
  8
5
 10
115.581252131303
 20
56.849271585567152
 30
0.0
 40
1.5
 50
0.0
 51
90.0
  0
LINE
  5
8F
  8
5
 10
112.0812521313034
 20
58.349271585567131
 30
0.0
 11
112.0812521313034
 21
59.949271585567139
 31
0.0
  0
LINE
  5
90
  8
1
 10
93.581252131303074
 20
28.349271585567109
 30
0.0
 11
93.581252131303074
 21
45.349271585567116
 31
0.0
  0
LINE
  5
91
  8
1
 10
103.5812521313033
 20
26.94927158556715
 30
0.0
 11
103.5812521313034
 21
72.949271585567118
 31
0.0
  0
CIRCLE
  5
92
  8
0
 10
108.581252131303
 20
47.349271585567067
 30
0.0
 40
1.5
  0
LINE
  5
93
  8
0
 10
112.0812521313034
 20
56.949271585567082
 30
0.0
 11
97.34033231276193
 21
56.949271585567082
 31
0.0
  0
LINE
  5
94
  8
0
 10
96.581252131303074
 20
33.349271585567109
 30
0.0
 11
90.581252131303074
 21
33.349271585567109
 31
0.0
  0
LINE
  5
95
  8
0
 10
113.581252131303
 20
40.349271585567116
 30
0.0
 11
82.581252131303017
 21
40.349271585567116
 31
0.0
  0
ARC
  5
96
  8
0
 10
82.581252131303017
 20
40.849271585567116
 30
0.0
 40
0.5
 50
180.0000000000004
 51
270.0
  0
LINE
  5
97
  8
0
 10
82.081252131303003
 20
40.849271585567116
 30
0.0
 11
82.081252131303003
 21
63.849271585567102
 31
0.0
  0
ARC
  5
98
  8
0
 10
83.581253470997126
 20
63.849269888245139
 30
0.0
 40
1.5000020698512579
 50
90.000034097024795
 51
180.0000000000004
  0
ARC
  5
99
  8
0
 10
88.915501243199913
 20
63.849271585567102
 30
0.0
 40
1.5000000000000091
 50
23.199843182907308
 51
90.0
  0
LINE
  5
9A
  8
0
 10
83.581252578337853
 20
65.349271958096153
 30
0.0
 11
88.915501243199913
 21
65.349271585567095
 31
0.0
  0
ARC
  5
9B
  8
0
 10
104.081252131303
 20
70.349271585567095
 30
0.0
 40
15.0
 50
203.1998431829077
 51
270.0
  0
LINE
  5
9C
  8
0
 10
107.34381526422661
 20
48.586708452643563
 30
0.0
 11
104.34381526422661
 21
45.586708452643649
 31
0.0
  0
ARC
  5
9D
  8
0
 10
108.581252131303
 20
47.349271585567088
 30
0.0
 40
1.750000000000024
 50
314.9999999999979
 51
135.0
  0
LINE
  5
9E
  8
0
 10
106.8186889983794
 20
43.111834718490677
 30
0.0
 11
109.8186889983794
 21
46.11183471849062
 31
0.0
  0
ARC
  5
9F
  8
0
 10
105.581252131303
 20
44.34927158556718
 30
0.0
 40
1.750000000000014
 50
134.9999999999981
 51
315.00000000000028
  0
LINE
  5
A0
  8
0
 10
104.081252131303
 20
55.349271585567116
 30
0.0
 11
112.581252131303
 21
55.349271585567116
 31
0.0
  0
LINE
  5
A1
  8
0
 10
111.0812521313013
 20
55.349271585567116
 30
0.0
 11
111.081252131303
 21
40.349271585567116
 31
0.0
  0
ARC
  5
A2
  8
0
 10
113.581252131303
 20
40.849271585567116
 30
0.0
 40
0.5
 50
270.0
 51
0.0
  0
LINE
  5
A3
  8
0
 10
114.081252131303
 20
53.849271585567102
 30
0.0
 11
114.081252131303
 21
40.849271585567116
 31
0.0
  0
ARC
  5
A4
  8
0
 10
112.581252131303
 20
53.849271585567102
 30
0.0
 40
1.500000000000014
 50
0.0
 51
90.0
  0
LINE
  5
A5
  8
0
 10
112.081252593239
 20
55.34927125029099
 30
0.0
 11
112.0812521313034
 21
56.949271585567082
 31
0.0
  0
LINE
  5
A6
  8
0
 10
96.581252131303074
 20
33.349271585567109
 30
0.0
 11
96.581251915236237
 21
40.349271585567116
 31
0.0
  0
LINE
  5
A7
  8
0
 10
90.581251863082173
 20
40.349271585567116
 30
0.0
 11
90.581252131303074
 21
33.349271585567109
 31
0.0
  0
LINE
  5
A8
  8
1
 10
119.0812521313035
 20
105.4492715855671
 30
0.0
 11
77.081252131303529
 21
105.449271585567
 31
0.0
  0
LINE
  5
A9
  8
0
 10
102.1022321855291
 20
101.1992715855671
 30
0.0
 11
103.5812521313035
 21
101.1992715855671
 31
0.0
  0
LINE
  5
AA
  8
0
 10
103.5812521313036
 20
109.6992715855671
 30
0.0
 11
102.1022321855291
 21
109.6992715855671
 31
0.0
  0
ARC
  5
AB
  8
0
 10
103.5812521313036
 20
105.4492715855671
 30
0.0
 40
4.2500000000000071
 50
270.0000000000008
 51
90.000000000000398
  0
ARC
  5
AC
  8
0
 10
111.0812521313035
 20
114.9492715855671
 30
0.0
 40
3.0
 50
0.0
 51
90.000000000000398
  0
LINE
  5
AD
  8
0
 10
114.0812521313036
 20
114.9492715855671
 30
0.0
 11
114.0812521313035
 21
95.949271585567118
 31
0.0
  0
ARC
  5
AE
  8
0
 10
111.0812521313035
 20
95.949271585567089
 30
0.0
 40
3.0000000000000071
 50
270.0
 51
0.0
  0
LINE
  5
AF
  8
0
 10
104.0812521313036
 20
96.449271585567104
 30
0.0
 11
100.5812521313036
 21
96.449271585567104
 31
0.0
  0
LINE
  5
B0
  8
0
 10
100.5812521313036
 20
114.4492715855671
 30
0.0
 11
104.0812521313036
 21
114.4492715855671
 31
0.0
  0
LINE
  5
B1
  8
0
 10
104.0812521313036
 20
117.9492715855671
 30
0.0
 11
104.0812521313036
 21
114.4492715855671
 31
0.0
  0
LINE
  5
B2
  8
0
 10
104.0812521313036
 20
92.949271585567075
 30
0.0
 11
104.0812521313036
 21
96.449271585567146
 31
0.0
  0
ARC
  5
B3
  8
0
 10
82.581252131303529
 20
117.4492715855671
 30
0.0
 40
0.5
 50
90.000000000000398
 51
180.0
  0
LINE
  5
B4
  8
0
 10
83.581252131303529
 20
108.9492715855671
 30
0.0
 11
82.081252131303529
 21
110.4492715855671
 31
0.0
  0
LINE
  5
B5
  8
0
 10
82.081252131303529
 20
110.4492715855671
 30
0.0
 11
82.081252131303529
 21
117.4492715855671
 31
0.0
  0
ARC
  5
B6
  8
0
 10
82.581252131303529
 20
93.449271585567118
 30
0.0
 40
0.5
 50
180.0
 51
270.0
  0
LINE
  5
B7
  8
0
 10
82.081252131303529
 20
100.4492715855671
 30
0.0
 11
83.581252131303529
 21
101.9492715855671
 31
0.0
  0
LINE
  5
B8
  8
0
 10
82.081252131303529
 20
93.449271585567118
 30
0.0
 11
82.081252131303529
 21
100.4492715855671
 31
0.0
  0
LINE
  5
B9
  8
0
 10
82.581252131303529
 20
117.9492715855671
 30
0.0
 11
111.0812521313036
 21
117.9492715855671
 31
0.0
  0
LINE
  5
BA
  8
0
 10
83.581252131303529
 20
101.9492715855671
 30
0.0
 11
84.081252131303515
 21
102.4492715855671
 31
0.0
  0
LINE
  5
BB
  8
0
 10
83.581252131303529
 20
101.9492715855671
 30
0.0
 11
83.581252131303529
 21
92.949271585567118
 31
0.0
  0
LINE
  5
BC
  8
0
 10
83.581252131303586
 20
117.9492715855671
 30
0.0
 11
83.581252131303529
 21
108.9492715855671
 31
0.0
  0
LINE
  5
BD
  8
0
 10
84.081252131303515
 20
108.4492715855671
 30
0.0
 11
83.581252131303529
 21
108.9492715855671
 31
0.0
  0
LINE
  5
BE
  8
0
 10
84.081252131303515
 20
102.4492715855671
 30
0.0
 11
84.081252131303515
 21
108.4492715855671
 31
0.0
  0
LINE
  5
BF
  8
0
 10
111.0812521313035
 20
92.949271585567118
 30
0.0
 11
82.581252131303529
 21
92.949271585567118
 31
0.0
  0
LINE
  5
C0
  8
0
 10
90.294205869391647
 20
117.9492715855671
 30
0.0
 11
90.294205869391647
 21
92.949271585567118
 31
0.0
  0
LINE
  5
C1
  8
1
 10
44.581252131303501
 20
26.94927158556715
 30
0.0
 11
44.581252131303501
 21
70.349271585567095
 31
0.0
  0
LINE
  5
C2
  8
0
 10
47.581252131303529
 20
33.349271585567109
 30
0.0
 11
41.581252131303529
 21
33.349271585567109
 31
0.0
  0
ARC
  5
C3
  8
0
 10
33.581252131303529
 20
63.849271585567102
 30
0.0
 40
1.5
 50
90.0
 51
180.0000000000004
  0
ARC
  5
C4
  8
0
 10
55.581252131303593
 20
63.849271585567116
 30
0.0
 40
1.4999999999999849
 50
0.0
 51
90.0
  0
ARC
  5
C5
  8
0
 10
56.581252131303529
 20
40.849271585567116
 30
0.0
 40
0.5
 50
270.0
 51
0.0
  0
ARC
  5
C6
  8
0
 10
32.581252131303529
 20
40.849271585567116
 30
0.0
 40
0.5
 50
180.0000000000004
 51
270.0
  0
LINE
  5
C7
  8
0
 10
32.081252131303529
 20
40.849271585567116
 30
0.0
 11
32.081252131303529
 21
63.849271585567102
 31
0.0
  0
LINE
  5
C8
  8
0
 10
56.581252131303529
 20
40.349271585567116
 30
0.0
 11
32.581252131303529
 21
40.349271585567116
 31
0.0
  0
LINE
  5
C9
  8
0
 10
57.081252131303529
 20
63.849271585567116
 30
0.0
 11
57.081252131303529
 21
40.849271585567116
 31
0.0
  0
LINE
  5
CA
  8
0
 10
57.081252131303529
 20
40.849271585567116
 30
0.0
 11
49.581252131303529
 21
40.849271585567116
 31
0.0
  0
LINE
  5
CB
  8
0
 10
33.581252131303529
 20
65.349271585567124
 30
0.0
 11
55.581252131303522
 21
65.349271585567124
 31
0.0
  0
ARC
  5
CC
  8
0
 10
41.081252131303522
 20
63.849271585567116
 30
0.0
 40
1.499999999999978
 50
89.999999999998366
 51
180.0000000000004
  0
LINE
  5
CD
  8
0
 10
41.581252131303494
 20
40.349271585567116
 30
0.0
 11
41.581252131303529
 21
65.349271585567124
 31
0.0
  0
LINE
  5
CE
  8
0
 10
39.581252131303529
 20
40.349271585567116
 30
0.0
 11
39.581252131303529
 21
63.849271585567116
 31
0.0
  0
LINE
  5
CF
  8
0
 10
39.581252131303529
 20
63.849271585567116
 30
0.0
 11
32.081252131303557
 21
63.849271585567116
 31
0.0
  0
LINE
  5
D0
  8
0
 10
57.081252131303529
 20
63.849271585567116
 30
0.0
 11
49.581252131303579
 21
63.849271585567116
 31
0.0
  0
LINE
  5
D1
  8
0
 10
49.581252131303579
 20
40.349271585567116
 30
0.0
 11
49.581252131303579
 21
63.849271585567116
 31
0.0
  0
ARC
  5
D2
  8
0
 10
48.081252131303522
 20
63.84927158556706
 30
0.0
 40
1.500000000000028
 50
0.0
 51
90.0
  0
LINE
  5
D3
  8
0
 10
47.581252131303472
 20
40.349271585567116
 30
0.0
 11
47.581252131303529
 21
65.349271585567124
 31
0.0
  0
LINE
  5
D4
  8
0
 10
47.581252131303529
 20
33.349271585567109
 30
0.0
 11
47.581252131303529
 21
40.349271585567116
 31
0.0
  0
LINE
  5
D5
  8
0
 10
41.581252131303529
 20
40.349271585567116
 30
0.0
 11
41.581252131303529
 21
33.349271585567109
 31
0.0
  0
LINE
  5
E2
  8
0
 10
88.91550124319987
 20
92.949271585567118
 30
0.0
 11
88.915501243199856
 21
117.9492715855671
 31
0.0
  0
TEXT
  5
19F
  8
0
 62
     3
 10
0.0
 20
0.0
 30
0.0
 40
10.0
  1
CP107-08015
  7
STANDARD1
  0
ENDSEC
  0
EOF
