  0
SECTION
  2
HEADER
  9
$ACADVER
  1
AC1009
  9
$INSBASE
 10
208.74887396900519
 20
88.427426223619477
 30
0.0
  9
$EXTMIN
 10
0.0
 20
-2.960436562073669
 30
0.0
  9
$EXTMAX
 10
274.44755877254403
 20
196.3761421964561
 30
0.0
  9
$LIMMIN
 10
0.0
 20
0.0
  9
$LIMMAX
 10
375.0
 20
270.0
  9
$ORTHOMODE
 70
     1
  9
$REGENMODE
 70
     1
  9
$FILLMODE
 70
     1
  9
$QTEXTMODE
 70
     0
  9
$MIRRTEXT
 70
     0
  9
$DRAGMODE
 70
     2
  9
$LTSCALE
 40
5.0
  9
$OSMODE
 70
  3071
  9
$ATTMODE
 70
     1
  9
$TEXTSIZE
 40
0.2
  9
$TRACEWID
 40
0.05
  9
$TEXTSTYLE
  7
STANDARD
  9
$CLAYER
  8
0
  9
$CELTYPE
  6
BYLAYER
  9
$CECOLOR
 62
   256
  9
$DIMSCALE
 40
1.0
  9
$DIMASZ
 40
3.0
  9
$DIMEXO
 40
2.0
  9
$DIMDLI
 40
0.38
  9
$DIMRND
 40
0.0
  9
$DIMDLE
 40
0.0
  9
$DIMEXE
 40
2.0
  9
$DIMTP
 40
0.0
  9
$DIMTM
 40
0.0
  9
$DIMTXT
 40
3.2000000000000002
  9
$DIMCEN
 40
0.0
  9
$DIMTSZ
 40
0.0
  9
$DIMTOL
 70
     0
  9
$DIMLIM
 70
     0
  9
$DIMTIH
 70
     0
  9
$DIMTOH
 70
     0
  9
$DIMSE1
 70
     0
  9
$DIMSE2
 70
     0
  9
$DIMTAD
 70
     1
  9
$DIMZIN
 70
     0
  9
$DIMBLK
  1

  9
$DIMASO
 70
     0
  9
$DIMSHO
 70
     0
  9
$DIMPOST
  1

  9
$DIMAPOST
  1

  9
$DIMALT
 70
     0
  9
$DIMALTD
 70
     2
  9
$DIMALTF
 40
25.399999999999999
  9
$DIMLFAC
 40
1.0
  9
$DIMTOFL
 70
     1
  9
$DIMTVP
 40
1.6000000000000001
  9
$DIMTIX
 70
     1
  9
$DIMSOXD
 70
     0
  9
$DIMSAH
 70
     0
  9
$DIMBLK1
  1

  9
$DIMBLK2
  1

  9
$DIMSTYLE
  2
STANDARD
  9
$DIMCLRD
 70
     0
  9
$DIMCLRE
 70
     0
  9
$DIMCLRT
 70
     0
  9
$DIMTFAC
 40
1.0
  9
$DIMGAP
 40
0.09
  9
$LUNITS
 70
     2
  9
$LUPREC
 70
     4
  9
$SKETCHINC
 40
0.1
  9
$FILLETRAD
 40
0.0
  9
$AUNITS
 70
     0
  9
$AUPREC
 70
     4
  9
$MENU
  1
E:\r13\win\SUPPORT\ACAD
  9
$ELEVATION
 40
0.0
  9
$PELEVATION
 40
0.0
  9
$THICKNESS
 40
0.0
  9
$LIMCHECK
 70
     0
  9
$BLIPMODE
 70
     0
  9
$CHAMFERA
 40
0.0
  9
$CHAMFERB
 40
0.0
  9
$SKPOLY
 70
     0
  9
$TDCREATE
 40
2449840.6513888892
  9
$TDUPDATE
 40
2456598.4967390168
  9
$TDINDWG
 40
0.4215122685
  9
$TDUSRTIMER
 40
0.4215122685
  9
$USRTIMER
 70
     1
  9
$ANGBASE
 50
0.0
  9
$ANGDIR
 70
     0
  9
$PDMODE
 70
     0
  9
$PDSIZE
 40
0.0
  9
$PLINEWID
 40
0.0
  9
$COORDS
 70
     1
  9
$SPLFRAME
 70
     0
  9
$SPLINETYPE
 70
     6
  9
$SPLINESEGS
 70
     8
  9
$ATTDIA
 70
     0
  9
$ATTREQ
 70
     1
  9
$HANDLING
 70
     1
  9
$HANDSEED
  5
49C
  9
$SURFTAB1
 70
     6
  9
$SURFTAB2
 70
     6
  9
$SURFTYPE
 70
     6
  9
$SURFU
 70
     6
  9
$SURFV
 70
     6
  9
$UCSNAME
  2

  9
$UCSORG
 10
0.0
 20
0.0
 30
0.0
  9
$UCSXDIR
 10
1.0
 20
0.0
 30
0.0
  9
$UCSYDIR
 10
0.0
 20
1.0
 30
0.0
  9
$PUCSNAME
  2

  9
$PUCSORG
 10
0.0
 20
0.0
 30
0.0
  9
$PUCSXDIR
 10
1.0
 20
0.0
 30
0.0
  9
$PUCSYDIR
 10
0.0
 20
1.0
 30
0.0
  9
$USERI1
 70
     0
  9
$USERI2
 70
     1
  9
$USERI3
 70
     0
  9
$USERI4
 70
     0
  9
$USERI5
 70
     0
  9
$USERR1
 40
0.0
  9
$USERR2
 40
0.0
  9
$USERR3
 40
0.0
  9
$USERR4
 40
0.0
  9
$USERR5
 40
0.0
  9
$WORLDVIEW
 70
     1
  9
$SHADEDGE
 70
     3
  9
$SHADEDIF
 70
    70
  9
$TILEMODE
 70
     1
  9
$MAXACTVP
 70
    16
  9
$PLIMCHECK
 70
     0
  9
$PEXTMIN
 10
1.0000000000000000E+020
 20
1.0000000000000000E+020
 30
1.0000000000000000E+020
  9
$PEXTMAX
 10
-1.0000000000000000E+020
 20
-1.0000000000000000E+020
 30
-1.0000000000000000E+020
  9
$PLIMMIN
 10
0.0
 20
0.0
  9
$PLIMMAX
 10
12.0
 20
9.0
  9
$UNITMODE
 70
     0
  9
$VISRETAIN
 70
     0
  9
$PLINEGEN
 70
     0
  9
$PSLTSCALE
 70
     0
  0
ENDSEC
  0
SECTION
  2
TABLES
  0
TABLE
  2
VPORT
 70
     1
  0
VPORT
  2
*ACTIVE
 70
     0
 10
0.0
 20
0.0
 11
1.0
 21
1.0
 12
195.0581083320873
 22
133.5127261426681
 13
0.0
 23
0.0
 14
5.0
 24
5.0
 15
10.0
 25
10.0
 16
0.0
 26
0.0
 36
1.0
 17
0.0
 27
0.0
 37
0.0
 40
275.42274993631997
 41
1.831871345029239
 42
50.0
 43
0.0
 44
0.0
 50
0.0
 51
0.0
 71
     0
 72
   500
 73
     1
 74
     0
 75
     0
 76
     0
 77
     0
 78
     2
  0
ENDTAB
  0
TABLE
  2
LTYPE
 70
     4
  0
LTYPE
  2
CONTINUOUS
 70
     0
  3
Solid Line
 72
    65
 73
     0
 40
0.0
  0
LTYPE
  2
CENTER
 70
     0
  3
____ _ ____ _ ____ _ ____ _ ____ _ ____ _ ____
 72
    65
 73
     4
 40
2.0
 49
1.25
 49
-0.25
 49
0.25
 49
-0.25
  0
LTYPE
  2
HIDDEN
 70
     0
  3
_ _ _ _ _ _ _ _ _ _ _ _ _ _ _ _ _ _ _ _ _ _ _
 72
    65
 73
     2
 40
0.375
 49
0.25
 49
-0.125
  0
LTYPE
  2
PHANTOM2
 70
     0
  3
Phantom (.5x) ___ _ _ ___ _ _ ___ _ _ ___ _ _
 72
    65
 73
     6
 40
1.25
 49
0.625
 49
-0.125
 49
0.125
 49
-0.125
 49
0.125
 49
-0.125
  0
ENDTAB
  0
TABLE
  2
LAYER
 70
     5
  0
LAYER
  2
0
 70
     0
 62
     7
  6
CONTINUOUS
  0
LAYER
  2
1
 70
     0
 62
     1
  6
CENTER
  0
LAYER
  2
2
 70
     0
 62
     2
  6
HIDDEN
  0
LAYER
  2
5
 70
     0
 62
     3
  6
PHANTOM2
  0
LAYER
  2
3
 70
     0
 62
     3
  6
CONTINUOUS
  0
ENDTAB
  0
TABLE
  2
STYLE
 70
     2
  0
STYLE
  2
STANDARD
 70
     0
 40
0.0
 41
1.0
 50
0.0
 71
     0
 42
0.2
  3
TXT
  4
BIGFONT
  0
STYLE
  2
STANDARD1
 70
     0
 40
0.0
 41
1.0
 50
0.0
 71
     0
 42
3.0
  3
txt
  4

  0
ENDTAB
  0
TABLE
  2
VIEW
 70
     1
  0
VIEW
  2
ALL
 70
     0
 40
270.0
 10
220.99159663865549
 20
135.0
 41
0.0
 11
0.0
 21
0.0
 31
1.0
 12
0.0
 22
0.0
 32
0.0
 42
0.0
 43
0.0
 44
0.0
 50
0.0
 71
     0
  0
ENDTAB
  0
TABLE
  2
UCS
 70
     0
  0
ENDTAB
  0
TABLE
  2
APPID
 70
     3
  0
APPID
  2
ACAD
 70
     0
  0
APPID
  2
ACAD_MLEADERVER
 70
     0
  0
APPID
  2
ACAD_NAV_VCDISPLAY
 70
     0
  0
ENDTAB
  0
TABLE
  2
DIMSTYLE
 70
     1
  0
DIMSTYLE
  2
STANDARD
 70
     0
  3

  4

  5

  6

  7

 40
1.0
 41
0.18
 42
0.0625
 43
0.38
 44
0.18
 45
0.0
 46
0.0
 47
0.0
 48
0.0
140
0.18
141
0.09
142
0.0
143
25.399999999999999
144
1.0
145
0.0
146
1.0
147
0.09
 71
     0
 72
     0
 73
     1
 74
     1
 75
     0
 76
     0
 77
     0
 78
     0
170
     0
171
     2
172
     0
173
     0
174
     0
175
     0
176
     0
177
     0
178
     0
  0
ENDTAB
  0
ENDSEC
  0
SECTION
  2
BLOCKS
  0
BLOCK
  8
0
  2
$MODEL_SPACE
 70
     0
 10
0.0
 20
0.0
 30
0.0
  3
$MODEL_SPACE
  1

  0
ENDBLK
  5
9
  8
0
  0
BLOCK
 67
     1
  8
0
  2
$PAPER_SPACE
 70
     0
 10
0.0
 20
0.0
 30
0.0
  3
$PAPER_SPACE
  1

  0
ENDBLK
  5
F
 67
     1
  8
0
  0
BLOCK
  8
0
  2
*X0
 70
     1
 10
0.0
 20
0.0
 30
0.0
  3
*X0
  1

  0
LINE
  5
40D
  8
0
 62
     0
 10
84.447558772543644
 20
101.87636390536289
 30
0.0
 11
82.698290738667311
 21
103.6256319392393
 31
0.0
  0
LINE
  5
40E
  8
0
 62
     0
 10
84.447558772543687
 20
99.224713475913376
 30
0.0
 11
80.046640309217764
 21
103.6256319392393
 31
0.0
  0
LINE
  5
40F
  8
0
 62
     0
 10
84.447558772543644
 20
96.573063046463858
 30
0.0
 11
77.394989879768218
 21
103.6256319392393
 31
0.0
  0
LINE
  5
410
  8
0
 62
     0
 10
84.447558772543644
 20
93.921412617014298
 30
0.0
 11
74.743339450318786
 21
103.6256319392392
 31
0.0
  0
LINE
  5
411
  8
0
 62
     0
 10
84.447558772543687
 20
91.269762187564723
 30
0.0
 11
72.091689020869239
 21
103.6256319392392
 31
0.0
  0
LINE
  5
412
  8
0
 62
     0
 10
84.447558772543687
 20
88.618111758115191
 30
0.0
 11
71.447558772543772
 21
101.61811175811511
 31
0.0
  0
LINE
  5
413
  8
0
 62
     0
 10
84.447558772543687
 20
85.966461328665645
 30
0.0
 11
71.4475587725438
 21
98.966461328665531
 31
0.0
  0
LINE
  5
414
  8
0
 62
     0
 10
84.447558772543687
 20
83.314810899216084
 30
0.0
 11
71.447558772543744
 21
96.314810899216056
 31
0.0
  0
LINE
  5
415
  8
0
 62
     0
 10
84.447558772543687
 20
80.663160469766524
 30
0.0
 11
71.4475587725438
 21
93.663160469766439
 31
0.0
  0
LINE
  5
416
  8
0
 62
     0
 10
84.447558772543687
 20
78.011510040316978
 30
0.0
 11
71.4475587725438
 21
91.011510040316907
 31
0.0
  0
LINE
  5
417
  8
0
 62
     0
 10
57.447558772543772
 20
102.3598596108673
 30
0.0
 11
56.181786444171841
 21
103.6256319392393
 31
0.0
  0
LINE
  5
418
  8
0
 62
     0
 10
84.447558772543715
 20
75.359859610867431
 30
0.0
 11
71.4475587725438
 21
88.359859610867346
 31
0.0
  0
LINE
  5
419
  8
0
 62
     0
 10
57.447558772543772
 20
99.708209181417814
 30
0.0
 11
53.530136014722302
 21
103.6256319392393
 31
0.0
  0
LINE
  5
41A
  8
0
 62
     0
 10
84.447558772543715
 20
72.708209181417885
 30
0.0
 11
71.4475587725438
 21
85.7082091814178
 31
0.0
  0
LINE
  5
41B
  8
0
 62
     0
 10
57.447558772543772
 20
97.056558751968282
 30
0.0
 11
50.878485585272728
 21
103.6256319392393
 31
0.0
  0
LINE
  5
41C
  8
0
 62
     0
 10
84.447558772543744
 20
70.056558751968282
 30
0.0
 11
71.4475587725438
 21
83.056558751968225
 31
0.0
  0
LINE
  5
41D
  8
0
 62
     0
 10
57.447558772543772
 20
94.404908322518736
 30
0.0
 11
48.226835155823181
 21
103.6256319392393
 31
0.0
  0
LINE
  5
41E
  8
0
 62
     0
 10
84.447558772543744
 20
67.404908322518736
 30
0.0
 11
71.4475587725438
 21
80.404908322518665
 31
0.0
  0
LINE
  5
41F
  8
0
 62
     0
 10
57.447558772543772
 20
91.753257893069147
 30
0.0
 11
45.575184726373628
 21
103.6256319392393
 31
0.0
  0
LINE
  5
420
  8
0
 62
     0
 10
84.447558772543744
 20
64.75325789306919
 30
0.0
 11
71.447558772543886
 21
77.753257893069033
 31
0.0
  0
LINE
  5
421
  8
0
 62
     0
 10
57.447558772543829
 20
89.101607463619587
 30
0.0
 11
44.447558772543907
 21
102.1016074636195
 31
0.0
  0
LINE
  5
422
  8
0
 62
     0
 10
84.373024039707303
 20
62.176142196456112
 30
0.0
 11
71.447558772543886
 21
75.101607463619501
 31
0.0
  0
LINE
  5
423
  8
0
 62
     0
 10
57.447558772543829
 20
86.449957034170041
 30
0.0
 11
44.447558772543879
 21
99.449957034169984
 31
0.0
  0
LINE
  5
424
  8
0
 62
     0
 10
81.721373610257757
 20
62.176142196456112
 30
0.0
 11
71.447558772543942
 21
72.449957034169927
 31
0.0
  0
LINE
  5
425
  8
0
 62
     0
 10
57.447558772543829
 20
83.798306604720494
 30
0.0
 11
44.447558772543879
 21
96.798306604720437
 31
0.0
  0
LINE
  5
426
  8
0
 62
     0
 10
79.069723180808211
 20
62.176142196456112
 30
0.0
 11
71.447558772543942
 21
69.798306604720381
 31
0.0
  0
LINE
  5
427
  8
0
 62
     0
 10
57.447558772543708
 20
81.146656175270934
 30
0.0
 11
44.447558772543772
 21
94.146656175270905
 31
0.0
  0
LINE
  5
428
  8
0
 62
     0
 10
76.418072751358579
 20
62.176142196456048
 30
0.0
 11
71.447558772543815
 21
67.146656175270806
 31
0.0
  0
LINE
  5
429
  8
0
 62
     0
 10
57.447558772543708
 20
78.495005745821373
 30
0.0
 11
44.447558772543772
 21
91.495005745821317
 31
0.0
  0
LINE
  5
42A
  8
0
 62
     0
 10
73.766422321909033
 20
62.176142196456077
 30
0.0
 11
71.447558772543815
 21
64.49500574582126
 31
0.0
  0
LINE
  5
42B
  8
0
 62
     0
 10
57.447558772543744
 20
75.843355316371827
 30
0.0
 11
44.4475587725438
 21
88.84335531637177
 31
0.0
  0
LINE
  5
42C
  8
0
 62
     0
 10
57.447558772543772
 20
73.191704886922253
 30
0.0
 11
44.4475587725438
 21
86.191704886922224
 31
0.0
  0
LINE
  5
42D
  8
0
 62
     0
 10
57.447558772543772
 20
70.540054457472593
 30
0.0
 11
44.447558772543722
 21
83.54005445747265
 31
0.0
  0
LINE
  5
42E
  8
0
 62
     0
 10
57.447558772543772
 20
67.888404028023018
 30
0.0
 11
44.447558772543722
 21
80.888404028023089
 31
0.0
  0
LINE
  5
42F
  8
0
 62
     0
 10
57.447558772543772
 20
65.236753598573472
 30
0.0
 11
44.447558772543722
 21
78.236753598573557
 31
0.0
  0
LINE
  5
430
  8
0
 62
     0
 10
57.4475587725438
 20
62.585103169123919
 30
0.0
 11
44.447558772543722
 21
75.585103169123983
 31
0.0
  0
LINE
  5
431
  8
0
 62
     0
 10
55.204869315762181
 20
62.17614219645597
 30
0.0
 11
44.447558772543722
 21
72.933452739674436
 31
0.0
  0
LINE
  5
432
  8
0
 62
     0
 10
52.55321888631255
 20
62.176142196456048
 30
0.0
 11
44.447558772543744
 21
70.28180231022489
 31
0.0
  0
LINE
  5
433
  8
0
 62
     0
 10
49.901568456862968
 20
62.176142196456112
 30
0.0
 11
44.44755877254368
 21
67.630151880775401
 31
0.0
  0
LINE
  5
434
  8
0
 62
     0
 10
47.249918027413493
 20
62.176142196456027
 30
0.0
 11
44.44755877254368
 21
64.978501451325826
 31
0.0
  0
LINE
  5
435
  8
0
 62
     0
 10
44.59826759796394
 20
62.176142196456027
 30
0.0
 11
44.44755877254368
 21
62.32685102187628
 31
0.0
  0
ENDBLK
  5
437
  8
0
  0
BLOCK
  8
0
  2
*X1
 70
     1
 10
0.0
 20
0.0
 30
0.0
  3
*X1
  1

  0
LINE
  5
439
  8
0
 62
     0
 10
82.685709662640875
 20
62.176142196456112
 30
0.0
 11
84.447558772543744
 21
63.937991306358981
 31
0.0
  0
LINE
  5
43A
  8
0
 62
     0
 10
80.034059233191442
 20
62.17614219645634
 30
0.0
 11
84.447558772543744
 21
66.589641735808513
 31
0.0
  0
LINE
  5
43B
  8
0
 62
     0
 10
77.382408803741896
 20
62.176142196456219
 30
0.0
 11
84.447558772543744
 21
69.241292165258074
 31
0.0
  0
LINE
  5
43C
  8
0
 62
     0
 10
74.730758374292336
 20
62.176142196456219
 30
0.0
 11
84.447558772543744
 21
71.89294259470762
 31
0.0
  0
LINE
  5
43D
  8
0
 62
     0
 10
72.07910794484269
 20
62.176142196456219
 30
0.0
 11
84.447558772543644
 21
74.544593024157166
 31
0.0
  0
LINE
  5
43E
  8
0
 62
     0
 10
71.44755877254363
 20
64.196243453606712
 30
0.0
 11
84.447558772543644
 21
77.196243453606712
 31
0.0
  0
LINE
  5
43F
  8
0
 62
     0
 10
71.44755877254363
 20
66.847893883056258
 30
0.0
 11
84.447558772543644
 21
79.847893883056258
 31
0.0
  0
LINE
  5
440
  8
0
 62
     0
 10
71.44755877254363
 20
69.499544312505805
 30
0.0
 11
84.447558772543644
 21
82.499544312505805
 31
0.0
  0
LINE
  5
441
  8
0
 62
     0
 10
71.44755877254363
 20
72.151194741955464
 30
0.0
 11
84.447558772543644
 21
85.151194741955337
 31
0.0
  0
LINE
  5
442
  8
0
 62
     0
 10
71.44755877254363
 20
74.802845171405011
 30
0.0
 11
84.447558772543516
 21
87.802845171404769
 31
0.0
  0
LINE
  5
443
  8
0
 62
     0
 10
71.44755877254363
 20
77.454495600854557
 30
0.0
 11
84.447558772543516
 21
90.454495600854329
 31
0.0
  0
LINE
  5
444
  8
0
 62
     0
 10
56.169205368145299
 20
62.176142196456112
 30
0.0
 11
57.447558772543744
 21
63.45449560085455
 31
0.0
  0
LINE
  5
445
  8
0
 62
     0
 10
71.44755877254363
 20
80.106146030304089
 30
0.0
 11
84.447558772543516
 21
93.106146030303876
 31
0.0
  0
LINE
  5
446
  8
0
 62
     0
 10
53.517554938695753
 20
62.176142196456112
 30
0.0
 11
57.447558772543744
 21
66.106146030304103
 31
0.0
  0
LINE
  5
447
  8
0
 62
     0
 10
71.447558772543744
 20
82.757796459753649
 30
0.0
 11
84.447558772543516
 21
95.757796459753436
 31
0.0
  0
LINE
  5
448
  8
0
 62
     0
 10
50.865904509246207
 20
62.176142196456112
 30
0.0
 11
57.447558772543744
 21
68.757796459753649
 31
0.0
  0
LINE
  5
449
  8
0
 62
     0
 10
71.447558772543744
 20
85.409446889203195
 30
0.0
 11
84.447558772543516
 21
98.409446889202968
 31
0.0
  0
LINE
  5
44A
  8
0
 62
     0
 10
48.21425407979666
 20
62.176142196456112
 30
0.0
 11
57.447558772543744
 21
71.409446889203195
 31
0.0
  0
LINE
  5
44B
  8
0
 62
     0
 10
71.447558772543744
 20
88.061097318652756
 30
0.0
 11
84.447558772543516
 21
101.0610973186525
 31
0.0
  0
LINE
  5
44C
  8
0
 62
     0
 10
45.562603650347107
 20
62.176142196456112
 30
0.0
 11
57.447558772543744
 21
74.061097318652742
 31
0.0
  0
LINE
  5
44D
  8
0
 62
     0
 10
71.447558772543744
 20
90.712747748102288
 30
0.0
 11
84.360442963680839
 21
103.6256319392394
 31
0.0
  0
LINE
  5
44E
  8
0
 62
     0
 10
44.44755877254363
 20
63.712747748102167
 30
0.0
 11
57.447558772543744
 21
76.712747748102274
 31
0.0
  0
LINE
  5
44F
  8
0
 62
     0
 10
71.447558772543744
 20
93.364398177551834
 30
0.0
 11
81.708792534231279
 21
103.6256319392394
 31
0.0
  0
LINE
  5
450
  8
0
 62
     0
 10
44.44755877254363
 20
66.36439817755172
 30
0.0
 11
57.447558772543744
 21
79.364398177551834
 31
0.0
  0
LINE
  5
451
  8
0
 62
     0
 10
71.447558772543744
 20
96.01604860700138
 30
0.0
 11
79.057142104781747
 21
103.6256319392394
 31
0.0
  0
LINE
  5
452
  8
0
 62
     0
 10
44.44755877254363
 20
69.016048607001267
 30
0.0
 11
57.447558772543623
 21
82.01604860700138
 31
0.0
  0
LINE
  5
453
  8
0
 62
     0
 10
71.447558772543744
 20
98.667699036450927
 30
0.0
 11
76.4054916753322
 21
103.6256319392394
 31
0.0
  0
LINE
  5
454
  8
0
 62
     0
 10
44.44755877254363
 20
71.667699036450813
 30
0.0
 11
57.447558772543623
 21
84.667699036450813
 31
0.0
  0
LINE
  5
455
  8
0
 62
     0
 10
71.447558772543744
 20
101.3193494659004
 30
0.0
 11
73.753841245882654
 21
103.6256319392394
 31
0.0
  0
LINE
  5
456
  8
0
 62
     0
 10
44.44755877254363
 20
74.319349465900359
 30
0.0
 11
57.447558772543623
 21
87.319349465900345
 31
0.0
  0
LINE
  5
457
  8
0
 62
     0
 10
44.44755877254363
 20
76.970999895349905
 30
0.0
 11
57.447558772543623
 21
89.970999895349905
 31
0.0
  0
LINE
  5
458
  8
0
 62
     0
 10
44.44755877254363
 20
79.622650324799451
 30
0.0
 11
57.447558772543623
 21
92.622650324799451
 31
0.0
  0
LINE
  5
459
  8
0
 62
     0
 10
44.44755877254363
 20
82.274300754248998
 30
0.0
 11
57.447558772543623
 21
95.274300754248998
 31
0.0
  0
LINE
  5
45A
  8
0
 62
     0
 10
44.447558772543744
 20
84.925951183698771
 30
0.0
 11
57.447558772543623
 21
97.925951183698672
 31
0.0
  0
LINE
  5
45B
  8
0
 62
     0
 10
44.447558772543857
 20
87.577601613148431
 30
0.0
 11
57.447558772543623
 21
100.5776016131482
 31
0.0
  0
LINE
  5
45C
  8
0
 62
     0
 10
44.447558772543857
 20
90.229252042597963
 30
0.0
 11
57.447558772543623
 21
103.22925204259769
 31
0.0
  0
LINE
  5
45D
  8
0
 62
     0
 10
44.447558772543857
 20
92.880902472047524
 30
0.0
 11
55.192288239735717
 21
103.6256319392394
 31
0.0
  0
LINE
  5
45E
  8
0
 62
     0
 10
44.447558772543857
 20
95.532552901497056
 30
0.0
 11
52.540637810286171
 21
103.6256319392394
 31
0.0
  0
LINE
  5
45F
  8
0
 62
     0
 10
44.447558772543857
 20
98.184203330946616
 30
0.0
 11
49.888987380836618
 21
103.6256319392394
 31
0.0
  0
LINE
  5
460
  8
0
 62
     0
 10
44.447558772543857
 20
100.83585376039611
 30
0.0
 11
47.237336951387071
 21
103.6256319392394
 31
0.0
  0
LINE
  5
461
  8
0
 62
     0
 10
44.447558772543744
 20
103.48750418984569
 30
0.0
 11
44.585686521937419
 21
103.6256319392394
 31
0.0
  0
ENDBLK
  5
463
  8
0
  0
ENDSEC
  0
SECTION
  2
ENTITIES
  0
LINE
  5
22D
  8
0
 10
249.4475587725438
 20
51.75349246564457
 30
0.0
 11
250.44755877254369
 21
51.176142196454968
 31
0.0
  0
LINE
  5
22E
  8
0
 10
249.4475587725438
 20
61.176142196454968
 30
0.0
 11
249.4475587725438
 21
51.75349246564457
 31
0.0
  0
LINE
  5
22F
  8
5
 10
248.44755877254369
 20
44.376142196454907
 30
0.0
 11
246.44755877254369
 21
46.376142196455007
 31
0.0
  0
LINE
  5
230
  8
5
 10
247.5300587725437
 20
61.176142196454968
 30
0.0
 11
247.5300587725437
 21
45.293642196454933
 31
0.0
  0
LINE
  5
231
  8
5
 10
246.44755877254369
 20
61.176142196454968
 30
0.0
 11
246.44755877254369
 21
46.376142196454907
 31
0.0
  0
LINE
  5
232
  8
0
 10
258.44755877254369
 20
51.176142196454968
 30
0.0
 11
259.44755877254369
 21
51.75349246564457
 31
0.0
  0
LINE
  5
233
  8
0
 10
259.44755877254369
 20
51.75349246564457
 30
0.0
 11
259.44755877254369
 21
61.176142196454968
 31
0.0
  0
LINE
  5
234
  8
0
 10
249.4475587725438
 20
51.75349246564457
 30
0.0
 11
259.44755877254369
 21
51.75349246564457
 31
0.0
  0
LINE
  5
235
  8
0
 10
258.44755877254369
 20
51.176142196454968
 30
0.0
 11
250.44755877254369
 21
51.176142196454968
 31
0.0
  0
LINE
  5
236
  8
5
 10
246.44755877254369
 20
46.376142196455007
 30
0.0
 11
262.44755877254369
 21
46.376142196454794
 31
0.0
  0
LINE
  5
237
  8
5
 10
262.44755877254369
 20
46.376142196454794
 30
0.0
 11
260.44755877254369
 21
44.376142196454794
 31
0.0
  0
LINE
  5
238
  8
5
 10
262.44755877254369
 20
61.176142196454968
 30
0.0
 11
262.44755877254369
 21
46.37614219645468
 31
0.0
  0
LINE
  5
239
  8
5
 10
261.36505877254348
 20
61.176142196454968
 30
0.0
 11
261.3650587725437
 21
45.293642196454691
 31
0.0
  0
LINE
  5
23A
  8
5
 10
260.44755877254369
 20
44.376142196454794
 30
0.0
 11
248.44755877254369
 21
44.376142196454907
 31
0.0
  0
LINE
  5
23B
  8
1
 10
169.4475587725436
 20
196.3761421964561
 30
0.0
 11
169.4475587725434
 21
156.3761421964561
 31
0.0
  0
ARC
  5
23C
  8
0
 10
163.44755877254349
 20
176.3761421964561
 30
0.0
 40
16.0
 50
90.0
 51
270.0
  0
ARC
  5
23D
  8
0
 10
236.947558772544
 20
103.6761421964562
 30
0.0
 40
2.5
 50
90.0
 51
180.0
  0
LINE
  5
23E
  8
0
 10
236.947558772544
 20
106.1761421964562
 30
0.0
 11
271.94755877254403
 21
106.176142196456
 31
0.0
  0
ARC
  5
23F
  8
0
 10
271.94755877254403
 20
103.676142196456
 30
0.0
 40
2.5
 50
0.0
 51
90.0
  0
LINE
  5
240
  8
0
 10
238.44755877254391
 20
88.265570722550464
 30
0.0
 11
238.44755877254391
 21
86.176142196456155
 31
0.0
  0
POLYLINE
  5
241
  8
0
 66
     1
 10
0.0
 20
0.0
 30
0.0
 70
   128
  0
VERTEX
  5
3EC
  8
0
 10
270.44755953250319
 20
88.265570353070359
 30
0.0
  0
VERTEX
  5
3ED
  8
0
 10
270.33691841063887
 20
89.077510412136178
 30
0.0
  0
VERTEX
  5
3EE
  8
0
 10
270.0207791000405
 20
90.006569872895341
 30
0.0
  0
VERTEX
  5
3EF
  8
0
 10
269.52281116394192
 20
91.03000025014029
 30
0.0
  0
VERTEX
  5
3F0
  8
0
 10
268.70239513812447
 20
92.379279907146554
 30
0.0
  0
VERTEX
  5
3F1
  8
0
 10
267.67226668892289
 20
93.821844558516659
 30
0.0
  0
VERTEX
  5
3F2
  8
0
 10
266.4636521309414
 20
95.320387284556546
 30
0.0
  0
VERTEX
  5
3F3
  8
0
 10
265.06967644093419
 20
96.87837074259869
 30
0.0
  0
VERTEX
  5
3F4
  8
0
 10
263.50600167063863
 20
98.435821484128155
 30
0.0
  0
VERTEX
  5
3F5
  8
0
 10
261.7722422525087
 20
99.937232683697857
 30
0.0
  0
VERTEX
  5
3F6
  8
0
 10
260.39767718760157
 20
100.957109133998
 30
0.0
  0
VERTEX
  5
3F7
  8
0
 10
258.90494405178219
 20
101.86518217186079
 30
0.0
  0
VERTEX
  5
3F8
  8
0
 10
257.52535077629477
 20
102.49903659085381
 30
0.0
  0
VERTEX
  5
3F9
  8
0
 10
256.05252675598348
 20
102.9341132448112
 30
0.0
  0
VERTEX
  5
3FA
  8
0
 10
254.8517550982335
 20
103.08730835775479
 30
0.0
  0
VERTEX
  5
3FB
  8
0
 10
253.6398115277091
 20
103.0574017272388
 30
0.0
  0
VERTEX
  5
3FC
  8
0
 10
252.45465558839831
 20
102.8444566831981
 30
0.0
  0
VERTEX
  5
3FD
  8
0
 10
251.31599546296391
 20
102.47889394620999
 30
0.0
  0
VERTEX
  5
3FE
  8
0
 10
250.09367695895821
 20
101.9210801527892
 30
0.0
  0
VERTEX
  5
3FF
  8
0
 10
248.9443885803023
 20
101.2521260486042
 30
0.0
  0
VERTEX
  5
400
  8
0
 10
247.86819598523769
 20
100.5100742981827
 30
0.0
  0
VERTEX
  5
401
  8
0
 10
246.02761479912189
 20
99.019712309638237
 30
0.0
  0
VERTEX
  5
402
  8
0
 10
244.3710582971373
 20
97.444562713900766
 30
0.0
  0
VERTEX
  5
403
  8
0
 10
242.8925268992582
 20
95.852705191174721
 30
0.0
  0
VERTEX
  5
404
  8
0
 10
241.8411149352589
 20
94.609765808383202
 30
0.0
  0
VERTEX
  5
405
  8
0
 10
240.90110125837711
 20
93.392512302199563
 30
0.0
  0
VERTEX
  5
406
  8
0
 10
240.0887290656367
 20
92.221428181329941
 30
0.0
  0
VERTEX
  5
407
  8
0
 10
239.4202434167066
 20
91.116998817125534
 30
0.0
  0
VERTEX
  5
408
  8
0
 10
238.89697517154599
 20
90.059837798873161
 30
0.0
  0
VERTEX
  5
409
  8
0
 10
238.56419126389409
 20
89.101139928499435
 30
0.0
  0
VERTEX
  5
40A
  8
0
 10
238.44755801258469
 20
88.265570353070473
 30
0.0
  0
SEQEND
  5
40B
  8
0
  0
LINE
  5
242
  8
0
 10
270.4475587725438
 20
86.176142196456112
 30
0.0
 11
270.44755877254403
 21
88.265570722550365
 31
0.0
  0
LINE
  5
243
  8
0
 10
234.44755877254369
 20
62.176142196456219
 30
0.0
 11
234.44755877254369
 21
103.6761421964562
 31
0.0
  0
ARC
  5
244
  8
0
 10
236.9475587725438
 20
83.676142196456226
 30
0.0
 40
2.500000000000028
 50
90.0
 51
180.0
  0
ARC
  5
245
  8
0
 10
235.44755877254369
 20
62.176142196456219
 30
0.0
 40
1.0
 50
180.0
 51
270.0
  0
LINE
  5
246
  8
0
 10
236.9475587725438
 20
86.176142196456155
 30
0.0
 11
271.94755877254369
 21
86.176142196456112
 31
0.0
  0
LINE
  5
247
  8
0
 10
273.44755877254369
 20
61.176142196456063
 30
0.0
 11
235.44755877254369
 21
61.176142196456162
 31
0.0
  0
LINE
  5
248
  8
0
 10
274.4475587725438
 20
103.676142196456
 30
0.0
 11
274.4475587725438
 21
62.176142196456048
 31
0.0
  0
ARC
  5
249
  8
0
 10
271.94755877254369
 20
83.676142196456055
 30
0.0
 40
2.5
 50
0.0
 51
90.0
  0
ARC
  5
24A
  8
0
 10
273.44755877254369
 20
62.176142196456048
 30
0.0
 40
1.0
 50
270.0
 51
0.0
  0
LINE
  5
24B
  8
1
 10
254.4475587725442
 20
111.1761421964562
 30
0.0
 11
254.44755877254349
 21
39.376142196454907
 31
0.0
  0
CIRCLE
  5
24C
  8
0
 10
169.44755877254349
 20
176.3761421964561
 30
0.0
 40
9.0
  0
CIRCLE
  5
24D
  8
0
 10
169.44755877254349
 20
176.3761421964561
 30
0.0
 40
15.0
  0
LINE
  5
24E
  8
5
 10
56.447558772543744
 20
61.176142196456112
 30
0.0
 11
56.447558772543744
 21
46.376142196456037
 31
0.0
  0
LINE
  5
24F
  8
5
 10
57.530058772543732
 20
61.176142196456112
 30
0.0
 11
57.530058772543732
 21
45.293642196456062
 31
0.0
  0
LINE
  5
250
  8
5
 10
58.447558772543751
 20
44.376142196456037
 30
0.0
 11
56.447558772543744
 21
46.376142196456151
 31
0.0
  0
LINE
  5
251
  8
5
 10
70.447558772543744
 20
44.37614219645593
 30
0.0
 11
58.447558772543751
 21
44.376142196456037
 31
0.0
  0
LINE
  5
252
  8
5
 10
71.365058772543534
 20
61.176142196456112
 30
0.0
 11
71.365058772543762
 21
45.293642196455828
 31
0.0
  0
LINE
  5
253
  8
5
 10
72.447558772543744
 20
61.176142196456112
 30
0.0
 11
72.447558772543744
 21
46.37614219645581
 31
0.0
  0
LINE
  5
254
  8
5
 10
72.447558772543744
 20
46.37614219645593
 30
0.0
 11
70.447558772543744
 21
44.37614219645593
 31
0.0
  0
LINE
  5
255
  8
5
 10
56.447558772543744
 20
46.376142196456151
 30
0.0
 11
72.447558772543744
 21
46.37614219645593
 31
0.0
  0
INSERT
  5
256
  8
3
  6
CONTINUOUS
  2
*X0
 10
0.0
 20
0.0
 30
0.0
1001
ACAD
1000
HATCH
1002
{
1070
    19
1000
ANSI31
1040
15.0
1040
1.5707963267948959
1000
R14_HATCH_DATA
1000
256
1011
1.0
1021
0.0
1031
0.0
1021
0.0
1031
0.0
1011
0.0
1021
0.0
1031
0.0
1021
1.0
1031
0.0
1011
0.0
1021
0.0
1031
0.0
1021
0.0
1031
1.0
1040
0.0
1010
0.0
1020
0.0
1030
1.0
1000
ANSI31
1070
     0
1070
     0
1071
        1
1071
       33
1071
        8
1070
     1
1040
57.447558772543857
1040
62.176142196456048
1040
57.447558772543744
1040
103.6761421964561
1070
     1
1040
44.447558772543744
1040
62.176142196456112
1040
44.447558772543857
1040
103.6256319392394
1070
     1
1040
71.447558772543744
1040
103.6761421964561
1040
71.447558772543857
1040
62.176142196456112
1070
     1
1040
44.447558772543744
1040
62.176142196456112
1040
57.447558772543744
1040
62.176142196456048
1070
     1
1040
84.447558772543744
1040
103.6256319392393
1040
71.447558772543857
1040
103.6256319392393
1070
     1
1040
84.447558772543644
1040
103.6256319392393
1040
84.447558772543744
1040
62.176142196456112
1070
     1
1040
71.447558772543744
1040
62.176142196456048
1040
84.447558772543744
1040
62.176142196456112
1070
     1
1040
44.447558772543744
1040
103.6256319392393
1040
57.447558772543623
1040
103.6256319392393
1071
        0
1070
     0
1070
     1
1040
1.5707963267948959
1040
15.0
1070
     0
1070
     1
1040
2.3561944901923439
1040
-783.56032357882975
1040
-308.21126073794812
1040
-1.325825214724776
1040
-1.325825214724776
1070
     0
1071
        1
1040
-783.56032357882975
1040
-308.21126073794812
1040
0.0
1002
}
  0
INSERT
  5
257
  8
3
  6
CONTINUOUS
  2
*X1
 10
0.0
 20
0.0
 30
0.0
1001
ACAD
1000
HATCH
1002
{
1070
    19
1000
ANSI31
1040
15.0
1040
0.0
1000
R14_HATCH_DATA
1000
257
1011
1.0
1021
0.0
1031
0.0
1021
0.0
1031
0.0
1011
0.0
1021
0.0
1031
0.0
1021
1.0
1031
0.0
1011
0.0
1021
0.0
1031
0.0
1021
0.0
1031
1.0
1040
0.0
1010
0.0
1020
0.0
1030
1.0
1000
ANSI31
1070
     0
1070
     0
1071
        1
1071
       33
1071
        8
1070
     1
1040
57.447558772543857
1040
62.176142196456048
1040
57.447558772543744
1040
103.6761421964561
1070
     1
1040
44.447558772543744
1040
62.176142196456112
1040
44.447558772543857
1040
103.6256319392394
1070
     1
1040
71.447558772543744
1040
103.6761421964561
1040
71.447558772543857
1040
62.176142196456112
1070
     1
1040
44.447558772543744
1040
62.176142196456112
1040
57.447558772543744
1040
62.176142196456048
1070
     1
1040
84.447558772543744
1040
103.6256319392393
1040
71.447558772543857
1040
103.6256319392393
1070
     1
1040
84.447558772543644
1040
103.6256319392393
1040
84.447558772543744
1040
62.176142196456112
1070
     1
1040
71.447558772543744
1040
62.176142196456048
1040
84.447558772543744
1040
62.176142196456112
1070
     1
1040
44.447558772543744
1040
103.6256319392393
1040
57.447558772543623
1040
103.6256319392393
1071
        0
1070
     0
1070
     1
1040
0.0
1040
15.0
1070
     0
1070
     1
1040
0.7853981633974483
1040
-783.56032357882975
1040
-308.21126073794812
1040
-1.325825214724776
1040
1.325825214724776
1070
     0
1071
        1
1040
-783.56032357882975
1040
-308.21126073794812
1040
0.0
1002
}
  0
LINE
  5
258
  8
0
 10
44.447558772543744
 20
103.6256319392393
 30
0.0
 11
57.447558772543623
 21
103.6256319392393
 31
0.0
  0
ARC
  5
259
  8
0
 10
46.94755877254363
 20
103.6256319392393
 30
0.0
 40
2.4999999999999849
 50
90.0
 51
180.0
  0
LINE
  5
25A
  8
0
 10
71.447558772543744
 20
62.176142196456048
 30
0.0
 11
84.447558772543744
 21
62.176142196456112
 31
0.0
  0
LINE
  5
25B
  8
5
 10
161.44755877254349
 20
46.376142196456151
 30
0.0
 11
177.44755877254349
 21
46.37614219645593
 31
0.0
  0
LINE
  5
25C
  8
5
 10
163.44755877254349
 20
44.376142196456037
 30
0.0
 11
161.44755877254349
 21
46.376142196456151
 31
0.0
  0
LINE
  5
25D
  8
5
 10
177.44755877254349
 20
46.37614219645593
 30
0.0
 11
175.44755877254349
 21
44.37614219645593
 31
0.0
  0
LINE
  5
25E
  8
5
 10
177.44755877254349
 20
61.176142196456112
 30
0.0
 11
177.44755877254349
 21
46.37614219645581
 31
0.0
  0
LINE
  5
25F
  8
5
 10
176.36505877254331
 20
61.176142196456112
 30
0.0
 11
176.36505877254351
 21
45.293642196455828
 31
0.0
  0
LINE
  5
260
  8
5
 10
162.5300587725435
 20
61.176142196456112
 30
0.0
 11
162.5300587725435
 21
45.293642196456062
 31
0.0
  0
LINE
  5
261
  8
5
 10
161.44755877254349
 20
61.176142196456112
 30
0.0
 11
161.44755877254349
 21
46.376142196456037
 31
0.0
  0
LINE
  5
262
  8
5
 10
175.44755877254349
 20
44.37614219645593
 30
0.0
 11
163.44755877254349
 21
44.376142196456037
 31
0.0
  0
LINE
  5
263
  8
5
 10
157.44755877254349
 20
104.3761421964561
 30
0.0
 11
159.1796095801123
 21
105.3761421964561
 31
0.0
  0
LINE
  5
264
  8
5
 10
181.44755877254349
 20
104.3761421964561
 30
0.0
 11
179.71550796497471
 21
105.3761421964561
 31
0.0
  0
LINE
  5
265
  8
5
 10
157.44755877254349
 20
104.3761421964561
 30
0.0
 11
181.44755877254349
 21
104.3761421964561
 31
0.0
  0
LINE
  5
266
  8
5
 10
159.1796095801123
 20
105.3761421964561
 30
0.0
 11
179.71550796497471
 21
105.3761421964561
 31
0.0
  0
LINE
  5
267
  8
5
 10
157.44755877254349
 20
91.457728007839535
 30
0.0
 11
157.44755877254349
 21
104.3761421964561
 31
0.0
  0
LINE
  5
268
  8
5
 10
181.44755877254349
 20
104.3761421964561
 30
0.0
 11
181.44755877254349
 21
89.376142196456144
 31
0.0
  0
LINE
  5
269
  8
5
 10
161.44755877254349
 20
52.376142196456208
 30
0.0
 11
177.44755877254349
 21
52.376142196455987
 31
0.0
  0
LINE
  5
26A
  8
5
 10
163.44755877254349
 20
50.376142196456101
 30
0.0
 11
161.44755877254349
 21
52.376142196456208
 31
0.0
  0
LINE
  5
26B
  8
5
 10
177.44755877254349
 20
52.376142196455987
 30
0.0
 11
175.44755877254349
 21
50.376142196455987
 31
0.0
  0
LINE
  5
26C
  8
5
 10
177.44755877254349
 20
61.176142196456112
 30
0.0
 11
177.44755877254349
 21
52.376142196455874
 31
0.0
  0
LINE
  5
26D
  8
5
 10
176.36505877254331
 20
61.176142196456112
 30
0.0
 11
176.36505877254351
 21
51.293642196455892
 31
0.0
  0
LINE
  5
26E
  8
5
 10
162.5300587725435
 20
61.176142196456112
 30
0.0
 11
162.5300587725435
 21
51.293642196456119
 31
0.0
  0
LINE
  5
26F
  8
5
 10
161.44755877254349
 20
61.176142196456112
 30
0.0
 11
161.44755877254349
 21
52.376142196456101
 31
0.0
  0
LINE
  5
270
  8
5
 10
175.44755877254349
 20
50.376142196455987
 30
0.0
 11
163.44755877254349
 21
50.376142196456101
 31
0.0
  0
LINE
  5
271
  8
5
 10
157.44755877254349
 20
110.3761421964562
 30
0.0
 11
159.1796095801123
 21
111.3761421964562
 31
0.0
  0
LINE
  5
272
  8
5
 10
181.44755877254349
 20
110.3761421964562
 30
0.0
 11
179.71550796497471
 21
111.3761421964562
 31
0.0
  0
LINE
  5
273
  8
5
 10
157.44755877254349
 20
110.3761421964562
 30
0.0
 11
181.44755877254349
 21
110.3761421964562
 31
0.0
  0
LINE
  5
274
  8
5
 10
159.1796095801123
 20
111.3761421964562
 30
0.0
 11
179.71550796497471
 21
111.3761421964562
 31
0.0
  0
LINE
  5
275
  8
5
 10
157.44755877254349
 20
102.9147819121979
 30
0.0
 11
157.44755877254349
 21
110.3761421964562
 31
0.0
  0
LINE
  5
276
  8
5
 10
181.44755877254349
 20
110.3761421964562
 30
0.0
 11
181.44755877254349
 21
95.376142196456215
 31
0.0
  0
LINE
  5
277
  8
5
 10
166.96571913546109
 20
95.376142196456215
 30
0.0
 11
184.44755877254349
 21
95.376142196456215
 31
0.0
  0
ARC
  5
278
  8
5
 10
136.44755877254349
 20
68.176142196456169
 30
0.0
 40
1.0
 50
180.0
 51
270.0
  0
LINE
  5
279
  8
5
 10
135.44755877254349
 20
68.176142196456169
 30
0.0
 11
135.44755877254349
 21
109.6761421964561
 31
0.0
  0
ARC
  5
27A
  8
5
 10
137.94755877254349
 20
109.6761421964561
 30
0.0
 40
2.5
 50
90.0
 51
180.0
  0
LINE
  5
27B
  8
5
 10
137.94755877254349
 20
112.1761421964561
 30
0.0
 11
150.44755877254349
 21
112.1761421964561
 31
0.0
  0
ARC
  5
27C
  8
5
 10
150.44755877254349
 20
109.6761421964561
 30
0.0
 40
2.500000000000008
 50
22.619864948039421
 51
90.0
  0
ARC
  5
27D
  8
5
 10
180.44755877254349
 20
122.1761421964561
 30
0.0
 40
30.000000000000021
 50
202.61986494804239
 51
270.0
  0
LINE
  5
27E
  8
5
 10
180.44755877254349
 20
92.176142196456155
 30
0.0
 11
192.94755877254349
 21
92.176142196456155
 31
0.0
  0
LINE
  5
27F
  8
5
 10
194.44755877254349
 20
67.176142196456169
 30
0.0
 11
136.44755877254349
 21
67.176142196456169
 31
0.0
  0
ARC
  5
280
  8
2
 10
186.94755877254349
 20
80.676142196456169
 30
0.0
 40
3.2500000000000062
 50
315.0
 51
135.0
  0
LINE
  5
281
  8
2
 10
183.2456558113997
 20
72.378045157599843
 30
0.0
 11
189.2456558113997
 21
78.3780451575999
 31
0.0
  0
ARC
  5
282
  8
2
 10
180.94755877254349
 20
74.676142196456169
 30
0.0
 40
3.249999999999996
 50
135.0
 51
315.0
  0
LINE
  5
283
  8
2
 10
184.6494617336873
 20
82.974239235312439
 30
0.0
 11
178.6494617336873
 21
76.974239235312439
 31
0.0
  0
ARC
  5
284
  8
5
 10
194.44755877254349
 20
68.176142196456169
 30
0.0
 40
1.0
 50
270.0
 51
0.0
  0
ARC
  5
285
  8
5
 10
192.94755877254349
 20
89.676142196456155
 30
0.0
 40
2.5
 50
0.0
 51
90.0
  0
LINE
  5
286
  8
5
 10
190.44755877254369
 20
67.176142196456169
 30
0.0
 11
190.44755877254349
 21
92.176142196456226
 31
0.0
  0
LINE
  5
287
  8
5
 10
195.44755877254349
 20
89.676142196456155
 30
0.0
 11
195.44755877254349
 21
68.176142196456169
 31
0.0
  0
LINE
  5
288
  8
5
 10
184.44755877254349
 20
92.176142196456155
 30
0.0
 11
184.44755877254349
 21
95.376142196456215
 31
0.0
  0
LINE
  5
289
  8
1
 10
149.4475587725434
 20
66.176142196456112
 30
0.0
 11
149.44755877254349
 21
46.176142196456048
 31
0.0
  0
LINE
  5
28A
  8
1
 10
169.44755877254349
 20
116.3761421964562
 30
0.0
 11
169.44755877254349
 21
39.376142196456222
 31
0.0
  0
LINE
  5
28B
  8
0
 10
160.96571913546109
 20
89.376142196456215
 30
0.0
 11
184.44755877254349
 21
89.376142196456215
 31
0.0
  0
LINE
  5
28C
  8
0
 10
153.4475587725434
 20
51.176142196456112
 30
0.0
 11
145.4475587725436
 21
51.176142196456112
 31
0.0
  0
LINE
  5
28D
  8
0
 10
144.4475587725436
 20
51.753492465645706
 30
0.0
 11
154.4475587725434
 21
51.753492465645643
 31
0.0
  0
CIRCLE
  5
28E
  8
0
 10
180.94755877254349
 20
74.676142196456112
 30
0.0
 40
2.9999999999999871
  0
ARC
  5
28F
  8
0
 10
130.44755877254349
 20
62.176142196456112
 30
0.0
 40
1.000000000000028
 50
180.0
 51
270.0
  0
LINE
  5
290
  8
0
 10
129.44755877254349
 20
62.176142196456112
 30
0.0
 11
129.44755877254349
 21
103.6761421964561
 31
0.0
  0
ARC
  5
291
  8
0
 10
131.94755877254349
 20
103.6761421964561
 30
0.0
 40
2.5
 50
90.0
 51
180.0
  0
LINE
  5
292
  8
0
 10
131.94755877254349
 20
106.1761421964561
 30
0.0
 11
144.44755877254349
 21
106.1761421964561
 31
0.0
  0
ARC
  5
293
  8
0
 10
144.44755877254349
 20
103.6761421964561
 30
0.0
 40
2.500000000000008
 50
22.619864948039421
 51
90.0
  0
ARC
  5
294
  8
0
 10
174.44755877254349
 20
116.176142196456
 30
0.0
 40
29.999999999999979
 50
202.61986494804239
 51
270.0
  0
LINE
  5
295
  8
0
 10
174.44755877254349
 20
86.176142196456112
 30
0.0
 11
186.94755877254349
 21
86.176142196456112
 31
0.0
  0
LINE
  5
296
  8
0
 10
188.44755877254349
 20
61.176142196456112
 30
0.0
 11
130.44755877254349
 21
61.176142196456112
 31
0.0
  0
ARC
  5
297
  8
0
 10
180.94755877254349
 20
74.676142196456112
 30
0.0
 40
3.249999999999996
 50
315.0
 51
135.0
  0
LINE
  5
298
  8
0
 10
177.2456558113997
 20
66.378045157599843
 30
0.0
 11
183.2456558113997
 21
72.378045157599843
 31
0.0
  0
ARC
  5
299
  8
0
 10
174.94755877254349
 20
68.676142196456112
 30
0.0
 40
3.249999999999996
 50
135.0
 51
315.0
  0
LINE
  5
29A
  8
0
 10
178.6494617336873
 20
76.974239235312382
 30
0.0
 11
172.6494617336873
 21
70.974239235312382
 31
0.0
  0
ARC
  5
29B
  8
0
 10
188.44755877254349
 20
62.176142196456112
 30
0.0
 40
1.0
 50
270.0
 51
0.0
  0
ARC
  5
29C
  8
0
 10
186.94755877254349
 20
83.676142196456112
 30
0.0
 40
2.5000000000000142
 50
0.0
 51
90.0
  0
LINE
  5
29D
  8
0
 10
184.44755877254349
 20
61.176142196456112
 30
0.0
 11
184.44755877254349
 21
86.176142196456112
 31
0.0
  0
LINE
  5
29E
  8
0
 10
189.44755877254349
 20
83.676142196456112
 30
0.0
 11
189.44755877254349
 21
62.176142196456112
 31
0.0
  0
LINE
  5
29F
  8
0
 10
184.44755877254349
 20
86.176142196456112
 30
0.0
 11
184.44755877254349
 21
89.376142196456215
 31
0.0
  0
LINE
  5
2A0
  8
0
 10
153.44755877254349
 20
51.176142196456112
 30
0.0
 11
154.44755877254349
 21
51.753492465645706
 31
0.0
  0
LINE
  5
2A1
  8
0
 10
144.4475587725436
 20
51.753492465645706
 30
0.0
 11
145.4475587725436
 21
51.176142196456112
 31
0.0
  0
LINE
  5
2A2
  8
0
 10
144.4475587725436
 20
61.176142196456112
 30
0.0
 11
144.4475587725436
 21
51.753492465645706
 31
0.0
  0
LINE
  5
2A3
  8
0
 10
154.44755877254349
 20
51.753492465645706
 30
0.0
 11
154.44755877254349
 21
61.176142196456112
 31
0.0
  0
LINE
  5
2A4
  8
1
 10
194.44755877254369
 20
176.3761421964561
 30
0.0
 11
124.4475587725436
 21
176.3761421964561
 31
0.0
  0
ARC
  5
2A5
  8
0
 10
184.44755877254349
 20
191.3761421964561
 30
0.0
 40
5.0
 50
0.0
 51
90.0
  0
LINE
  5
2A6
  8
0
 10
189.44755877254369
 20
191.3761421964561
 30
0.0
 11
189.44755877254349
 21
161.3761421964561
 31
0.0
  0
ARC
  5
2A7
  8
0
 10
184.44755877254349
 20
161.3761421964561
 30
0.0
 40
5.0000000000000142
 50
270.0
 51
0.0
  0
LINE
  5
2A8
  8
0
 10
174.4475587725436
 20
196.3761421964561
 30
0.0
 11
174.44755877254349
 21
192.3761421964561
 31
0.0
  0
LINE
  5
2A9
  8
0
 10
174.44755877254349
 20
160.3761421964561
 30
0.0
 11
174.4475587725436
 21
156.37614219645599
 31
0.0
  0
LINE
  5
2AA
  8
0
 10
163.44755877254349
 20
160.3761421964561
 30
0.0
 11
174.44755877254349
 21
160.3761421964561
 31
0.0
  0
LINE
  5
2AB
  8
0
 10
174.44755877254349
 20
192.3761421964561
 30
0.0
 11
163.44755877254349
 21
192.3761421964561
 31
0.0
  0
ARC
  5
2AC
  8
0
 10
130.44755877254349
 20
195.3761421964561
 30
0.0
 40
1.0
 50
90.0
 51
180.0
  0
LINE
  5
2AD
  8
0
 10
129.4475587725434
 20
183.3761421964561
 30
0.0
 11
129.4475587725434
 21
195.3761421964561
 31
0.0
  0
LINE
  5
2AE
  8
0
 10
131.4475587725434
 20
181.37614219645619
 30
0.0
 11
129.4475587725434
 21
183.3761421964561
 31
0.0
  0
LINE
  5
2AF
  8
0
 10
131.4475587725434
 20
171.3761421964561
 30
0.0
 11
131.4475587725434
 21
181.37614219645619
 31
0.0
  0
LINE
  5
2B0
  8
0
 10
129.4475587725434
 20
169.3761421964561
 30
0.0
 11
131.4475587725434
 21
171.3761421964561
 31
0.0
  0
LINE
  5
2B1
  8
0
 10
129.4475587725434
 20
157.3761421964561
 30
0.0
 11
129.4475587725434
 21
169.3761421964561
 31
0.0
  0
ARC
  5
2B2
  8
0
 10
130.44755877254349
 20
157.3761421964561
 30
0.0
 40
1.0
 50
180.0
 51
270.0
  0
LINE
  5
2B3
  8
0
 10
130.4475587725434
 20
196.3761421964561
 30
0.0
 11
184.44755877254369
 21
196.3761421964561
 31
0.0
  0
LINE
  5
2B4
  8
0
 10
184.44755877254349
 20
156.3761421964561
 30
0.0
 11
130.4475587725434
 21
156.3761421964561
 31
0.0
  0
LINE
  5
2B5
  8
0
 10
131.94755877254349
 20
196.3761421964561
 30
0.0
 11
131.94755877254349
 21
156.37614219645599
 31
0.0
  0
LINE
  5
2B6
  8
0
 10
146.75525108023581
 20
196.3761421964561
 30
0.0
 11
146.75525108023581
 21
156.3761421964561
 31
0.0
  0
LINE
  5
2B7
  8
0
 10
144.4475587725434
 20
156.3761421964561
 30
0.0
 11
144.44755877254349
 21
196.3761421964561
 31
0.0
  0
LINE
  5
2B8
  8
1
 10
64.447558772543744
 20
39.376142196455987
 30
0.0
 11
64.447558772543744
 21
111.1256319392393
 31
0.0
  0
LINE
  5
2B9
  8
0
 10
68.447558772543744
 20
51.176142196456112
 30
0.0
 11
60.447558772543744
 21
51.176142196456112
 31
0.0
  0
LINE
  5
2BA
  8
0
 10
59.447558772543744
 20
51.753492465645706
 30
0.0
 11
69.447558772543744
 21
51.753492465645706
 31
0.0
  0
ARC
  5
2BB
  8
0
 10
81.947558772543843
 20
103.6256319392393
 30
0.0
 40
2.4999999999999849
 50
0.0
 51
90.0
  0
ARC
  5
2BC
  8
0
 10
83.447558772543744
 20
62.176142196456112
 30
0.0
 40
1.0
 50
270.0
 51
0.0
  0
LINE
  5
2BD
  8
0
 10
84.447558772543644
 20
103.6256319392393
 30
0.0
 11
84.447558772543744
 21
62.176142196456112
 31
0.0
  0
LINE
  5
2BE
  8
0
 10
84.447558772543744
 20
103.6256319392393
 30
0.0
 11
71.447558772543857
 21
103.6256319392393
 31
0.0
  0
LINE
  5
2BF
  8
0
 10
81.947558772543843
 20
106.1256319392394
 30
0.0
 11
46.94755877254363
 21
106.1256319392392
 31
0.0
  0
LINE
  5
2C0
  8
0
 10
83.447558772543744
 20
61.176142196456112
 30
0.0
 11
45.447558772543744
 21
61.176142196456112
 31
0.0
  0
LINE
  5
2C1
  8
0
 10
44.447558772543744
 20
62.176142196456112
 30
0.0
 11
57.447558772543744
 21
62.176142196456048
 31
0.0
  0
LINE
  5
2C2
  8
0
 10
69.44755877254363
 20
61.176142196456112
 30
0.0
 11
69.447558772543744
 21
106.1256319392393
 31
0.0
  0
LINE
  5
2C3
  8
0
 10
71.447558772543744
 20
103.6761421964561
 30
0.0
 11
71.447558772543744
 21
61.176142196456112
 31
0.0
  0
ARC
  5
2C4
  8
0
 10
68.947558772543744
 20
103.6761421964562
 30
0.0
 40
2.4999999999999849
 50
0.0
 51
78.463040967181868
  0
LINE
  5
2C5
  8
0
 10
59.447558772543744
 20
61.176142196456112
 30
0.0
 11
59.447558772543744
 21
106.1256319392392
 31
0.0
  0
ARC
  5
2C6
  8
0
 10
59.947558772543744
 20
103.676142196456
 30
0.0
 40
2.5000000000000742
 50
101.5369590328181
 51
180.0
  0
LINE
  5
2C7
  8
0
 10
44.447558772543744
 20
62.176142196456112
 30
0.0
 11
44.447558772543857
 21
103.6256319392394
 31
0.0
  0
ARC
  5
2C8
  8
0
 10
45.447558772543744
 20
62.176142196456112
 30
0.0
 40
1.0
 50
180.0
 51
270.0
  0
LINE
  5
2C9
  8
0
 10
57.447558772543744
 20
61.176142196456112
 30
0.0
 11
57.447558772543744
 21
103.6761421964561
 31
0.0
  0
LINE
  5
2CA
  8
0
 10
59.447558772543744
 20
61.176142196456112
 30
0.0
 11
59.447558772543744
 21
51.753492465645706
 31
0.0
  0
LINE
  5
2CB
  8
0
 10
69.447558772543744
 20
51.753492465645706
 30
0.0
 11
69.447558772543744
 21
61.176142196456112
 31
0.0
  0
LINE
  5
2CC
  8
0
 10
68.447558772543744
 20
51.176142196456112
 30
0.0
 11
69.447558772543744
 21
51.753492465645706
 31
0.0
  0
LINE
  5
2CD
  8
0
 10
59.447558772543744
 20
51.753492465645706
 30
0.0
 11
60.447558772543744
 21
51.176142196456112
 31
0.0
  0
LINE
  5
2CE
  8
5
 10
242.4475587725442
 20
89.376142196455234
 30
0.0
 11
242.4475587725442
 21
104.37614219645531
 31
0.0
  0
LINE
  5
2CF
  8
5
 10
244.17960958011301
 20
105.37614219645531
 30
0.0
 11
264.71550796497542
 21
105.37614219645531
 31
0.0
  0
LINE
  5
2D0
  8
5
 10
242.4475587725442
 20
104.37614219645531
 30
0.0
 11
266.4475587725442
 21
104.37614219645531
 31
0.0
  0
LINE
  5
2D1
  8
5
 10
266.4475587725442
 20
104.37614219645531
 30
0.0
 11
264.71550796497542
 21
105.37614219645531
 31
0.0
  0
LINE
  5
2D2
  8
5
 10
242.4475587725442
 20
104.37614219645531
 30
0.0
 11
244.17960958011301
 21
105.37614219645531
 31
0.0
  0
LINE
  5
2D3
  8
5
 10
266.4475587725442
 20
104.37614219645531
 30
0.0
 11
266.4475587725442
 21
89.376142196455305
 31
0.0
  0
LINE
  5
2D4
  8
0
 10
239.4475587725442
 20
89.376142196455305
 30
0.0
 11
269.4475587725442
 21
89.376142196455376
 31
0.0
  0
LINE
  5
2D5
  8
0
 10
269.4475587725442
 20
86.17614219645526
 30
0.0
 11
269.4475587725442
 21
89.376142196455376
 31
0.0
  0
LINE
  5
2D6
  8
0
 10
239.4475587725444
 20
86.17614219645526
 30
0.0
 11
239.4475587725444
 21
89.376142196455376
 31
0.0
  0
TEXT
  5
394
  8
0
 62
     3
 10
0.0
 20
0.0
 30
0.0
 40
10.0
  1
CP107-16025
  7
STANDARD1
  0
ENDSEC
  0
EOF
