  0
SECTION
  2
HEADER
  9
$ACADVER
  1
AC1009
  9
$INSBASE
 10
798.67572335528303
 20
137.84630522417569
 30
0.0
  9
$EXTMIN
 10
0.0
 20
-2.960436562073669
 30
0.0
  9
$EXTMAX
 10
133.20080706925091
 20
110.4940329439524
 30
0.0
  9
$LIMMIN
 10
0.0
 20
0.0
  9
$LIMMAX
 10
375.0
 20
270.0
  9
$ORTHOMODE
 70
     0
  9
$REGENMODE
 70
     1
  9
$FILLMODE
 70
     1
  9
$QTEXTMODE
 70
     0
  9
$MIRRTEXT
 70
     0
  9
$DRAGMODE
 70
     2
  9
$LTSCALE
 40
5.0
  9
$OSMODE
 70
  3071
  9
$ATTMODE
 70
     1
  9
$TEXTSIZE
 40
0.2
  9
$TRACEWID
 40
0.05
  9
$TEXTSTYLE
  7
STANDARD
  9
$CLAYER
  8
0
  9
$CELTYPE
  6
BYLAYER
  9
$CECOLOR
 62
   256
  9
$DIMSCALE
 40
1.0
  9
$DIMASZ
 40
3.0
  9
$DIMEXO
 40
2.0
  9
$DIMDLI
 40
0.38
  9
$DIMRND
 40
0.0
  9
$DIMDLE
 40
0.0
  9
$DIMEXE
 40
2.0
  9
$DIMTP
 40
0.0
  9
$DIMTM
 40
0.0
  9
$DIMTXT
 40
3.2000000000000002
  9
$DIMCEN
 40
0.0
  9
$DIMTSZ
 40
0.0
  9
$DIMTOL
 70
     0
  9
$DIMLIM
 70
     0
  9
$DIMTIH
 70
     0
  9
$DIMTOH
 70
     0
  9
$DIMSE1
 70
     0
  9
$DIMSE2
 70
     0
  9
$DIMTAD
 70
     1
  9
$DIMZIN
 70
     0
  9
$DIMBLK
  1

  9
$DIMASO
 70
     0
  9
$DIMSHO
 70
     0
  9
$DIMPOST
  1

  9
$DIMAPOST
  1

  9
$DIMALT
 70
     0
  9
$DIMALTD
 70
     2
  9
$DIMALTF
 40
25.399999999999999
  9
$DIMLFAC
 40
1.0
  9
$DIMTOFL
 70
     1
  9
$DIMTVP
 40
1.6000000000000001
  9
$DIMTIX
 70
     1
  9
$DIMSOXD
 70
     0
  9
$DIMSAH
 70
     0
  9
$DIMBLK1
  1

  9
$DIMBLK2
  1

  9
$DIMSTYLE
  2
STANDARD
  9
$DIMCLRD
 70
     0
  9
$DIMCLRE
 70
     0
  9
$DIMCLRT
 70
     0
  9
$DIMTFAC
 40
1.0
  9
$DIMGAP
 40
0.09
  9
$LUNITS
 70
     2
  9
$LUPREC
 70
     4
  9
$SKETCHINC
 40
0.1
  9
$FILLETRAD
 40
0.0
  9
$AUNITS
 70
     0
  9
$AUPREC
 70
     4
  9
$MENU
  1
E:\r13\win\SUPPORT\ACAD
  9
$ELEVATION
 40
0.0
  9
$PELEVATION
 40
0.0
  9
$THICKNESS
 40
0.0
  9
$LIMCHECK
 70
     0
  9
$BLIPMODE
 70
     0
  9
$CHAMFERA
 40
0.0
  9
$CHAMFERB
 40
0.0
  9
$SKPOLY
 70
     0
  9
$TDCREATE
 40
2449840.6513888892
  9
$TDUPDATE
 40
2456598.4973303359
  9
$TDINDWG
 40
0.2288992593
  9
$TDUSRTIMER
 40
0.2288992593
  9
$USRTIMER
 70
     1
  9
$ANGBASE
 50
0.0
  9
$ANGDIR
 70
     0
  9
$PDMODE
 70
     0
  9
$PDSIZE
 40
0.0
  9
$PLINEWID
 40
0.0
  9
$COORDS
 70
     1
  9
$SPLFRAME
 70
     0
  9
$SPLINETYPE
 70
     6
  9
$SPLINESEGS
 70
     8
  9
$ATTDIA
 70
     0
  9
$ATTREQ
 70
     1
  9
$HANDLING
 70
     1
  9
$HANDSEED
  5
55A
  9
$SURFTAB1
 70
     6
  9
$SURFTAB2
 70
     6
  9
$SURFTYPE
 70
     6
  9
$SURFU
 70
     6
  9
$SURFV
 70
     6
  9
$UCSNAME
  2

  9
$UCSORG
 10
0.0
 20
0.0
 30
0.0
  9
$UCSXDIR
 10
1.0
 20
0.0
 30
0.0
  9
$UCSYDIR
 10
0.0
 20
1.0
 30
0.0
  9
$PUCSNAME
  2

  9
$PUCSORG
 10
0.0
 20
0.0
 30
0.0
  9
$PUCSXDIR
 10
1.0
 20
0.0
 30
0.0
  9
$PUCSYDIR
 10
0.0
 20
1.0
 30
0.0
  9
$USERI1
 70
     0
  9
$USERI2
 70
     1
  9
$USERI3
 70
     0
  9
$USERI4
 70
     0
  9
$USERI5
 70
     0
  9
$USERR1
 40
0.0
  9
$USERR2
 40
0.0
  9
$USERR3
 40
0.0
  9
$USERR4
 40
0.0
  9
$USERR5
 40
0.0
  9
$WORLDVIEW
 70
     1
  9
$SHADEDGE
 70
     3
  9
$SHADEDIF
 70
    70
  9
$TILEMODE
 70
     1
  9
$MAXACTVP
 70
    16
  9
$PLIMCHECK
 70
     0
  9
$PEXTMIN
 10
1.0000000000000000E+020
 20
1.0000000000000000E+020
 30
1.0000000000000000E+020
  9
$PEXTMAX
 10
-1.0000000000000000E+020
 20
-1.0000000000000000E+020
 30
-1.0000000000000000E+020
  9
$PLIMMIN
 10
0.0
 20
0.0
  9
$PLIMMAX
 10
12.0
 20
9.0
  9
$UNITMODE
 70
     0
  9
$VISRETAIN
 70
     0
  9
$PLINEGEN
 70
     0
  9
$PSLTSCALE
 70
     0
  0
ENDSEC
  0
SECTION
  2
TABLES
  0
TABLE
  2
VPORT
 70
     1
  0
VPORT
  2
*ACTIVE
 70
     0
 10
0.0
 20
0.0
 11
1.0
 21
1.0
 12
195.0581083320873
 22
133.5127261426681
 13
0.0
 23
0.0
 14
5.0
 24
5.0
 15
10.0
 25
10.0
 16
0.0
 26
0.0
 36
1.0
 17
0.0
 27
0.0
 37
0.0
 40
275.42274993631997
 41
1.831871345029239
 42
50.0
 43
0.0
 44
0.0
 50
0.0
 51
0.0
 71
     0
 72
   500
 73
     1
 74
     0
 75
     0
 76
     0
 77
     0
 78
     2
  0
ENDTAB
  0
TABLE
  2
LTYPE
 70
     4
  0
LTYPE
  2
CONTINUOUS
 70
     0
  3
Solid Line
 72
    65
 73
     0
 40
0.0
  0
LTYPE
  2
CENTER
 70
     0
  3
____ _ ____ _ ____ _ ____ _ ____ _ ____ _ ____
 72
    65
 73
     4
 40
2.0
 49
1.25
 49
-0.25
 49
0.25
 49
-0.25
  0
LTYPE
  2
HIDDEN
 70
     0
  3
_ _ _ _ _ _ _ _ _ _ _ _ _ _ _ _ _ _ _ _ _ _ _
 72
    65
 73
     2
 40
0.375
 49
0.25
 49
-0.125
  0
LTYPE
  2
PHANTOM2
 70
     0
  3
Phantom (.5x) ___ _ _ ___ _ _ ___ _ _ ___ _ _
 72
    65
 73
     6
 40
1.25
 49
0.625
 49
-0.125
 49
0.125
 49
-0.125
 49
0.125
 49
-0.125
  0
ENDTAB
  0
TABLE
  2
LAYER
 70
     4
  0
LAYER
  2
0
 70
     0
 62
     7
  6
CONTINUOUS
  0
LAYER
  2
1
 70
     0
 62
     1
  6
CENTER
  0
LAYER
  2
2
 70
     0
 62
     2
  6
HIDDEN
  0
LAYER
  2
5
 70
     0
 62
     3
  6
PHANTOM2
  0
ENDTAB
  0
TABLE
  2
STYLE
 70
     2
  0
STYLE
  2
STANDARD
 70
     0
 40
0.0
 41
1.0
 50
0.0
 71
     0
 42
0.2
  3
TXT
  4
BIGFONT
  0
STYLE
  2
STANDARD1
 70
     0
 40
0.0
 41
1.0
 50
0.0
 71
     0
 42
3.0
  3
txt
  4

  0
ENDTAB
  0
TABLE
  2
VIEW
 70
     1
  0
VIEW
  2
ALL
 70
     0
 40
270.0
 10
220.99159663865549
 20
135.0
 41
0.0
 11
0.0
 21
0.0
 31
1.0
 12
0.0
 22
0.0
 32
0.0
 42
0.0
 43
0.0
 44
0.0
 50
0.0
 71
     0
  0
ENDTAB
  0
TABLE
  2
UCS
 70
     0
  0
ENDTAB
  0
TABLE
  2
APPID
 70
     3
  0
APPID
  2
ACAD
 70
     0
  0
APPID
  2
ACAD_MLEADERVER
 70
     0
  0
APPID
  2
ACAD_NAV_VCDISPLAY
 70
     0
  0
ENDTAB
  0
TABLE
  2
DIMSTYLE
 70
     1
  0
DIMSTYLE
  2
STANDARD
 70
     0
  3

  4

  5

  6

  7

 40
1.0
 41
0.18
 42
0.0625
 43
0.38
 44
0.18
 45
0.0
 46
0.0
 47
0.0
 48
0.0
140
0.18
141
0.09
142
0.0
143
25.399999999999999
144
1.0
145
0.0
146
1.0
147
0.09
 71
     0
 72
     0
 73
     1
 74
     1
 75
     0
 76
     0
 77
     0
 78
     0
170
     0
171
     2
172
     0
173
     0
174
     0
175
     0
176
     0
177
     0
178
     0
  0
ENDTAB
  0
ENDSEC
  0
SECTION
  2
BLOCKS
  0
BLOCK
  8
0
  2
$MODEL_SPACE
 70
     0
 10
0.0
 20
0.0
 30
0.0
  3
$MODEL_SPACE
  1

  0
ENDBLK
  5
9
  8
0
  0
BLOCK
 67
     1
  8
0
  2
$PAPER_SPACE
 70
     0
 10
0.0
 20
0.0
 30
0.0
  3
$PAPER_SPACE
  1

  0
ENDBLK
  5
F
 67
     1
  8
0
  0
ENDSEC
  0
SECTION
  2
ENTITIES
  0
LINE
  5
3DF
  8
0
 10
133.20080706925091
 20
37.494033346283629
 30
0.0
 11
114.20080768019849
 21
37.494033346283629
 31
0.0
  0
LINE
  5
3E0
  8
5
 10
64.200807307669379
 20
48.503652392335852
 30
0.0
 11
68.200807497659298
 21
50.813053505826069
 31
0.0
  0
LINE
  5
3E1
  8
0
 10
60.200807117679801
 20
50.81305350582614
 30
0.0
 11
41.700806413599821
 21
61.494033554899879
 31
0.0
  0
LINE
  5
3E2
  8
1
 10
123.7008073747248
 20
66.494033554899858
 30
0.0
 11
123.7008073747249
 21
32.494033346283601
 31
0.0
  0
LINE
  5
3E3
  8
0
 10
133.20080706925091
 20
37.494033346283629
 30
0.0
 11
133.20080706925091
 21
61.494033554899879
 31
0.0
  0
LINE
  5
3E4
  8
0
 10
114.20080768019849
 20
61.494033554899879
 30
0.0
 11
133.20080706925091
 21
61.494033554899879
 31
0.0
  0
LINE
  5
3E5
  8
0
 10
114.20080768019849
 20
37.494033346283629
 30
0.0
 11
114.20080768019849
 21
61.494033554899879
 31
0.0
  0
LINE
  5
3E6
  8
1
 10
64.200807307669606
 20
54.277155038633047
 30
0.0
 11
64.200807307669606
 21
32.494033346283658
 31
0.0
  0
LINE
  5
3E7
  8
2
 10
60.950807240614381
 20
41.994033152568527
 30
0.0
 11
60.950807240614381
 21
38.994033359322152
 31
0.0
  0
LINE
  5
3E8
  8
2
 10
67.450807374724832
 20
38.994033359322152
 30
0.0
 11
67.450807374724832
 21
41.994033152568527
 31
0.0
  0
LINE
  5
3E9
  8
2
 10
58.700807337471929
 20
51.679079192090228
 30
0.0
 11
58.700807307669614
 21
41.994033346283629
 31
0.0
  0
LINE
  5
3EA
  8
2
 10
69.700807307669606
 20
41.994033346283629
 30
0.0
 11
69.700807277867284
 21
51.679079192090228
 31
0.0
  0
LINE
  5
3EB
  8
2
 10
69.700807307669606
 20
41.994033346283629
 30
0.0
 11
58.700807307669614
 21
41.994033346283629
 31
0.0
  0
LINE
  5
3EC
  8
0
 10
70.200807359823557
 20
37.494033346283629
 30
0.0
 11
89.200807680198523
 21
37.494033346283629
 31
0.0
  0
LINE
  5
3ED
  8
0
 10
60.200807117679688
 20
47.994033204722598
 30
0.0
 11
68.200807497659298
 21
47.994033204722598
 31
0.0
  0
LINE
  5
3EE
  8
0
 10
60.200807117679688
 20
50.81305350582619
 30
0.0
 11
60.200807117679688
 21
47.994033204722598
 31
0.0
  0
LINE
  5
3EF
  8
5
 10
64.200807307669606
 20
48.503652392335852
 30
0.0
 11
60.200807117679688
 21
50.813053505826069
 31
0.0
  0
LINE
  5
3F0
  8
0
 10
41.700806413599821
 20
61.494033554899879
 30
0.0
 11
39.200806935140463
 21
61.494033554899879
 31
0.0
  0
LINE
  5
3F1
  8
0
 10
39.200806935140463
 20
61.494033554899879
 30
0.0
 11
39.200806935140463
 21
37.494033346283629
 31
0.0
  0
LINE
  5
3F2
  8
0
 10
39.200806935140463
 20
37.494033346283629
 30
0.0
 11
58.200807255515429
 21
37.494033346283629
 31
0.0
  0
LINE
  5
3F3
  8
0
 10
58.200807255515429
 20
37.494033346283629
 30
0.0
 11
58.200807255515429
 21
38.994033359322152
 31
0.0
  0
LINE
  5
3F4
  8
0
 10
58.200807255515429
 20
38.994033359322152
 30
0.0
 11
70.200807359823557
 21
38.994033359322152
 31
0.0
  0
LINE
  5
3F5
  8
0
 10
70.200807359823557
 20
38.994033359322152
 30
0.0
 11
70.200807359823557
 21
37.494033346283629
 31
0.0
  0
LINE
  5
3F6
  8
0
 10
89.200807680198523
 20
37.494033346283629
 30
0.0
 11
89.200807680198523
 21
61.494033554899879
 31
0.0
  0
LINE
  5
3F7
  8
0
 10
89.200807680198523
 20
61.494033554899879
 30
0.0
 11
86.700808201739164
 21
61.494033554899879
 31
0.0
  0
LINE
  5
3F8
  8
0
 10
86.700808201739164
 20
61.494033554899879
 30
0.0
 11
68.200807497659184
 21
50.81305350582619
 31
0.0
  0
LINE
  5
3F9
  8
0
 10
68.200807497659298
 20
47.994033204722598
 30
0.0
 11
68.200807497659298
 21
50.81305350582619
 31
0.0
  0
LINE
  5
3FB
  8
0
 10
39.200806935140463
 20
86.49403355490017
 30
0.0
 11
89.200807680198523
 21
86.494033554899787
 31
0.0
  0
LINE
  5
3FC
  8
0
 10
89.200807680198636
 20
105.49403294395211
 30
0.0
 11
39.200806935140577
 21
105.4940329439525
 31
0.0
  0
LINE
  5
3FD
  8
1
 10
64.200807307669606
 20
81.494033554899886
 30
0.0
 11
64.20080730766972
 21
110.4940329439524
 31
0.0
  0
LINE
  5
3FE
  8
1
 10
94.200807680198523
 20
95.994033249425897
 30
0.0
 11
34.200806935140349
 21
95.994033249426124
 31
0.0
  0
CIRCLE
  5
3FF
  8
0
 10
64.200807307669606
 20
95.994033249426266
 30
0.0
 40
3.25
  0
LINE
  5
400
  8
0
 10
60.200807117679688
 20
86.494033554900057
 30
0.0
 11
60.200807307669493
 21
92.219116031790847
 31
0.0
  0
LINE
  5
401
  8
0
 10
60.200807307669599
 20
99.768950467061586
 30
0.0
 11
60.200807117679801
 21
105.4940329439524
 31
0.0
  0
LINE
  5
402
  8
0
 10
39.200806935140463
 20
86.49403355490017
 30
0.0
 11
39.200806935140577
 21
105.4940329439525
 31
0.0
  0
LINE
  5
403
  8
0
 10
41.700806413599821
 20
86.494033554900113
 30
0.0
 11
41.700806413599942
 21
105.4940329439525
 31
0.0
  0
LINE
  5
404
  8
0
 10
68.200807497659412
 20
105.49403294395231
 30
0.0
 11
68.200807307669606
 21
99.768950467061543
 31
0.0
  0
LINE
  5
405
  8
0
 10
68.200807307669493
 20
92.219116031790804
 30
0.0
 11
68.200807497659298
 21
86.494033554899943
 31
0.0
  0
LINE
  5
406
  8
0
 10
86.700808201739164
 20
86.494033554899829
 30
0.0
 11
86.700808201739264
 21
105.49403294395221
 31
0.0
  0
LINE
  5
407
  8
0
 10
89.200807680198523
 20
86.494033554899787
 30
0.0
 11
89.200807680198636
 21
105.49403294395211
 31
0.0
  0
CIRCLE
  5
40F
  8
0
 10
64.200807307669663
 20
95.994033249426167
 30
0.0
 40
5.5
  0
TEXT
  5
4CA
  8
0
 62
     3
 10
0.0
 20
0.0
 30
0.0
 40
10.0
  1
CP112-10001
  7
STANDARD1
  0
ENDSEC
  0
EOF
