  0
SECTION
  2
HEADER
  9
$ACADVER
  1
AC1009
  9
$INSBASE
 10
0.0
 20
0.0
 30
0.0
  9
$EXTMIN
 10
0.0
 20
-2.960436562073669
 30
0.0
  9
$EXTMAX
 10
95.532060027285127
 20
166.4999989420175
 30
0.0
  9
$LIMMIN
 10
0.0
 20
0.0
  9
$LIMMAX
 10
12.0
 20
9.0
  9
$ORTHOMODE
 70
     1
  9
$REGENMODE
 70
     1
  9
$FILLMODE
 70
     1
  9
$QTEXTMODE
 70
     0
  9
$MIRRTEXT
 70
     0
  9
$DRAGMODE
 70
     2
  9
$LTSCALE
 40
5.0
  9
$OSMODE
 70
    37
  9
$ATTMODE
 70
     1
  9
$TEXTSIZE
 40
0.2
  9
$TRACEWID
 40
0.05
  9
$TEXTSTYLE
  7
STANDARD
  9
$CLAYER
  8
0
  9
$CELTYPE
  6
BYLAYER
  9
$CECOLOR
 62
   256
  9
$DIMSCALE
 40
1.0
  9
$DIMASZ
 40
0.18
  9
$DIMEXO
 40
0.0625
  9
$DIMDLI
 40
0.38
  9
$DIMRND
 40
0.0
  9
$DIMDLE
 40
0.0
  9
$DIMEXE
 40
0.18
  9
$DIMTP
 40
0.0
  9
$DIMTM
 40
0.0
  9
$DIMTXT
 40
2.6000000000000001
  9
$DIMCEN
 40
0.09
  9
$DIMTSZ
 40
0.0
  9
$DIMTOL
 70
     0
  9
$DIMLIM
 70
     0
  9
$DIMTIH
 70
     0
  9
$DIMTOH
 70
     0
  9
$DIMSE1
 70
     0
  9
$DIMSE2
 70
     0
  9
$DIMTAD
 70
     1
  9
$DIMZIN
 70
     8
  9
$DIMBLK
  1

  9
$DIMASO
 70
     1
  9
$DIMSHO
 70
     1
  9
$DIMPOST
  1

  9
$DIMAPOST
  1

  9
$DIMALT
 70
     0
  9
$DIMALTD
 70
     2
  9
$DIMALTF
 40
25.399999999999999
  9
$DIMLFAC
 40
1.0
  9
$DIMTOFL
 70
     0
  9
$DIMTVP
 40
0.0
  9
$DIMTIX
 70
     0
  9
$DIMSOXD
 70
     0
  9
$DIMSAH
 70
     0
  9
$DIMBLK1
  1

  9
$DIMBLK2
  1

  9
$DIMSTYLE
  2
STANDARD
  9
$DIMCLRD
 70
     0
  9
$DIMCLRE
 70
     0
  9
$DIMCLRT
 70
     0
  9
$DIMTFAC
 40
1.0
  9
$DIMGAP
 40
0.09
  9
$LUNITS
 70
     2
  9
$LUPREC
 70
     1
  9
$SKETCHINC
 40
0.1
  9
$FILLETRAD
 40
0.0
  9
$AUNITS
 70
     0
  9
$AUPREC
 70
     0
  9
$MENU
  1
.
  9
$ELEVATION
 40
0.0
  9
$PELEVATION
 40
0.0
  9
$THICKNESS
 40
0.0
  9
$LIMCHECK
 70
     0
  9
$BLIPMODE
 70
     0
  9
$CHAMFERA
 40
0.0
  9
$CHAMFERB
 40
0.0
  9
$SKPOLY
 70
     0
  9
$TDCREATE
 40
2453083.4120647679
  9
$TDUPDATE
 40
2456927.6946775932
  9
$TDINDWG
 40
0.6507452315
  9
$TDUSRTIMER
 40
0.6507451157
  9
$USRTIMER
 70
     1
  9
$ANGBASE
 50
0.0
  9
$ANGDIR
 70
     0
  9
$PDMODE
 70
     0
  9
$PDSIZE
 40
0.0
  9
$PLINEWID
 40
0.0
  9
$COORDS
 70
     1
  9
$SPLFRAME
 70
     0
  9
$SPLINETYPE
 70
     6
  9
$SPLINESEGS
 70
     8
  9
$ATTDIA
 70
     0
  9
$ATTREQ
 70
     1
  9
$HANDLING
 70
     1
  9
$HANDSEED
  5
709F
  9
$SURFTAB1
 70
     6
  9
$SURFTAB2
 70
     6
  9
$SURFTYPE
 70
     6
  9
$SURFU
 70
     6
  9
$SURFV
 70
     6
  9
$UCSNAME
  2

  9
$UCSORG
 10
0.0
 20
0.0
 30
0.0
  9
$UCSXDIR
 10
1.0
 20
0.0
 30
0.0
  9
$UCSYDIR
 10
0.0
 20
1.0
 30
0.0
  9
$PUCSNAME
  2

  9
$PUCSORG
 10
0.0
 20
0.0
 30
0.0
  9
$PUCSXDIR
 10
1.0
 20
0.0
 30
0.0
  9
$PUCSYDIR
 10
0.0
 20
1.0
 30
0.0
  9
$USERI1
 70
     0
  9
$USERI2
 70
     1
  9
$USERI3
 70
     0
  9
$USERI4
 70
     0
  9
$USERI5
 70
     0
  9
$USERR1
 40
0.0
  9
$USERR2
 40
0.0
  9
$USERR3
 40
0.0
  9
$USERR4
 40
0.0
  9
$USERR5
 40
0.0
  9
$WORLDVIEW
 70
     1
  9
$SHADEDGE
 70
     3
  9
$SHADEDIF
 70
    70
  9
$TILEMODE
 70
     1
  9
$MAXACTVP
 70
    64
  9
$PLIMCHECK
 70
     0
  9
$PEXTMIN
 10
0.0
 20
0.0
 30
0.0
  9
$PEXTMAX
 10
0.0
 20
0.0
 30
0.0
  9
$PLIMMIN
 10
0.0
 20
0.0
  9
$PLIMMAX
 10
12.0
 20
9.0
  9
$UNITMODE
 70
     0
  9
$VISRETAIN
 70
     1
  9
$PLINEGEN
 70
     0
  9
$PSLTSCALE
 70
     1
  0
ENDSEC
  0
SECTION
  2
TABLES
  0
TABLE
  2
VPORT
 70
     1
  0
VPORT
  2
*ACTIVE
 70
     0
 10
0.0
 20
0.0
 11
1.0
 21
1.0
 12
165.8205841446453
 22
95.0
 13
0.0
 23
0.0
 14
0.5
 24
0.5
 15
0.5
 25
0.5
 16
0.0
 26
0.0
 36
1.0
 17
0.0
 27
0.0
 37
0.0
 40
190.0
 41
1.7454798331015291
 42
50.0
 43
0.0
 44
0.0
 50
0.0
 51
0.0
 71
     0
 72
  1000
 73
     1
 74
     2
 75
     0
 76
     0
 77
     0
 78
     0
  0
ENDTAB
  0
TABLE
  2
LTYPE
 70
     3
  0
LTYPE
  2
CONTINUOUS
 70
     0
  3
Solid Line
 72
    65
 73
     0
 40
0.0
  0
LTYPE
  2
CENTER
 70
     0
  3
____ _ ____ _ ____ _ ____ _ ____ _ ____ _ ____
 72
    65
 73
     4
 40
2.0
 49
1.25
 49
-0.25
 49
0.25
 49
-0.25
  0
LTYPE
  2
PHANTOM2
 70
     0
  3
___ _ _ ___ _ _ ___ _ _ ___ _ _
 72
    65
 73
     6
 40
1.25
 49
0.625
 49
-0.125
 49
0.125
 49
-0.125
 49
0.125
 49
-0.125
  0
ENDTAB
  0
TABLE
  2
LAYER
 70
     4
  0
LAYER
  2
0
 70
     0
 62
     7
  6
CONTINUOUS
  0
LAYER
  2
1
 70
     0
 62
     1
  6
CENTER
  0
LAYER
  2
DEFPOINTS
 70
     0
 62
     7
  6
CONTINUOUS
  0
LAYER
  2
3
 70
     0
 62
     3
  6
CONTINUOUS
  0
ENDTAB
  0
TABLE
  2
STYLE
 70
     2
  0
STYLE
  2
STANDARD
 70
     0
 40
0.0
 41
1.0
 50
0.0
 71
     0
 42
0.2
  3
simplex.shx
  4
bigfont.shx
  0
STYLE
  2
STANDARD1
 70
     0
 40
0.0
 41
1.0
 50
0.0
 71
     0
 42
3.0
  3
txt
  4

  0
ENDTAB
  0
TABLE
  2
VIEW
 70
     0
  0
ENDTAB
  0
TABLE
  2
UCS
 70
     0
  0
ENDTAB
  0
TABLE
  2
APPID
 70
     5
  0
APPID
  2
ACAD
 70
     0
  0
APPID
  2
ACAD_MLEADERVER
 70
     0
  0
APPID
  2
ACAD_NAV_VCDISPLAY
 70
     0
  0
APPID
  2
ACAD_EXEMPT_FROM_CAD_STANDARDS
 70
     0
  0
APPID
  2
ACAD_DSTYLE_DIMRADIAL_EXTENSION
 70
     0
  0
ENDTAB
  0
TABLE
  2
DIMSTYLE
 70
     1
  0
DIMSTYLE
  2
STANDARD
 70
     0
  3

  4

  5

  6

  7

 40
1.0
 41
0.18
 42
0.0625
 43
0.38
 44
0.18
 45
0.0
 46
0.0
 47
0.0
 48
0.0
140
2.6000000000000001
141
0.09
142
0.0
143
25.399999999999999
144
1.0
145
0.0
146
1.0
147
0.09
 71
     0
 72
     0
 73
     0
 74
     0
 75
     0
 76
     0
 77
     1
 78
     8
170
     0
171
     2
172
     0
173
     0
174
     0
175
     0
176
     0
177
     0
178
     0
  0
ENDTAB
  0
ENDSEC
  0
SECTION
  2
BLOCKS
  0
BLOCK
  8
0
  2
$MODEL_SPACE
 70
     0
 10
0.0
 20
0.0
 30
0.0
  3
$MODEL_SPACE
  1

  0
ENDBLK
  5
21
  8
0
  0
BLOCK
 67
     1
  8
0
  2
$PAPER_SPACE
 70
     0
 10
0.0
 20
0.0
 30
0.0
  3
$PAPER_SPACE
  1

  0
ENDBLK
  5
5B
 67
     1
  8
0
  0
ENDSEC
  0
SECTION
  2
ENTITIES
  0
TEXT
  5
1F01
  8
0
 62
     3
 10
0.0
 20
0.0
 30
0.0
 40
10.0
  1
CP127-06501B
  7
STANDARD1
  0
LINE
  5
69E2
  8
0
 10
57.728163867563808
 20
150.2499989326999
 30
0.0
 11
59.4890821653687
 21
153.2999988924756
 31
0.0
  0
LINE
  5
69E4
  8
0
 10
64.771837026505864
 20
150.24999895133519
 30
0.0
 11
63.010918728700972
 21
147.19999899155951
 31
0.0
  0
CIRCLE
  5
69E6
  8
0
 10
61.250000447034829
 20
150.2499989420175
 30
0.0
 40
11.25
  0
ARC
  5
69EC
  8
0
 10
51.000000447034843
 20
88.297674190685584
 30
0.0
 40
1.0
 50
180.0
 51
196.27846222318411
  0
ARC
  5
69ED
  8
0
 10
71.500000447034779
 20
88.297674190685584
 30
0.0
 40
1.000000000000028
 50
343.72153777681558
 51
0.0
  0
LINE
  5
69EE
  8
0
 10
50.0
 20
88.850000128149986
 30
0.0
 11
50.0
 21
88.297673687338815
 31
0.0
  0
LINE
  5
69EF
  8
0
 10
72.500000894069672
 20
88.297673687338815
 30
0.0
 11
72.500000894069672
 21
88.850000128149986
 31
0.0
  0
LINE
  5
69F0
  8
0
 10
72.500000894069672
 20
88.850000128149986
 30
0.0
 11
72.350000217556953
 21
88.999998942017555
 31
0.0
  0
LINE
  5
69F1
  8
0
 10
50.150000676512711
 20
88.999998942017555
 30
0.0
 11
50.0
 21
88.850000128149986
 31
0.0
  0
ARC
  5
69F2
  8
0
 10
-5.5808310284567142
 20
110.8062374288594
 30
0.0
 40
81.299999999999983
 50
334.74049171811151
 51
343.72153777681558
  0
ARC
  5
69F3
  8
0
 10
128.08083192252639
 20
110.8062374288594
 30
0.0
 40
81.300000000000026
 50
196.27846222318411
 51
205.2595082818909
  0
ARC
  5
69F4
  8
0
 10
53.65000044703482
 20
75.68727779354316
 30
0.0
 40
1.0000000000000111
 50
0.0
 51
25.259508281890898
  0
ARC
  5
69F5
  8
0
 10
68.850000447034802
 20
75.68727779354316
 30
0.0
 40
1.0
 50
154.7404917181091
 51
180.0
  0
LINE
  5
69F6
  8
0
 10
54.650000482797623
 20
60.499999800231301
 30
0.0
 11
55.150000564754002
 21
59.999999776482582
 31
0.0
  0
LINE
  5
69F7
  8
0
 10
67.350000329315662
 20
59.999999776482582
 30
0.0
 11
67.850000411272035
 21
60.499999800231301
 31
0.0
  0
LINE
  5
69F8
  8
0
 10
54.650000482797623
 20
75.687277317047105
 30
0.0
 11
54.650000482797623
 21
60.499999800231301
 31
0.0
  0
LINE
  5
69F9
  8
0
 10
67.850000411272035
 20
60.499999800231301
 30
0.0
 11
67.850000411272035
 21
75.687277317047105
 31
0.0
  0
LINE
  5
69FA
  8
0
 10
57.250000257045031
 20
51.499999314546578
 30
0.0
 11
58.75000050291419
 21
50.0
 31
0.0
  0
LINE
  5
69FB
  8
0
 10
63.750000391155481
 20
50.0
 30
0.0
 11
65.250000637024641
 21
51.499999314546578
 31
0.0
  0
LINE
  5
69FC
  8
0
 10
57.250000257045031
 20
57.499999832361929
 30
0.0
 11
57.250000257045031
 21
51.499999314546578
 31
0.0
  0
LINE
  5
69FD
  8
0
 10
65.250000637024641
 20
51.499999314546578
 30
0.0
 11
65.250000637024641
 21
57.499999832361929
 31
0.0
  0
ARC
  5
69FE
  8
0
 10
57.500000447034829
 20
57.999999776482582
 30
0.0
 40
0.5
 50
270.0
 51
0.0
  0
ARC
  5
69FF
  8
0
 10
65.000000447034836
 20
57.999999776482582
 30
0.0
 40
0.5
 50
180.0
 51
270.0
  0
ARC
  5
6A00
  8
0
 10
57.500000447034829
 20
59.499999776482582
 30
0.0
 40
0.5
 50
0.0
 51
90.0
  0
ARC
  5
6A01
  8
0
 10
65.000000447034836
 20
59.499999776482582
 30
0.0
 40
0.5
 50
90.0
 51
180.0
  0
LINE
  5
6A02
  8
0
 10
58.00000037997961
 20
59.499999752733849
 30
0.0
 11
58.00000037997961
 21
57.999999681487672
 31
0.0
  0
LINE
  5
6A03
  8
0
 10
64.500000514090061
 20
57.999999681487672
 30
0.0
 11
64.500000514090061
 21
59.499999752733849
 31
0.0
  0
LINE
  5
6A04
  8
0
 10
50.150000676512711
 20
88.999998942017555
 30
0.0
 11
72.350000217556953
 21
88.999998942017555
 31
0.0
  0
LINE
  5
6A05
  8
0
 10
54.650000482797623
 20
60.499999800231301
 30
0.0
 11
67.850000411272035
 21
60.499999800231301
 31
0.0
  0
LINE
  5
6A06
  8
0
 10
67.350000329315662
 20
59.999999776482582
 30
0.0
 11
55.150000564754002
 21
59.999999776482582
 31
0.0
  0
LINE
  5
6A07
  8
0
 10
57.250000257045031
 20
51.499999314546578
 30
0.0
 11
65.250000637024641
 21
51.499999314546578
 31
0.0
  0
LINE
  5
6A08
  8
0
 10
63.750000391155481
 20
50.0
 30
0.0
 11
58.75000050291419
 21
50.0
 31
0.0
  0
LINE
  5
6A09
  8
0
 10
57.250000257045031
 20
57.499999832361929
 30
0.0
 11
65.250000637024641
 21
57.499999832361929
 31
0.0
  0
LINE
  5
6A0D
  8
0
 10
54.650000482797623
 20
75.687277317047105
 30
0.0
 11
67.850000411272035
 21
75.687277317047105
 31
0.0
  0
LINE
  5
6A4E
  8
3
 10
57.800000486895442
 20
57.599999662488692
 30
0.0
 11
57.800000486895442
 21
50.94999931752681
 31
0.0
  0
LINE
  5
6A4F
  8
3
 10
64.700000407174215
 20
50.94999931752681
 30
0.0
 11
64.700000407174215
 21
57.599999662488692
 31
0.0
  0
LINE
  5
6F28
  8
0
 10
63.010918728700972
 20
147.19999899155951
 30
0.0
 11
59.489082149229937
 21
147.19999898224171
 31
0.0
  0
LINE
  5
6F29
  8
0
 10
59.489082149229937
 20
147.19999898224171
 30
0.0
 11
57.728163867563808
 21
150.2499989326999
 31
0.0
  0
LINE
  5
6F2A
  8
0
 10
64.771837026505864
 20
150.24999895133519
 30
0.0
 11
63.010918744839721
 21
153.29999890179329
 31
0.0
  0
LINE
  5
6F2B
  8
0
 10
63.010918744839721
 20
153.29999890179329
 30
0.0
 11
59.4890821653687
 21
153.2999988924756
 31
0.0
  0
LINE
  5
6F2D
  8
1
 10
61.250000447034829
 20
166.4999989420175
 30
0.0
 11
61.250000447034829
 21
133.9999989420175
 31
0.0
  0
LINE
  5
6F2E
  8
1
 10
77.500000447034836
 20
150.2499989420175
 30
0.0
 11
45.000000447034829
 21
150.2499989420175
 31
0.0
  0
LINE
  5
6F2F
  8
1
 10
61.250000447034829
 20
93.999998942017555
 30
0.0
 11
61.250000447034829
 21
45.0
 31
0.0
  0
ENDSEC
  0
EOF
