  0
SECTION
  2
HEADER
  9
$ACADVER
  1
AC1009
  9
$INSBASE
 10
0.0
 20
0.0
 30
0.0
  9
$EXTMIN
 10
0.0
 20
-2.960436562073669
 30
0.0
  9
$EXTMAX
 10
95.532060027285127
 20
178.00000008940691
 30
0.0
  9
$LIMMIN
 10
0.0
 20
0.0
  9
$LIMMAX
 10
12.0
 20
9.0
  9
$ORTHOMODE
 70
     1
  9
$REGENMODE
 70
     1
  9
$FILLMODE
 70
     1
  9
$QTEXTMODE
 70
     0
  9
$MIRRTEXT
 70
     0
  9
$DRAGMODE
 70
     2
  9
$LTSCALE
 40
5.0
  9
$OSMODE
 70
    37
  9
$ATTMODE
 70
     1
  9
$TEXTSIZE
 40
0.2
  9
$TRACEWID
 40
0.05
  9
$TEXTSTYLE
  7
STANDARD
  9
$CLAYER
  8
0
  9
$CELTYPE
  6
BYLAYER
  9
$CECOLOR
 62
   256
  9
$DIMSCALE
 40
1.0
  9
$DIMASZ
 40
0.18
  9
$DIMEXO
 40
0.0625
  9
$DIMDLI
 40
0.38
  9
$DIMRND
 40
0.0
  9
$DIMDLE
 40
0.0
  9
$DIMEXE
 40
0.18
  9
$DIMTP
 40
0.0
  9
$DIMTM
 40
0.0
  9
$DIMTXT
 40
2.6000000000000001
  9
$DIMCEN
 40
0.09
  9
$DIMTSZ
 40
0.0
  9
$DIMTOL
 70
     0
  9
$DIMLIM
 70
     0
  9
$DIMTIH
 70
     0
  9
$DIMTOH
 70
     0
  9
$DIMSE1
 70
     0
  9
$DIMSE2
 70
     0
  9
$DIMTAD
 70
     1
  9
$DIMZIN
 70
     8
  9
$DIMBLK
  1

  9
$DIMASO
 70
     1
  9
$DIMSHO
 70
     1
  9
$DIMPOST
  1

  9
$DIMAPOST
  1

  9
$DIMALT
 70
     0
  9
$DIMALTD
 70
     2
  9
$DIMALTF
 40
25.399999999999999
  9
$DIMLFAC
 40
1.0
  9
$DIMTOFL
 70
     0
  9
$DIMTVP
 40
0.0
  9
$DIMTIX
 70
     0
  9
$DIMSOXD
 70
     0
  9
$DIMSAH
 70
     0
  9
$DIMBLK1
  1

  9
$DIMBLK2
  1

  9
$DIMSTYLE
  2
STANDARD
  9
$DIMCLRD
 70
     0
  9
$DIMCLRE
 70
     0
  9
$DIMCLRT
 70
     0
  9
$DIMTFAC
 40
1.0
  9
$DIMGAP
 40
0.09
  9
$LUNITS
 70
     2
  9
$LUPREC
 70
     1
  9
$SKETCHINC
 40
0.1
  9
$FILLETRAD
 40
0.0
  9
$AUNITS
 70
     0
  9
$AUPREC
 70
     0
  9
$MENU
  1
.
  9
$ELEVATION
 40
0.0
  9
$PELEVATION
 40
0.0
  9
$THICKNESS
 40
0.0
  9
$LIMCHECK
 70
     0
  9
$BLIPMODE
 70
     0
  9
$CHAMFERA
 40
0.0
  9
$CHAMFERB
 40
0.0
  9
$SKPOLY
 70
     0
  9
$TDCREATE
 40
2453083.4120647679
  9
$TDUPDATE
 40
2456927.6946943868
  9
$TDINDWG
 40
0.6482393171000001
  9
$TDUSRTIMER
 40
0.6482392014
  9
$USRTIMER
 70
     1
  9
$ANGBASE
 50
0.0
  9
$ANGDIR
 70
     0
  9
$PDMODE
 70
     0
  9
$PDSIZE
 40
0.0
  9
$PLINEWID
 40
0.0
  9
$COORDS
 70
     1
  9
$SPLFRAME
 70
     0
  9
$SPLINETYPE
 70
     6
  9
$SPLINESEGS
 70
     8
  9
$ATTDIA
 70
     0
  9
$ATTREQ
 70
     1
  9
$HANDLING
 70
     1
  9
$HANDSEED
  5
709F
  9
$SURFTAB1
 70
     6
  9
$SURFTAB2
 70
     6
  9
$SURFTYPE
 70
     6
  9
$SURFU
 70
     6
  9
$SURFV
 70
     6
  9
$UCSNAME
  2

  9
$UCSORG
 10
0.0
 20
0.0
 30
0.0
  9
$UCSXDIR
 10
1.0
 20
0.0
 30
0.0
  9
$UCSYDIR
 10
0.0
 20
1.0
 30
0.0
  9
$PUCSNAME
  2

  9
$PUCSORG
 10
0.0
 20
0.0
 30
0.0
  9
$PUCSXDIR
 10
1.0
 20
0.0
 30
0.0
  9
$PUCSYDIR
 10
0.0
 20
1.0
 30
0.0
  9
$USERI1
 70
     0
  9
$USERI2
 70
     1
  9
$USERI3
 70
     0
  9
$USERI4
 70
     0
  9
$USERI5
 70
     0
  9
$USERR1
 40
0.0
  9
$USERR2
 40
0.0
  9
$USERR3
 40
0.0
  9
$USERR4
 40
0.0
  9
$USERR5
 40
0.0
  9
$WORLDVIEW
 70
     1
  9
$SHADEDGE
 70
     3
  9
$SHADEDIF
 70
    70
  9
$TILEMODE
 70
     1
  9
$MAXACTVP
 70
    64
  9
$PLIMCHECK
 70
     0
  9
$PEXTMIN
 10
0.0
 20
0.0
 30
0.0
  9
$PEXTMAX
 10
0.0
 20
0.0
 30
0.0
  9
$PLIMMIN
 10
0.0
 20
0.0
  9
$PLIMMAX
 10
12.0
 20
9.0
  9
$UNITMODE
 70
     0
  9
$VISRETAIN
 70
     1
  9
$PLINEGEN
 70
     0
  9
$PSLTSCALE
 70
     1
  0
ENDSEC
  0
SECTION
  2
TABLES
  0
TABLE
  2
VPORT
 70
     1
  0
VPORT
  2
*ACTIVE
 70
     0
 10
0.0
 20
0.0
 11
1.0
 21
1.0
 12
165.8205841446453
 22
95.0
 13
0.0
 23
0.0
 14
0.5
 24
0.5
 15
0.5
 25
0.5
 16
0.0
 26
0.0
 36
1.0
 17
0.0
 27
0.0
 37
0.0
 40
190.0
 41
1.7454798331015291
 42
50.0
 43
0.0
 44
0.0
 50
0.0
 51
0.0
 71
     0
 72
  1000
 73
     1
 74
     2
 75
     0
 76
     0
 77
     0
 78
     0
  0
ENDTAB
  0
TABLE
  2
LTYPE
 70
     3
  0
LTYPE
  2
CONTINUOUS
 70
     0
  3
Solid Line
 72
    65
 73
     0
 40
0.0
  0
LTYPE
  2
CENTER
 70
     0
  3
____ _ ____ _ ____ _ ____ _ ____ _ ____ _ ____
 72
    65
 73
     4
 40
2.0
 49
1.25
 49
-0.25
 49
0.25
 49
-0.25
  0
LTYPE
  2
PHANTOM2
 70
     0
  3
___ _ _ ___ _ _ ___ _ _ ___ _ _
 72
    65
 73
     6
 40
1.25
 49
0.625
 49
-0.125
 49
0.125
 49
-0.125
 49
0.125
 49
-0.125
  0
ENDTAB
  0
TABLE
  2
LAYER
 70
     4
  0
LAYER
  2
0
 70
     0
 62
     7
  6
CONTINUOUS
  0
LAYER
  2
1
 70
     0
 62
     1
  6
CENTER
  0
LAYER
  2
DEFPOINTS
 70
     0
 62
     7
  6
CONTINUOUS
  0
LAYER
  2
3
 70
     0
 62
     3
  6
CONTINUOUS
  0
ENDTAB
  0
TABLE
  2
STYLE
 70
     2
  0
STYLE
  2
STANDARD
 70
     0
 40
0.0
 41
1.0
 50
0.0
 71
     0
 42
0.2
  3
simplex.shx
  4
bigfont.shx
  0
STYLE
  2
STANDARD1
 70
     0
 40
0.0
 41
1.0
 50
0.0
 71
     0
 42
3.0
  3
txt
  4

  0
ENDTAB
  0
TABLE
  2
VIEW
 70
     0
  0
ENDTAB
  0
TABLE
  2
UCS
 70
     0
  0
ENDTAB
  0
TABLE
  2
APPID
 70
     5
  0
APPID
  2
ACAD
 70
     0
  0
APPID
  2
ACAD_MLEADERVER
 70
     0
  0
APPID
  2
ACAD_NAV_VCDISPLAY
 70
     0
  0
APPID
  2
ACAD_EXEMPT_FROM_CAD_STANDARDS
 70
     0
  0
APPID
  2
ACAD_DSTYLE_DIMRADIAL_EXTENSION
 70
     0
  0
ENDTAB
  0
TABLE
  2
DIMSTYLE
 70
     1
  0
DIMSTYLE
  2
STANDARD
 70
     0
  3

  4

  5

  6

  7

 40
1.0
 41
0.18
 42
0.0625
 43
0.38
 44
0.18
 45
0.0
 46
0.0
 47
0.0
 48
0.0
140
2.6000000000000001
141
0.09
142
0.0
143
25.399999999999999
144
1.0
145
0.0
146
1.0
147
0.09
 71
     0
 72
     0
 73
     0
 74
     0
 75
     0
 76
     0
 77
     1
 78
     8
170
     0
171
     2
172
     0
173
     0
174
     0
175
     0
176
     0
177
     0
178
     0
  0
ENDTAB
  0
ENDSEC
  0
SECTION
  2
BLOCKS
  0
BLOCK
  8
0
  2
$MODEL_SPACE
 70
     0
 10
0.0
 20
0.0
 30
0.0
  3
$MODEL_SPACE
  1

  0
ENDBLK
  5
21
  8
0
  0
BLOCK
 67
     1
  8
0
  2
$PAPER_SPACE
 70
     0
 10
0.0
 20
0.0
 30
0.0
  3
$PAPER_SPACE
  1

  0
ENDBLK
  5
5B
 67
     1
  8
0
  0
ENDSEC
  0
SECTION
  2
ENTITIES
  0
TEXT
  5
1F01
  8
0
 62
     3
 10
0.0
 20
0.0
 30
0.0
 40
10.0
  1
CP127-09001B
  7
STANDARD1
  0
LINE
  5
6CE6
  8
0
 10
65.838269045838615
 20
163.55000011688
 30
0.0
 11
68.176537607127329
 21
159.50000016698701
 31
0.0
  0
LINE
  5
6CE8
  8
0
 10
61.161731654515947
 20
155.45000006193379
 30
0.0
 11
58.823463093227232
 21
159.50000001182681
 31
0.0
  0
CIRCLE
  5
6CEA
  8
0
 10
63.500000350177281
 20
159.50000008940691
 30
0.0
 40
13.5
  0
ARC
  5
6CF0
  8
0
 10
51.000000350177281
 20
95.323468857290777
 30
0.0
 40
1.0000000000000191
 50
180.0
 51
196.76068642075089
  0
ARC
  5
6CF1
  8
0
 10
76.000000350177274
 20
95.323468857290777
 30
0.0
 40
1.0000000000000191
 50
343.23931357924909
 51
0.0
  0
LINE
  5
6CF2
  8
0
 10
50.0
 20
95.850001275539384
 30
0.0
 11
50.0
 21
95.323468744754791
 31
0.0
  0
LINE
  5
6CF3
  8
0
 10
77.000000700354576
 20
95.323468744754791
 30
0.0
 11
77.000000700354576
 21
95.850001275539384
 31
0.0
  0
LINE
  5
6CF4
  8
0
 10
77.000000700354576
 20
95.850001275539384
 30
0.0
 11
76.850000023841844
 21
96.000000089406953
 31
0.0
  0
LINE
  5
6CF5
  8
0
 10
50.150000676512711
 20
96.000000089406953
 30
0.0
 11
50.0
 21
95.850001275539384
 31
0.0
  0
ARC
  5
6CF6
  8
0
 10
-30.76321112810081
 20
127.4772660645332
 30
0.0
 40
112.5
 50
335.47883625529983
 51
343.23931357924909
  0
ARC
  5
6CF7
  8
0
 10
157.76321182845541
 20
127.4772660645332
 30
0.0
 40
112.5
 50
196.76068642075089
 51
204.5211637447002
  0
ARC
  5
6CF8
  8
0
 10
54.500000350177281
 20
80.371436752308796
 30
0.0
 40
1.0000000000000211
 50
0.0
 51
24.52116374470026
  0
ARC
  5
6CF9
  8
0
 10
72.500000350177288
 20
80.371436752308796
 30
0.0
 40
1.000000000000008
 50
155.47883625529971
 51
180.0
  0
LINE
  5
6CFA
  8
0
 10
55.499999970197671
 20
61.499999964144081
 30
0.0
 11
56.000000517815351
 21
60.999999940395348
 31
0.0
  0
LINE
  5
6CFB
  8
0
 10
71.000000182539225
 20
60.999999940395348
 30
0.0
 11
71.500000730156884
 21
61.499999964144081
 31
0.0
  0
LINE
  5
6CFC
  8
0
 10
55.499999970197671
 20
80.371436849236474
 30
0.0
 11
55.499999970197671
 21
61.499999964144081
 31
0.0
  0
LINE
  5
6CFD
  8
0
 10
71.500000730156884
 20
61.499999964144081
 30
0.0
 11
71.500000730156884
 21
80.371436849236474
 31
0.0
  0
LINE
  5
6CFE
  8
0
 10
58.50000046193599
 20
51.500000245869153
 30
0.0
 11
60.000000242143862
 21
50.0
 31
0.0
  0
LINE
  5
6CFF
  8
0
 10
67.000000458210707
 20
50.0
 30
0.0
 11
68.500000238418565
 21
51.500000245869153
 31
0.0
  0
LINE
  5
6D00
  8
0
 10
58.50000046193599
 20
57.999999914318323
 30
0.0
 11
58.50000046193599
 21
51.500000245869153
 31
0.0
  0
LINE
  5
6D01
  8
0
 10
68.500000238418565
 20
51.500000245869153
 30
0.0
 11
68.500000238418565
 21
57.999999914318323
 31
0.0
  0
ARC
  5
6D02
  8
0
 10
59.000000350177281
 20
58.499999940395348
 30
0.0
 40
0.5
 50
270.0
 51
0.0
  0
ARC
  5
6D03
  8
0
 10
68.000000350177274
 20
58.499999940395348
 30
0.0
 40
0.5
 50
180.0
 51
270.0
  0
ARC
  5
6D04
  8
0
 10
59.000000350177281
 20
60.499999940395348
 30
0.0
 40
0.5
 50
0.0
 51
90.0
  0
ARC
  5
6D05
  8
0
 10
68.000000350177274
 20
60.499999940395348
 30
0.0
 40
0.5
 50
90.0
 51
180.0
  0
LINE
  5
6D06
  8
0
 10
59.500000160187483
 20
60.499999916646622
 30
0.0
 11
59.500000160187483
 21
58.499999996274703
 31
0.0
  0
LINE
  5
6D07
  8
0
 10
67.500000540167093
 20
58.499999996274703
 30
0.0
 11
67.500000540167093
 21
60.499999916646622
 31
0.0
  0
LINE
  5
6D08
  8
0
 10
50.150000676512711
 20
96.000000089406953
 30
0.0
 11
76.850000023841844
 21
96.000000089406953
 31
0.0
  0
LINE
  5
6D09
  8
0
 10
55.499999970197671
 20
61.499999964144081
 30
0.0
 11
71.500000730156884
 21
61.499999964144081
 31
0.0
  0
LINE
  5
6D0A
  8
0
 10
71.000000182539225
 20
60.999999940395348
 30
0.0
 11
56.000000517815351
 21
60.999999940395348
 31
0.0
  0
LINE
  5
6D0B
  8
0
 10
58.50000046193599
 20
51.500000245869153
 30
0.0
 11
68.500000238418565
 21
51.500000245869153
 31
0.0
  0
LINE
  5
6D0C
  8
0
 10
67.000000458210707
 20
50.0
 30
0.0
 11
60.000000242143862
 21
50.0
 31
0.0
  0
LINE
  5
6D0D
  8
0
 10
58.50000046193599
 20
57.999999914318323
 30
0.0
 11
68.500000238418565
 21
57.999999914318323
 31
0.0
  0
LINE
  5
6D11
  8
0
 10
55.499999970197671
 20
80.371436849236474
 30
0.0
 11
71.500000730156884
 21
80.371436849236474
 31
0.0
  0
LINE
  5
6D51
  8
3
 10
59.250000119209282
 20
58.066987153142691
 30
0.0
 11
59.250000119209282
 21
50.749999657273293
 31
0.0
  0
LINE
  5
6D52
  8
3
 10
67.750000581145287
 20
50.749999657273293
 30
0.0
 11
67.750000581145287
 21
58.066987153142691
 31
0.0
  0
LINE
  5
6FA2
  8
0
 10
58.823463093227232
 20
159.50000001182681
 30
0.0
 11
61.161731788888567
 21
163.55000003929999
 31
0.0
  0
LINE
  5
6FA3
  8
0
 10
61.161731654515947
 20
155.45000006193379
 30
0.0
 11
65.838268911466002
 21
155.45000013951389
 31
0.0
  0
LINE
  5
6FA4
  8
0
 10
65.838269045838615
 20
163.55000011688
 30
0.0
 11
61.161731788888567
 21
163.55000003929999
 31
0.0
  0
LINE
  5
6FA5
  8
0
 10
68.176537607127329
 20
159.50000016698701
 30
0.0
 11
65.838268911466002
 21
155.45000013951389
 31
0.0
  0
LINE
  5
6FA6
  8
1
 10
63.500000350177281
 20
178.00000008940691
 30
0.0
 11
63.500000350177281
 21
141.00000008940691
 31
0.0
  0
LINE
  5
6FA7
  8
1
 10
82.000000350177274
 20
159.50000008940691
 30
0.0
 11
45.000000350177281
 21
159.50000008940691
 31
0.0
  0
LINE
  5
6FAC
  8
1
 10
63.500000350177281
 20
101.0000000894069
 30
0.0
 11
63.500000350177281
 21
45.0
 31
0.0
  0
ENDSEC
  0
EOF
