  0
SECTION
  2
HEADER
  9
$ACADVER
  1
AC1009
  9
$INSBASE
 10
0.0
 20
0.0
 30
0.0
  9
$EXTMIN
 10
0.0
 20
-1.4802182810368341
 30
0.0
  9
$EXTMAX
 10
58.000000000000277
 20
76.000000000000028
 30
0.0
  9
$LIMMIN
 10
0.0
 20
0.0
  9
$LIMMAX
 10
375.0
 20
270.0
  9
$ORTHOMODE
 70
     1
  9
$REGENMODE
 70
     1
  9
$FILLMODE
 70
     1
  9
$QTEXTMODE
 70
     0
  9
$MIRRTEXT
 70
     0
  9
$DRAGMODE
 70
     2
  9
$LTSCALE
 40
1.0
  9
$OSMODE
 70
    37
  9
$ATTMODE
 70
     1
  9
$TEXTSIZE
 40
6.0
  9
$TRACEWID
 40
0.05
  9
$TEXTSTYLE
  7
STANDARD
  9
$CLAYER
  8
0
  9
$CELTYPE
  6
BYLAYER
  9
$CECOLOR
 62
   256
  9
$DIMSCALE
 40
1.0
  9
$DIMASZ
 40
3.0
  9
$DIMEXO
 40
2.0
  9
$DIMDLI
 40
0.3799999999999999
  9
$DIMRND
 40
0.0
  9
$DIMDLE
 40
0.0
  9
$DIMEXE
 40
2.0
  9
$DIMTP
 40
0.0
  9
$DIMTM
 40
0.0
  9
$DIMTXT
 40
3.2000000000000002
  9
$DIMCEN
 40
0.09
  9
$DIMTSZ
 40
0.0
  9
$DIMTOL
 70
     0
  9
$DIMLIM
 70
     0
  9
$DIMTIH
 70
     0
  9
$DIMTOH
 70
     0
  9
$DIMSE1
 70
     0
  9
$DIMSE2
 70
     0
  9
$DIMTAD
 70
     1
  9
$DIMZIN
 70
     9
  9
$DIMBLK
  1

  9
$DIMASO
 70
     0
  9
$DIMSHO
 70
     0
  9
$DIMPOST
  1

  9
$DIMAPOST
  1

  9
$DIMALT
 70
     0
  9
$DIMALTD
 70
     2
  9
$DIMALTF
 40
25.399999999999999
  9
$DIMLFAC
 40
1.0
  9
$DIMTOFL
 70
     0
  9
$DIMTVP
 40
0.0
  9
$DIMTIX
 70
     0
  9
$DIMSOXD
 70
     0
  9
$DIMSAH
 70
     0
  9
$DIMBLK1
  1

  9
$DIMBLK2
  1

  9
$DIMSTYLE
  2
STANDARD
  9
$DIMCLRD
 70
     0
  9
$DIMCLRE
 70
     0
  9
$DIMCLRT
 70
     0
  9
$DIMTFAC
 40
1.0
  9
$DIMGAP
 40
0.09
  9
$LUNITS
 70
     2
  9
$LUPREC
 70
     1
  9
$SKETCHINC
 40
0.1
  9
$FILLETRAD
 40
20.0
  9
$AUNITS
 70
     0
  9
$AUPREC
 70
     1
  9
$MENU
  1
E:\r13\win\SUPPORT\ACAD
  9
$ELEVATION
 40
0.0
  9
$PELEVATION
 40
0.0
  9
$THICKNESS
 40
0.0
  9
$LIMCHECK
 70
     0
  9
$BLIPMODE
 70
     0
  9
$CHAMFERA
 40
0.0
  9
$CHAMFERB
 40
0.0
  9
$SKPOLY
 70
     0
  9
$TDCREATE
 40
2449840.6320370371
  9
$TDUPDATE
 40
2456927.6947799651
  9
$TDINDWG
 40
1.9681406597
  9
$TDUSRTIMER
 40
1.9681406597
  9
$USRTIMER
 70
     1
  9
$ANGBASE
 50
0.0
  9
$ANGDIR
 70
     0
  9
$PDMODE
 70
     0
  9
$PDSIZE
 40
0.0
  9
$PLINEWID
 40
0.0
  9
$COORDS
 70
     1
  9
$SPLFRAME
 70
     0
  9
$SPLINETYPE
 70
     6
  9
$SPLINESEGS
 70
     8
  9
$ATTDIA
 70
     0
  9
$ATTREQ
 70
     1
  9
$HANDLING
 70
     1
  9
$HANDSEED
  5
1F88B
  9
$SURFTAB1
 70
     6
  9
$SURFTAB2
 70
     6
  9
$SURFTYPE
 70
     6
  9
$SURFU
 70
     6
  9
$SURFV
 70
     6
  9
$UCSNAME
  2

  9
$UCSORG
 10
0.0
 20
0.0
 30
0.0
  9
$UCSXDIR
 10
1.0
 20
0.0
 30
0.0
  9
$UCSYDIR
 10
0.0
 20
1.0
 30
0.0
  9
$PUCSNAME
  2

  9
$PUCSORG
 10
0.0
 20
0.0
 30
0.0
  9
$PUCSXDIR
 10
1.0
 20
0.0
 30
0.0
  9
$PUCSYDIR
 10
0.0
 20
1.0
 30
0.0
  9
$USERI1
 70
     0
  9
$USERI2
 70
     1
  9
$USERI3
 70
     0
  9
$USERI4
 70
     0
  9
$USERI5
 70
     0
  9
$USERR1
 40
0.0
  9
$USERR2
 40
0.0
  9
$USERR3
 40
0.0
  9
$USERR4
 40
0.0
  9
$USERR5
 40
0.0
  9
$WORLDVIEW
 70
     1
  9
$SHADEDGE
 70
     3
  9
$SHADEDIF
 70
    70
  9
$TILEMODE
 70
     1
  9
$MAXACTVP
 70
    16
  9
$PLIMCHECK
 70
     0
  9
$PEXTMIN
 10
1.0000000000000000E+020
 20
1.0000000000000000E+020
 30
1.0000000000000000E+020
  9
$PEXTMAX
 10
-1.0000000000000000E+020
 20
-1.0000000000000000E+020
 30
-1.0000000000000000E+020
  9
$PLIMMIN
 10
0.0
 20
0.0
  9
$PLIMMAX
 10
12.0
 20
9.0
  9
$UNITMODE
 70
     0
  9
$VISRETAIN
 70
     0
  9
$PLINEGEN
 70
     0
  9
$PSLTSCALE
 70
     0
  0
ENDSEC
  0
SECTION
  2
TABLES
  0
TABLE
  2
VPORT
 70
     1
  0
VPORT
  2
*ACTIVE
 70
     0
 10
0.0
 20
0.0
 11
1.0
 21
1.0
 12
165.8205841446453
 22
95.0
 13
0.0
 23
0.0
 14
10.0
 24
10.0
 15
10.0
 25
10.0
 16
0.0
 26
0.0
 36
1.0
 17
0.0
 27
0.0
 37
0.0
 40
190.0
 41
1.7454798331015291
 42
50.0
 43
0.0
 44
0.0
 50
0.0
 51
0.0
 71
     0
 72
   500
 73
     1
 74
     0
 75
     0
 76
     0
 77
     0
 78
     0
  0
ENDTAB
  0
TABLE
  2
LTYPE
 70
     4
  0
LTYPE
  2
CONTINUOUS
 70
     0
  3
Solid Line
 72
    65
 73
     0
 40
0.0
  0
LTYPE
  2
CENTER
 70
     0
  3
____ _ ____ _ ____ _ ____ _ ____ _ ____ _ ____
 72
    65
 73
     4
 40
2.0
 49
1.25
 49
-0.25
 49
0.25
 49
-0.25
  0
LTYPE
  2
PHANTOM
 70
     0
  3
_____ _ _ _____ _ _ _____ _ _ _____ _ _ ____
 72
    65
 73
     6
 40
2.5
 49
1.25
 49
-0.25
 49
0.25
 49
-0.25
 49
0.25
 49
-0.25
  0
LTYPE
  2
PHANTOM2
 70
     0
  3
___ _ _ ___ _ _ ___ _ _ ___ _ _
 72
    65
 73
     6
 40
1.25
 49
0.625
 49
-0.125
 49
0.125
 49
-0.125
 49
0.125
 49
-0.125
  0
ENDTAB
  0
TABLE
  2
LAYER
 70
     5
  0
LAYER
  2
0
 70
     0
 62
     7
  6
CONTINUOUS
  0
LAYER
  2
1
 70
     0
 62
     1
  6
CENTER
  0
LAYER
  2
DEFPOINTS
 70
     0
 62
     7
  6
CONTINUOUS
  0
LAYER
  2
5
 70
     0
 62
     3
  6
PHANTOM
  0
LAYER
  2
3
 70
     0
 62
     3
  6
CONTINUOUS
  0
ENDTAB
  0
TABLE
  2
STYLE
 70
     2
  0
STYLE
  2
STANDARD
 70
     0
 40
0.0
 41
1.0
 50
0.0
 71
     0
 42
6.0
  3
TXT
  4
BIGFONT
  0
STYLE
  2
STANDARD1
 70
     0
 40
0.0
 41
1.0
 50
0.0
 71
     0
 42
3.0
  3
txt
  4

  0
ENDTAB
  0
TABLE
  2
VIEW
 70
     1
  0
VIEW
  2
ALL
 70
     0
 40
270.0
 10
213.25689075630251
 20
135.0
 41
0.0
 11
0.0
 21
0.0
 31
1.0
 12
0.0
 22
0.0
 32
0.0
 42
0.0
 43
0.0
 44
0.0
 50
0.0
 71
     0
  0
ENDTAB
  0
TABLE
  2
UCS
 70
     0
  0
ENDTAB
  0
TABLE
  2
APPID
 70
    13
  0
APPID
  2
ACAD
 70
     0
  0
APPID
  2
ACAD_EXEMPT_FROM_CAD_STANDARDS
 70
     0
  0
APPID
  2
ACAD_MLEADERVER
 70
     0
  0
APPID
  2
ACAD_DSTYLE_DIMJAG
 70
     0
  0
APPID
  2
ACAD_DSTYLE_DIMTALN
 70
     0
  0
APPID
  2
ACAD_PSEXT
 70
     0
  0
APPID
  2
ACAD_DSTYLE_DIMBREAK
 70
     0
  0
APPID
  2
ACAECLAYERSTANDARD
 70
     0
  0
APPID
  2
ACCMTRANSPARENCY
 70
     0
  0
APPID
  2
GRADIENTCOLOR1ACI
 70
     0
  0
APPID
  2
GRADIENTCOLOR2ACI
 70
     0
  0
APPID
  2
ACAD_DSTYLE_DIMRADIAL_EXTENSION
 70
     0
  0
APPID
  2
ACAD_NAV_VCDISPLAY
 70
     0
  0
ENDTAB
  0
TABLE
  2
DIMSTYLE
 70
     1
  0
DIMSTYLE
  2
STANDARD
 70
     0
  3

  4

  5

  6

  7

 40
1.0
 41
0.18
 42
0.0625
 43
0.38
 44
0.18
 45
0.0
 46
0.0
 47
0.0
 48
0.0
140
0.18
141
0.09
142
0.0
143
25.399999999999999
144
1.0
145
0.0
146
1.0
147
0.09
 71
     0
 72
     0
 73
     1
 74
     1
 75
     0
 76
     0
 77
     0
 78
     0
170
     0
171
     2
172
     0
173
     0
174
     0
175
     0
176
     0
177
     0
178
     0
  0
ENDTAB
  0
ENDSEC
  0
SECTION
  2
BLOCKS
  0
BLOCK
  8
0
  2
$MODEL_SPACE
 70
     0
 10
0.0
 20
0.0
 30
0.0
  3
$MODEL_SPACE
  1

  0
ENDBLK
  5
126
  8
0
  0
BLOCK
 67
     1
  8
0
  2
$PAPER_SPACE
 70
     0
 10
0.0
 20
0.0
 30
0.0
  3
$PAPER_SPACE
  1

  0
ENDBLK
  5
124
 67
     1
  8
0
  0
ENDSEC
  0
SECTION
  2
ENTITIES
  0
TEXT
  5
1DA32
  8
0
 62
     3
 10
0.0
 20
0.0
 30
0.0
 40
5.0
  1
CP132-05001B
  7
STANDARD1
  0
LINE
  5
1EF36
  8
0
 10
15.74999999999998
 20
41.0
 30
0.0
 11
15.74999999999998
 21
36.0
 31
0.0
  0
LINE
  5
1EF37
  8
0
 10
24.25
 20
36.0
 30
0.0
 11
24.25
 21
41.0
 31
0.0
  0
LINE
  5
1EF38
  8
0
 10
17.499999999999979
 20
20.800000000000011
 30
0.0
 11
18.300000000000001
 21
20.0
 31
0.0
  0
LINE
  5
1EF39
  8
0
 10
21.699999999999989
 20
20.0
 30
0.0
 11
22.5
 21
20.800000000000011
 31
0.0
  0
LINE
  5
1EF3A
  8
0
 10
17.499999999999979
 20
27.599999999999572
 30
0.0
 11
17.499999999999979
 21
20.800000000000011
 31
0.0
  0
LINE
  5
1EF3B
  8
0
 10
22.5
 20
20.800000000000011
 30
0.0
 11
22.5
 21
27.599999999999572
 31
0.0
  0
ARC
  5
1EF3C
  8
0
 10
25.300000000000001
 20
31.79999999999978
 30
0.0
 40
0.5
 50
270.0
 51
90.0
  0
LINE
  5
1EF3F
  8
0
 10
15.099999999999991
 20
36.0
 30
0.0
 11
15.099999999999991
 21
34.799999999999898
 31
0.0
  0
LINE
  5
1EF40
  8
0
 10
24.899999999999991
 20
34.799999999999898
 30
0.0
 11
24.899999999999991
 21
36.0
 31
0.0
  0
LINE
  5
1EF41
  8
0
 10
24.899999999999991
 20
27.599999999999572
 30
0.0
 11
24.899999999999991
 21
28.79999999999967
 31
0.0
  0
LINE
  5
1EF42
  8
0
 10
15.099999999999991
 20
28.79999999999967
 30
0.0
 11
15.099999999999991
 21
27.599999999999572
 31
0.0
  0
LINE
  5
1EF43
  8
0
 10
15.75
 20
41.0
 30
0.0
 11
24.25
 21
41.0
 31
0.0
  0
LINE
  5
1EF44
  8
0
 10
21.699999999999989
 20
20.0
 30
0.0
 11
18.300000000000001
 21
20.0
 31
0.0
  0
LINE
  5
1EF45
  8
0
 10
17.499999999999979
 20
20.800000000000011
 30
0.0
 11
22.5
 21
20.800000000000011
 31
0.0
  0
ARC
  5
1EF46
  8
0
 10
14.69999999999999
 20
31.79999999999978
 30
0.0
 40
0.5000000000000026
 50
91.826727636267194
 51
270.0292866703146
  0
LINE
  5
1EF49
  8
0
 10
19.799999999999919
 20
34.699999999999989
 30
0.0
 11
20.199999999999779
 21
34.699999999999989
 31
0.0
  0
LINE
  5
1EF4A
  8
0
 10
19.799999999999919
 20
33.400000000000013
 30
0.0
 11
20.199999999999779
 21
33.400000000000013
 31
0.0
  0
LINE
  5
1EF4B
  8
0
 10
15.099999999999991
 20
36.0
 30
0.0
 11
24.899999999999991
 21
36.0
 31
0.0
  0
LINE
  5
1EF4C
  8
0
 10
20.199999999999779
 20
28.899999999999579
 30
0.0
 11
19.799999999999919
 21
28.899999999999579
 31
0.0
  0
LINE
  5
1EF4D
  8
0
 10
20.199999999999779
 20
30.199999999999591
 30
0.0
 11
19.799999999999919
 21
30.199999999999591
 31
0.0
  0
LINE
  5
1EF4E
  8
0
 10
24.899999999999991
 20
27.599999999999572
 30
0.0
 11
15.099999999999991
 21
27.599999999999572
 31
0.0
  0
LINE
  5
1EF4F
  8
0
 10
19.799999999999919
 20
34.799999999999898
 30
0.0
 11
19.799999999999919
 21
32.299999999999791
 31
0.0
  0
LINE
  5
1EF51
  8
0
 10
17.732050807568751
 20
34.799999999999898
 30
0.0
 11
17.732050807568768
 21
32.299999999999791
 31
0.0
  0
LINE
  5
1EF53
  8
0
 10
19.799999999999919
 20
31.299999999999791
 30
0.0
 11
19.799999999999919
 21
28.799999999999731
 31
0.0
  0
LINE
  5
1EF55
  8
0
 10
17.732050807568768
 20
31.299999999999791
 30
0.0
 11
17.73205080756874
 21
28.799999999999731
 31
0.0
  0
LINE
  5
1EF57
  8
0
 10
13.99999999999976
 20
32.299999999999791
 30
0.0
 11
13.99999999999976
 21
34.799999999999898
 31
0.0
  0
LINE
  5
1EF58
  8
0
 10
26.0
 20
32.299999999999791
 30
0.0
 11
13.99999999999976
 21
32.299999999999791
 31
0.0
  0
LINE
  5
1EF59
  8
0
 10
13.99999999999976
 20
34.799999999999898
 30
0.0
 11
19.799999999999919
 21
34.799999999999933
 31
0.0
  0
LINE
  5
1EF5A
  8
0
 10
19.799999999999908
 20
28.799999999999699
 30
0.0
 11
13.99999999999976
 21
28.799999999999731
 31
0.0
  0
LINE
  5
1EF5B
  8
0
 10
13.99999999999976
 20
28.799999999999731
 30
0.0
 11
13.99999999999976
 21
31.299999999999791
 31
0.0
  0
LINE
  5
1EF5C
  8
0
 10
13.99999999999976
 20
31.299999999999791
 30
0.0
 11
25.999999999999989
 21
31.299999999999731
 31
0.0
  0
LINE
  5
1EF5D
  8
0
 10
25.999999999999989
 20
31.299999999999731
 30
0.0
 11
26.0
 21
28.79999999999967
 31
0.0
  0
LINE
  5
1EF5E
  8
0
 10
22.267949192430962
 20
28.79999999999967
 30
0.0
 11
22.267949192430962
 21
31.299999999999731
 31
0.0
  0
LINE
  5
1EF60
  8
0
 10
26.0
 20
28.79999999999967
 30
0.0
 11
20.199999999999779
 21
28.79999999999967
 31
0.0
  0
LINE
  5
1EF61
  8
0
 10
20.199999999999779
 20
31.299999999999731
 30
0.0
 11
20.199999999999779
 21
28.79999999999967
 31
0.0
  0
LINE
  5
1EF64
  8
0
 10
20.199999999999779
 20
34.799999999999898
 30
0.0
 11
20.199999999999779
 21
32.299999999999791
 31
0.0
  0
LINE
  5
1EF66
  8
0
 10
22.267949192430962
 20
32.299999999999791
 30
0.0
 11
22.267949192430979
 21
34.799999999999898
 31
0.0
  0
LINE
  5
1EF68
  8
0
 10
26.0
 20
34.799999999999898
 30
0.0
 11
26.0
 21
32.299999999999791
 31
0.0
  0
LINE
  5
1EF69
  8
0
 10
20.199999999999779
 20
34.799999999999898
 30
0.0
 11
26.0
 21
34.799999999999898
 31
0.0
  0
LINE
  5
1EF6B
  8
0
 10
20.20000000000044
 20
72.796550698475784
 30
0.0
 11
19.80000000000042
 21
72.796550698475784
 31
0.0
  0
LINE
  5
1EF6C
  8
0
 10
19.80000000000042
 20
61.203449301524238
 30
0.0
 11
20.20000000000044
 21
61.203449301524238
 31
0.0
  0
LINE
  5
1EF6D
  8
0
 10
18.000000000000419
 20
68.154700538379245
 30
0.0
 11
18.000000000000419
 21
65.845299461620726
 31
0.0
  0
LINE
  5
1EF6E
  8
0
 10
20.000000000000441
 20
64.690598923241481
 30
0.0
 11
18.000000000000419
 21
65.845299461620726
 31
0.0
  0
LINE
  5
1EF6F
  8
0
 10
20.000000000000441
 20
64.690598923241481
 30
0.0
 11
22.000000000000441
 21
65.845299461620726
 31
0.0
  0
LINE
  5
1EF70
  8
0
 10
22.000000000000441
 20
65.845299461620726
 30
0.0
 11
22.000000000000441
 21
68.154700538379245
 31
0.0
  0
LINE
  5
1EF71
  8
0
 10
20.000000000000441
 20
69.30940107675849
 30
0.0
 11
22.000000000000441
 21
68.154700538379245
 31
0.0
  0
LINE
  5
1EF72
  8
0
 10
20.000000000000441
 20
69.30940107675849
 30
0.0
 11
18.000000000000419
 21
68.154700538379245
 31
0.0
  0
CIRCLE
  5
1EF73
  8
0
 10
20.000000000000441
 20
66.999999999999972
 30
0.0
 40
4.25
  0
CIRCLE
  5
1EF78
  8
0
 10
20.000000000000441
 20
67.0
 30
0.0
 40
4.9000000000000048
  0
LINE
  5
1EF79
  8
0
 10
17.732050807569291
 20
72.999999999999886
 30
0.0
 11
14.00000000000024
 21
71.999999999999886
 31
0.0
  0
LINE
  5
1EF7A
  8
0
 10
19.80000000000048
 20
72.999999999999915
 30
0.0
 11
17.732050807569291
 21
72.999999999999886
 31
0.0
  0
LINE
  5
1EF7B
  8
0
 10
19.80000000000048
 20
72.999999999999915
 30
0.0
 11
19.80000000000048
 21
71.895916665957444
 31
0.0
  0
ARC
  5
1EF7C
  8
0
 10
20.000000000000441
 20
66.999999999999915
 30
0.0
 40
5.0000000000000187
 50
92.292442775955394
 51
267.70755722404459
  0
LINE
  5
1EF7D
  8
0
 10
19.80000000000037
 20
62.104083334042542
 30
0.0
 11
19.80000000000037
 21
60.999999999999908
 31
0.0
  0
LINE
  5
1EF7E
  8
0
 10
17.732050807569191
 20
60.999999999999879
 30
0.0
 11
19.80000000000037
 21
60.999999999999908
 31
0.0
  0
LINE
  5
1EF7F
  8
0
 10
14.000000000000179
 20
61.999999999999922
 30
0.0
 11
17.732050807569191
 21
60.999999999999879
 31
0.0
  0
LINE
  5
1EF80
  8
0
 10
14.000000000000229
 20
65.349999999999923
 30
0.0
 11
14.000000000000179
 21
61.999999999999922
 31
0.0
  0
LINE
  5
1EF81
  8
0
 10
14.000000000000229
 20
65.349999999999923
 30
0.0
 11
14.20000000000031
 21
65.549999999999955
 31
0.0
  0
LINE
  5
1EF82
  8
0
 10
14.20000000000031
 20
65.549999999999955
 30
0.0
 11
14.20000000000034
 21
68.449999999999932
 31
0.0
  0
LINE
  5
1EF83
  8
0
 10
14.20000000000034
 20
68.449999999999932
 30
0.0
 11
14.00000000000024
 21
68.64999999999992
 31
0.0
  0
LINE
  5
1EF84
  8
0
 10
14.00000000000024
 20
71.999999999999886
 30
0.0
 11
14.00000000000024
 21
68.64999999999992
 31
0.0
  0
LINE
  5
1EF87
  8
0
 10
22.267949192431409
 20
61.00000000000005
 30
0.0
 11
26.000000000000441
 21
62.000000000000057
 31
0.0
  0
LINE
  5
1EF88
  8
0
 10
20.20000000000022
 20
61.0
 30
0.0
 11
22.267949192431409
 21
61.00000000000005
 31
0.0
  0
LINE
  5
1EF89
  8
0
 10
20.20000000000022
 20
61.0
 30
0.0
 11
20.20000000000022
 21
62.104083334042507
 31
0.0
  0
ARC
  5
1EF8A
  8
0
 10
20.000000000000231
 20
67.0
 30
0.0
 40
5.0000000000000222
 50
272.292442775957
 51
87.707557224044592
  0
LINE
  5
1EF8B
  8
0
 10
20.200000000000259
 20
71.895916665957486
 30
0.0
 11
20.200000000000241
 21
73.0
 31
0.0
  0
LINE
  5
1EF8C
  8
0
 10
22.267949192431431
 20
73.000000000000028
 30
0.0
 11
20.200000000000241
 21
73.0
 31
0.0
  0
LINE
  5
1EF8D
  8
0
 10
26.000000000000441
 20
72.000000000000057
 30
0.0
 11
22.267949192431431
 21
73.000000000000028
 31
0.0
  0
LINE
  5
1EF8E
  8
0
 10
26.00000000000043
 20
68.650000000000034
 30
0.0
 11
26.000000000000441
 21
72.000000000000057
 31
0.0
  0
LINE
  5
1EF8F
  8
0
 10
26.00000000000043
 20
68.650000000000034
 30
0.0
 11
25.800000000000342
 21
68.450000000000045
 31
0.0
  0
LINE
  5
1EF90
  8
0
 10
25.800000000000342
 20
68.450000000000045
 30
0.0
 11
25.800000000000342
 21
65.550000000000011
 31
0.0
  0
LINE
  5
1EF91
  8
0
 10
25.800000000000342
 20
65.550000000000011
 30
0.0
 11
26.00000000000043
 21
65.350000000000051
 31
0.0
  0
LINE
  5
1EF92
  8
0
 10
26.000000000000441
 20
62.000000000000057
 30
0.0
 11
26.00000000000043
 21
65.350000000000051
 31
0.0
  0
LINE
  5
1EF95
  8
0
 10
47.750000000000242
 20
41.0
 30
0.0
 11
47.750000000000242
 21
36.0
 31
0.0
  0
LINE
  5
1EF96
  8
0
 10
56.250000000000242
 20
36.0
 30
0.0
 11
56.250000000000242
 21
41.0
 31
0.0
  0
LINE
  5
1EF97
  8
0
 10
49.500000000000242
 20
20.800000000000011
 30
0.0
 11
50.300000000000239
 21
20.0
 31
0.0
  0
LINE
  5
1EF98
  8
0
 10
53.70000000000023
 20
20.0
 30
0.0
 11
54.500000000000242
 21
20.800000000000011
 31
0.0
  0
LINE
  5
1EF99
  8
0
 10
49.500000000000242
 20
27.599999999999572
 30
0.0
 11
49.500000000000242
 21
20.800000000000011
 31
0.0
  0
LINE
  5
1EF9A
  8
0
 10
54.500000000000242
 20
20.800000000000011
 30
0.0
 11
54.500000000000242
 21
27.599999999999572
 31
0.0
  0
LINE
  5
1EF9B
  8
0
 10
47.100000000000229
 20
36.0
 30
0.0
 11
47.100000000000229
 21
34.799999999999898
 31
0.0
  0
LINE
  5
1EF9C
  8
0
 10
56.900000000000247
 20
34.799999999999898
 30
0.0
 11
56.900000000000247
 21
36.0
 31
0.0
  0
LINE
  5
1EF9D
  8
0
 10
56.900000000000247
 20
27.599999999999572
 30
0.0
 11
56.900000000000247
 21
28.799999999999731
 31
0.0
  0
LINE
  5
1EF9E
  8
0
 10
47.100000000000229
 20
28.79999999999967
 30
0.0
 11
47.100000000000229
 21
27.599999999999572
 31
0.0
  0
LINE
  5
1EFA0
  8
0
 10
47.750000000000242
 20
41.0
 30
0.0
 11
56.250000000000242
 21
41.0
 31
0.0
  0
LINE
  5
1EFA1
  8
0
 10
53.70000000000023
 20
20.0
 30
0.0
 11
50.300000000000239
 21
20.0
 31
0.0
  0
LINE
  5
1EFA2
  8
0
 10
49.500000000000242
 20
20.800000000000011
 30
0.0
 11
54.500000000000242
 21
20.800000000000011
 31
0.0
  0
ARC
  5
1EFA3
  8
0
 10
46.703449301524472
 20
31.79999999999978
 30
0.0
 40
0.5
 50
90.0
 51
270.0
  0
ARC
  5
1EFA4
  8
0
 10
57.296550698476011
 20
31.79999999999978
 30
0.0
 40
0.5
 50
270.0
 51
90.0
  0
ARC
  5
1EFA5
  8
0
 10
46.703449301524472
 20
31.79999999999978
 30
0.0
 40
0.5
 50
90.0
 51
270.0
  0
LINE
  5
1EFA6
  8
0
 10
47.100000000000229
 20
36.0
 30
0.0
 11
56.900000000000247
 21
36.0
 31
0.0
  0
LINE
  5
1EFA7
  8
0
 10
56.900000000000247
 20
27.599999999999572
 30
0.0
 11
47.100000000000229
 21
27.599999999999572
 31
0.0
  0
LINE
  5
1EFA8
  8
0
 10
58.00000000000027
 20
34.799999999999898
 30
0.0
 11
58.000000000000249
 21
32.299999999999791
 31
0.0
  0
LINE
  5
1EFAA
  8
0
 10
57.000000000000242
 20
32.299999999999791
 30
0.0
 11
57.00000000000027
 21
34.799999999999898
 31
0.0
  0
LINE
  5
1EFAC
  8
0
 10
58.000000000000249
 20
31.299999999999791
 30
0.0
 11
58.000000000000242
 21
28.799999999999731
 31
0.0
  0
LINE
  5
1EFAD
  8
0
 10
57.000000000000242
 20
28.799999999999731
 30
0.0
 11
57.000000000000242
 21
31.299999999999791
 31
0.0
  0
LINE
  5
1EFB0
  8
0
 10
53.650000000000261
 20
34.799999999999898
 30
0.0
 11
53.650000000000247
 21
32.299999999999791
 31
0.0
  0
LINE
  5
1EFB3
  8
0
 10
53.650000000000233
 20
28.79999999999967
 30
0.0
 11
53.650000000000247
 21
31.299999999999791
 31
0.0
  0
LINE
  5
1EFB6
  8
0
 10
47.000000000000249
 20
31.299999999999731
 30
0.0
 11
47.000000000000249
 21
28.79999999999967
 31
0.0
  0
LINE
  5
1EFB7
  8
0
 10
50.350000000000243
 20
28.79999999999967
 30
0.0
 11
50.35000000000025
 21
31.299999999999759
 31
0.0
  0
LINE
  5
1EFBA
  8
0
 10
47.000000000000277
 20
34.799999999999898
 30
0.0
 11
47.000000000000249
 21
32.299999999999791
 31
0.0
  0
LINE
  5
1EFBB
  8
0
 10
50.35000000000025
 20
32.299999999999791
 30
0.0
 11
50.350000000000257
 21
34.799999999999898
 31
0.0
  0
LINE
  5
1EFBE
  8
0
 10
53.45000000000023
 20
28.79999999999967
 30
0.0
 11
53.45000000000023
 21
31.299999999999791
 31
0.0
  0
LINE
  5
1EFC1
  8
0
 10
53.450000000000237
 20
32.299999999999791
 30
0.0
 11
53.450000000000237
 21
34.799999999999898
 31
0.0
  0
LINE
  5
1EFC4
  8
0
 10
46.00000000000027
 20
32.299999999999791
 30
0.0
 11
46.000000000000277
 21
34.799999999999898
 31
0.0
  0
LINE
  5
1EFC5
  8
0
 10
46.000000000000277
 20
34.799999999999898
 30
0.0
 11
58.000000000000277
 21
34.799999999999898
 31
0.0
  0
LINE
  5
1EFC6
  8
0
 10
58.000000000000249
 20
32.299999999999791
 30
0.0
 11
46.00000000000027
 21
32.299999999999791
 31
0.0
  0
LINE
  5
1EFC7
  8
0
 10
46.000000000000242
 20
28.79999999999967
 30
0.0
 11
46.00000000000027
 21
31.299999999999731
 31
0.0
  0
LINE
  5
1EFC8
  8
0
 10
46.00000000000027
 20
31.299999999999731
 30
0.0
 11
58.000000000000249
 21
31.299999999999731
 31
0.0
  0
LINE
  5
1EFC9
  8
0
 10
58.000000000000242
 20
28.79999999999967
 30
0.0
 11
46.000000000000242
 21
28.79999999999967
 31
0.0
  0
LINE
  5
1EFCA
  8
0
 10
50.550000000000253
 20
32.299999999999791
 30
0.0
 11
50.550000000000253
 21
34.799999999999898
 31
0.0
  0
LINE
  5
1EFCD
  8
0
 10
50.550000000000239
 20
28.79999999999967
 30
0.0
 11
50.550000000000239
 21
31.299999999999759
 31
0.0
  0
ARC
  5
1EFE0
  8
5
 10
26.29999999999999
 20
30.799999999999791
 30
0.0
 40
0.5
 50
270.0000000000033
 51
89.999999999996746
  0
ARC
  5
1EFE8
  8
5
 10
13.700000000000021
 20
30.799999999999791
 30
0.0
 40
0.5000000000000034
 50
91.826727636272068
 51
270.0292866703129
  0
LINE
  5
1EFF5
  8
5
 10
12.999999999999909
 20
31.299999999999791
 30
0.0
 11
12.999999999999909
 21
33.799999999999898
 31
0.0
  0
LINE
  5
1EFF6
  8
5
 10
13.99999999999976
 20
31.299999999999791
 30
0.0
 11
12.999999999999909
 21
31.299999999999791
 31
0.0
  0
LINE
  5
1EFF7
  8
5
 10
12.999999999999909
 20
33.799999999999898
 30
0.0
 11
13.999999999999771
 21
33.799999999999898
 31
0.0
  0
LINE
  5
1EFFC
  8
5
 10
15.099999999999991
 20
27.79999999999967
 30
0.0
 11
12.999999999999909
 21
27.79999999999967
 31
0.0
  0
LINE
  5
1EFFD
  8
5
 10
12.999999999999909
 20
27.79999999999967
 30
0.0
 11
12.999999999999909
 21
30.299999999999759
 31
0.0
  0
LINE
  5
1EFFE
  8
5
 10
12.999999999999909
 20
30.299999999999759
 30
0.0
 11
13.999999999999741
 21
30.299999999999731
 31
0.0
  0
LINE
  5
1EFFF
  8
5
 10
27.00000000000006
 20
30.299999999999731
 30
0.0
 11
27.00000000000006
 21
27.799999999999621
 31
0.0
  0
LINE
  5
1F001
  8
5
 10
26.0
 20
30.299999999999699
 30
0.0
 11
27.00000000000006
 21
30.299999999999731
 31
0.0
  0
LINE
  5
1F002
  8
5
 10
27.00000000000006
 20
27.799999999999621
 30
0.0
 11
24.899999999999991
 21
27.799999999999638
 31
0.0
  0
LINE
  5
1F00A
  8
5
 10
27.00000000000006
 20
33.799999999999869
 30
0.0
 11
27.00000000000006
 21
31.299999999999759
 31
0.0
  0
LINE
  5
1F00B
  8
5
 10
26.0
 20
33.799999999999898
 30
0.0
 11
27.00000000000006
 21
33.799999999999869
 31
0.0
  0
LINE
  5
1F00C
  8
5
 10
27.00000000000006
 20
31.299999999999759
 30
0.0
 11
25.999999999999989
 21
31.299999999999759
 31
0.0
  0
LINE
  5
1F01F
  8
5
 10
16.7320508075695
 20
73.0
 30
0.0
 11
13.00000000000041
 21
72.0
 31
0.0
  0
LINE
  5
1F020
  8
5
 10
17.732050807569781
 20
73.0
 30
0.0
 11
16.7320508075695
 21
73.0
 31
0.0
  0
LINE
  5
1F024
  8
5
 10
16.73205080756939
 20
61.0
 30
0.0
 11
17.73205080756864
 21
61.000000000000028
 31
0.0
  0
LINE
  5
1F025
  8
5
 10
13.00000000000035
 20
62.000000000000021
 30
0.0
 11
16.73205080756939
 21
61.0
 31
0.0
  0
LINE
  5
1F026
  8
5
 10
13.00000000000038
 20
65.350000000000051
 30
0.0
 11
13.00000000000035
 21
62.000000000000021
 31
0.0
  0
LINE
  5
1F027
  8
5
 10
13.00000000000038
 20
65.350000000000051
 30
0.0
 11
13.200000000000511
 21
65.55000000000004
 31
0.0
  0
LINE
  5
1F028
  8
5
 10
13.200000000000511
 20
65.55000000000004
 30
0.0
 11
13.200000000000539
 21
68.450000000000074
 31
0.0
  0
LINE
  5
1F029
  8
5
 10
13.200000000000539
 20
68.450000000000074
 30
0.0
 11
13.00000000000041
 21
68.650000000000034
 31
0.0
  0
LINE
  5
1F02A
  8
5
 10
13.00000000000041
 20
72.0
 30
0.0
 11
13.00000000000041
 21
68.650000000000034
 31
0.0
  0
LINE
  5
1F02D
  8
5
 10
23.267949192431431
 20
61.000000000000121
 30
0.0
 11
27.000000000000501
 21
62.000000000000142
 31
0.0
  0
LINE
  5
1F02E
  8
5
 10
22.267949192431448
 20
61.00000000000005
 30
0.0
 11
23.267949192431431
 21
61.000000000000121
 31
0.0
  0
LINE
  5
1F032
  8
5
 10
23.267949192431459
 20
73.000000000000114
 30
0.0
 11
22.267949192431288
 21
73.000000000000114
 31
0.0
  0
LINE
  5
1F033
  8
5
 10
27.000000000000501
 20
72.000000000000114
 30
0.0
 11
23.267949192431459
 21
73.000000000000114
 31
0.0
  0
LINE
  5
1F034
  8
5
 10
27.000000000000501
 20
68.650000000000091
 30
0.0
 11
27.000000000000501
 21
72.000000000000114
 31
0.0
  0
LINE
  5
1F035
  8
5
 10
27.000000000000501
 20
68.650000000000091
 30
0.0
 11
26.80000000000037
 21
68.450000000000102
 31
0.0
  0
LINE
  5
1F036
  8
5
 10
26.80000000000037
 20
68.450000000000102
 30
0.0
 11
26.80000000000037
 21
65.550000000000054
 31
0.0
  0
LINE
  5
1F037
  8
5
 10
26.80000000000037
 20
65.550000000000054
 30
0.0
 11
27.000000000000501
 21
65.350000000000094
 31
0.0
  0
LINE
  5
1F038
  8
5
 10
27.000000000000501
 20
62.000000000000142
 30
0.0
 11
27.000000000000501
 21
65.350000000000094
 31
0.0
  0
ARC
  5
1F049
  8
5
 10
46.703449301524451
 20
30.799999999999791
 30
0.0
 40
0.5
 50
90.0
 51
270.0
  0
ARC
  5
1F04A
  8
5
 10
57.296550698475968
 20
30.799999999999791
 30
0.0
 40
0.5
 50
270.0000000000033
 51
89.999999999996746
  0
LINE
  5
1F04D
  8
5
 10
58.00000000000027
 20
33.799999999999898
 30
0.0
 11
58.000000000000242
 21
31.299999999999791
 31
0.0
  0
LINE
  5
1F04E
  8
5
 10
58.000000000000242
 20
31.299999999999791
 30
0.0
 11
57.000000000000242
 21
31.299999999999791
 31
0.0
  0
LINE
  5
1F050
  8
5
 10
57.00000000000027
 20
33.799999999999898
 30
0.0
 11
58.00000000000027
 21
33.799999999999898
 31
0.0
  0
LINE
  5
1F051
  8
5
 10
58.000000000000242
 20
30.29999999999978
 30
0.0
 11
58.00000000000022
 21
27.79999999999967
 31
0.0
  0
LINE
  5
1F053
  8
5
 10
57.000000000000242
 20
30.29999999999978
 30
0.0
 11
58.000000000000242
 21
30.29999999999978
 31
0.0
  0
LINE
  5
1F054
  8
5
 10
58.00000000000022
 20
27.79999999999967
 30
0.0
 11
57.000000000000242
 21
27.79999999999967
 31
0.0
  0
LINE
  5
1F06F
  8
5
 10
46.000000000000213
 20
27.799999999999621
 30
0.0
 11
46.00000000000027
 21
30.299999999999731
 31
0.0
  0
LINE
  5
1F070
  8
5
 10
46.00000000000027
 20
30.299999999999731
 30
0.0
 11
47.000000000000242
 21
30.299999999999731
 31
0.0
  0
LINE
  5
1F071
  8
5
 10
47.000000000000242
 20
27.799999999999621
 30
0.0
 11
46.000000000000213
 21
27.799999999999621
 31
0.0
  0
LINE
  5
1F072
  8
5
 10
46.000000000000242
 20
31.299999999999759
 30
0.0
 11
46.00000000000027
 21
33.799999999999898
 31
0.0
  0
LINE
  5
1F073
  8
5
 10
46.00000000000027
 20
33.799999999999898
 30
0.0
 11
47.000000000000263
 21
33.799999999999898
 31
0.0
  0
LINE
  5
1F074
  8
5
 10
47.000000000000242
 20
31.299999999999759
 30
0.0
 11
46.000000000000242
 21
31.299999999999759
 31
0.0
  0
LINE
  5
1F15B
  8
1
 10
20.0
 20
14.999999999999559
 30
0.0
 11
20.0
 21
44.0
 31
0.0
  0
LINE
  5
1F15C
  8
1
 10
29.00000000000043
 20
67.0
 30
0.0
 11
11.00000000000021
 21
67.0
 31
0.0
  0
LINE
  5
1F15F
  8
1
 10
20.000000000000441
 20
58.000000000000028
 30
0.0
 11
20.000000000000441
 21
76.000000000000028
 31
0.0
  0
LINE
  5
1F160
  8
3
 10
22.067000000000199
 20
20.367000000000189
 30
0.0
 11
22.067000000000199
 21
27.5999999999996
 31
0.0
  0
LINE
  5
1F161
  8
3
 10
17.93299999999979
 20
20.367000000000189
 30
0.0
 11
17.932999999999801
 21
27.5999999999996
 31
0.0
  0
LINE
  5
1F162
  8
1
 10
52.000000000000242
 20
14.999999999999559
 30
0.0
 11
52.000000000000242
 21
44.0
 31
0.0
  0
LINE
  5
1F163
  8
3
 10
54.067000000000448
 20
20.367000000000189
 30
0.0
 11
54.067000000000448
 21
27.5999999999996
 31
0.0
  0
LINE
  5
1F164
  8
3
 10
49.933000000000042
 20
20.367000000000189
 30
0.0
 11
49.933000000000042
 21
27.5999999999996
 31
0.0
  0
LINE
  5
1F7E8
  8
5
 10
17.499999999999989
 20
18.799999999999581
 30
0.0
 11
18.300000000000001
 21
17.99999999999957
 31
0.0
  0
LINE
  5
1F7E9
  8
5
 10
21.699999999999989
 20
17.99999999999957
 30
0.0
 11
22.500000000000011
 21
18.799999999999581
 31
0.0
  0
LINE
  5
1F7EA
  8
5
 10
17.5
 20
20.800000000000011
 30
0.0
 11
17.499999999999989
 21
18.799999999999581
 31
0.0
  0
LINE
  5
1F7EB
  8
5
 10
22.500000000000011
 20
18.799999999999581
 30
0.0
 11
22.500000000000011
 21
20.800000000000018
 31
0.0
  0
LINE
  5
1F7EC
  8
5
 10
21.699999999999989
 20
17.99999999999957
 30
0.0
 11
18.300000000000001
 21
17.99999999999957
 31
0.0
  0
LINE
  5
1F7ED
  8
5
 10
17.499999999999989
 20
18.799999999999581
 30
0.0
 11
22.500000000000011
 21
18.799999999999581
 31
0.0
  0
LINE
  5
1F7EE
  8
5
 10
22.06700000000021
 20
18.366999999999749
 30
0.0
 11
22.06700000000021
 21
20.367000000000221
 31
0.0
  0
LINE
  5
1F7EF
  8
5
 10
17.932999999999801
 20
18.366999999999749
 30
0.0
 11
17.932999999999801
 21
20.367000000000189
 31
0.0
  0
LINE
  5
1F7F8
  8
5
 10
49.500000000000242
 20
18.799999999999581
 30
0.0
 11
50.30000000000026
 21
17.99999999999957
 31
0.0
  0
LINE
  5
1F7F9
  8
5
 10
53.700000000000237
 20
17.99999999999957
 30
0.0
 11
54.500000000000249
 21
18.799999999999581
 31
0.0
  0
LINE
  5
1F7FA
  8
5
 10
49.500000000000242
 20
20.800000000000011
 30
0.0
 11
49.500000000000242
 21
18.799999999999581
 31
0.0
  0
LINE
  5
1F7FB
  8
5
 10
54.500000000000249
 20
18.799999999999581
 30
0.0
 11
54.500000000000249
 21
20.800000000000018
 31
0.0
  0
LINE
  5
1F7FC
  8
5
 10
53.700000000000237
 20
17.99999999999957
 30
0.0
 11
50.30000000000026
 21
17.99999999999957
 31
0.0
  0
LINE
  5
1F7FD
  8
5
 10
49.500000000000242
 20
18.799999999999581
 30
0.0
 11
54.500000000000249
 21
18.799999999999581
 31
0.0
  0
LINE
  5
1F7FE
  8
5
 10
54.067000000000462
 20
18.366999999999749
 30
0.0
 11
54.067000000000462
 21
20.367000000000221
 31
0.0
  0
LINE
  5
1F7FF
  8
5
 10
49.933000000000042
 20
18.366999999999749
 30
0.0
 11
49.93300000000005
 21
20.367000000000189
 31
0.0
  0
ENDSEC
  0
EOF
