  0
SECTION
  2
HEADER
  9
$ACADVER
  1
AC1009
  9
$INSBASE
 10
0.0
 20
0.0
 30
0.0
  9
$EXTMIN
 10
0.0
 20
-1.4802182810368341
 30
0.0
  9
$EXTMAX
 10
62.299999999999983
 20
81.799999999999969
 30
0.0
  9
$LIMMIN
 10
0.0
 20
0.0
  9
$LIMMAX
 10
375.0
 20
270.0
  9
$ORTHOMODE
 70
     1
  9
$REGENMODE
 70
     1
  9
$FILLMODE
 70
     1
  9
$QTEXTMODE
 70
     0
  9
$MIRRTEXT
 70
     0
  9
$DRAGMODE
 70
     2
  9
$LTSCALE
 40
1.0
  9
$OSMODE
 70
    37
  9
$ATTMODE
 70
     1
  9
$TEXTSIZE
 40
6.0
  9
$TRACEWID
 40
0.05
  9
$TEXTSTYLE
  7
STANDARD
  9
$CLAYER
  8
0
  9
$CELTYPE
  6
BYLAYER
  9
$CECOLOR
 62
   256
  9
$DIMSCALE
 40
1.0
  9
$DIMASZ
 40
3.0
  9
$DIMEXO
 40
2.0
  9
$DIMDLI
 40
0.3799999999999999
  9
$DIMRND
 40
0.0
  9
$DIMDLE
 40
0.0
  9
$DIMEXE
 40
2.0
  9
$DIMTP
 40
0.0
  9
$DIMTM
 40
0.0
  9
$DIMTXT
 40
3.2000000000000002
  9
$DIMCEN
 40
0.09
  9
$DIMTSZ
 40
0.0
  9
$DIMTOL
 70
     0
  9
$DIMLIM
 70
     0
  9
$DIMTIH
 70
     0
  9
$DIMTOH
 70
     0
  9
$DIMSE1
 70
     0
  9
$DIMSE2
 70
     0
  9
$DIMTAD
 70
     1
  9
$DIMZIN
 70
     9
  9
$DIMBLK
  1

  9
$DIMASO
 70
     0
  9
$DIMSHO
 70
     0
  9
$DIMPOST
  1

  9
$DIMAPOST
  1

  9
$DIMALT
 70
     0
  9
$DIMALTD
 70
     2
  9
$DIMALTF
 40
25.399999999999999
  9
$DIMLFAC
 40
1.0
  9
$DIMTOFL
 70
     0
  9
$DIMTVP
 40
0.0
  9
$DIMTIX
 70
     0
  9
$DIMSOXD
 70
     0
  9
$DIMSAH
 70
     0
  9
$DIMBLK1
  1

  9
$DIMBLK2
  1

  9
$DIMSTYLE
  2
STANDARD
  9
$DIMCLRD
 70
     0
  9
$DIMCLRE
 70
     0
  9
$DIMCLRT
 70
     0
  9
$DIMTFAC
 40
1.0
  9
$DIMGAP
 40
0.09
  9
$LUNITS
 70
     2
  9
$LUPREC
 70
     1
  9
$SKETCHINC
 40
0.1
  9
$FILLETRAD
 40
20.0
  9
$AUNITS
 70
     0
  9
$AUPREC
 70
     1
  9
$MENU
  1
E:\r13\win\SUPPORT\ACAD
  9
$ELEVATION
 40
0.0
  9
$PELEVATION
 40
0.0
  9
$THICKNESS
 40
0.0
  9
$LIMCHECK
 70
     0
  9
$BLIPMODE
 70
     0
  9
$CHAMFERA
 40
0.0
  9
$CHAMFERB
 40
0.0
  9
$SKPOLY
 70
     0
  9
$TDCREATE
 40
2449840.6320370371
  9
$TDUPDATE
 40
2456927.6947964011
  9
$TDINDWG
 40
1.9728191318999999
  9
$TDUSRTIMER
 40
1.9728191318999999
  9
$USRTIMER
 70
     1
  9
$ANGBASE
 50
0.0
  9
$ANGDIR
 70
     0
  9
$PDMODE
 70
     0
  9
$PDSIZE
 40
0.0
  9
$PLINEWID
 40
0.0
  9
$COORDS
 70
     1
  9
$SPLFRAME
 70
     0
  9
$SPLINETYPE
 70
     6
  9
$SPLINESEGS
 70
     8
  9
$ATTDIA
 70
     0
  9
$ATTREQ
 70
     1
  9
$HANDLING
 70
     1
  9
$HANDSEED
  5
1F847
  9
$SURFTAB1
 70
     6
  9
$SURFTAB2
 70
     6
  9
$SURFTYPE
 70
     6
  9
$SURFU
 70
     6
  9
$SURFV
 70
     6
  9
$UCSNAME
  2

  9
$UCSORG
 10
0.0
 20
0.0
 30
0.0
  9
$UCSXDIR
 10
1.0
 20
0.0
 30
0.0
  9
$UCSYDIR
 10
0.0
 20
1.0
 30
0.0
  9
$PUCSNAME
  2

  9
$PUCSORG
 10
0.0
 20
0.0
 30
0.0
  9
$PUCSXDIR
 10
1.0
 20
0.0
 30
0.0
  9
$PUCSYDIR
 10
0.0
 20
1.0
 30
0.0
  9
$USERI1
 70
     0
  9
$USERI2
 70
     1
  9
$USERI3
 70
     0
  9
$USERI4
 70
     0
  9
$USERI5
 70
     0
  9
$USERR1
 40
0.0
  9
$USERR2
 40
0.0
  9
$USERR3
 40
0.0
  9
$USERR4
 40
0.0
  9
$USERR5
 40
0.0
  9
$WORLDVIEW
 70
     1
  9
$SHADEDGE
 70
     3
  9
$SHADEDIF
 70
    70
  9
$TILEMODE
 70
     1
  9
$MAXACTVP
 70
    16
  9
$PLIMCHECK
 70
     0
  9
$PEXTMIN
 10
1.0000000000000000E+020
 20
1.0000000000000000E+020
 30
1.0000000000000000E+020
  9
$PEXTMAX
 10
-1.0000000000000000E+020
 20
-1.0000000000000000E+020
 30
-1.0000000000000000E+020
  9
$PLIMMIN
 10
0.0
 20
0.0
  9
$PLIMMAX
 10
12.0
 20
9.0
  9
$UNITMODE
 70
     0
  9
$VISRETAIN
 70
     0
  9
$PLINEGEN
 70
     0
  9
$PSLTSCALE
 70
     0
  0
ENDSEC
  0
SECTION
  2
TABLES
  0
TABLE
  2
VPORT
 70
     1
  0
VPORT
  2
*ACTIVE
 70
     0
 10
0.0
 20
0.0
 11
1.0
 21
1.0
 12
165.8205841446453
 22
95.0
 13
0.0
 23
0.0
 14
10.0
 24
10.0
 15
10.0
 25
10.0
 16
0.0
 26
0.0
 36
1.0
 17
0.0
 27
0.0
 37
0.0
 40
190.0
 41
1.7454798331015291
 42
50.0
 43
0.0
 44
0.0
 50
0.0
 51
0.0
 71
     0
 72
   500
 73
     1
 74
     0
 75
     0
 76
     0
 77
     0
 78
     0
  0
ENDTAB
  0
TABLE
  2
LTYPE
 70
     4
  0
LTYPE
  2
CONTINUOUS
 70
     0
  3
Solid Line
 72
    65
 73
     0
 40
0.0
  0
LTYPE
  2
CENTER
 70
     0
  3
____ _ ____ _ ____ _ ____ _ ____ _ ____ _ ____
 72
    65
 73
     4
 40
2.0
 49
1.25
 49
-0.25
 49
0.25
 49
-0.25
  0
LTYPE
  2
PHANTOM
 70
     0
  3
_____ _ _ _____ _ _ _____ _ _ _____ _ _ ____
 72
    65
 73
     6
 40
2.5
 49
1.25
 49
-0.25
 49
0.25
 49
-0.25
 49
0.25
 49
-0.25
  0
LTYPE
  2
PHANTOM2
 70
     0
  3
___ _ _ ___ _ _ ___ _ _ ___ _ _
 72
    65
 73
     6
 40
1.25
 49
0.625
 49
-0.125
 49
0.125
 49
-0.125
 49
0.125
 49
-0.125
  0
ENDTAB
  0
TABLE
  2
LAYER
 70
     5
  0
LAYER
  2
0
 70
     0
 62
     7
  6
CONTINUOUS
  0
LAYER
  2
1
 70
     0
 62
     1
  6
CENTER
  0
LAYER
  2
DEFPOINTS
 70
     0
 62
     7
  6
CONTINUOUS
  0
LAYER
  2
5
 70
     0
 62
     3
  6
PHANTOM
  0
LAYER
  2
3
 70
     0
 62
     3
  6
CONTINUOUS
  0
ENDTAB
  0
TABLE
  2
STYLE
 70
     2
  0
STYLE
  2
STANDARD
 70
     0
 40
0.0
 41
1.0
 50
0.0
 71
     0
 42
6.0
  3
TXT
  4
BIGFONT
  0
STYLE
  2
STANDARD1
 70
     0
 40
0.0
 41
1.0
 50
0.0
 71
     0
 42
3.0
  3
txt
  4

  0
ENDTAB
  0
TABLE
  2
VIEW
 70
     1
  0
VIEW
  2
ALL
 70
     0
 40
270.0
 10
213.25689075630251
 20
135.0
 41
0.0
 11
0.0
 21
0.0
 31
1.0
 12
0.0
 22
0.0
 32
0.0
 42
0.0
 43
0.0
 44
0.0
 50
0.0
 71
     0
  0
ENDTAB
  0
TABLE
  2
UCS
 70
     0
  0
ENDTAB
  0
TABLE
  2
APPID
 70
    13
  0
APPID
  2
ACAD
 70
     0
  0
APPID
  2
ACAD_EXEMPT_FROM_CAD_STANDARDS
 70
     0
  0
APPID
  2
ACAD_MLEADERVER
 70
     0
  0
APPID
  2
ACAD_DSTYLE_DIMJAG
 70
     0
  0
APPID
  2
ACAD_DSTYLE_DIMTALN
 70
     0
  0
APPID
  2
ACAD_PSEXT
 70
     0
  0
APPID
  2
ACAD_DSTYLE_DIMBREAK
 70
     0
  0
APPID
  2
ACAECLAYERSTANDARD
 70
     0
  0
APPID
  2
ACCMTRANSPARENCY
 70
     0
  0
APPID
  2
GRADIENTCOLOR1ACI
 70
     0
  0
APPID
  2
GRADIENTCOLOR2ACI
 70
     0
  0
APPID
  2
ACAD_DSTYLE_DIMRADIAL_EXTENSION
 70
     0
  0
APPID
  2
ACAD_NAV_VCDISPLAY
 70
     0
  0
ENDTAB
  0
TABLE
  2
DIMSTYLE
 70
     1
  0
DIMSTYLE
  2
STANDARD
 70
     0
  3

  4

  5

  6

  7

 40
1.0
 41
0.18
 42
0.0625
 43
0.38
 44
0.18
 45
0.0
 46
0.0
 47
0.0
 48
0.0
140
0.18
141
0.09
142
0.0
143
25.399999999999999
144
1.0
145
0.0
146
1.0
147
0.09
 71
     0
 72
     0
 73
     1
 74
     1
 75
     0
 76
     0
 77
     0
 78
     0
170
     0
171
     2
172
     0
173
     0
174
     0
175
     0
176
     0
177
     0
178
     0
  0
ENDTAB
  0
ENDSEC
  0
SECTION
  2
BLOCKS
  0
BLOCK
  8
0
  2
$MODEL_SPACE
 70
     0
 10
0.0
 20
0.0
 30
0.0
  3
$MODEL_SPACE
  1

  0
ENDBLK
  5
126
  8
0
  0
BLOCK
 67
     1
  8
0
  2
$PAPER_SPACE
 70
     0
 10
0.0
 20
0.0
 30
0.0
  3
$PAPER_SPACE
  1

  0
ENDBLK
  5
124
 67
     1
  8
0
  0
ENDSEC
  0
SECTION
  2
ENTITIES
  0
TEXT
  5
1DA32
  8
0
 62
     3
 10
0.0
 20
0.0
 30
0.0
 40
5.0
  1
CP132-06001B
  7
STANDARD1
  0
ARC
  5
1ECB1
  8
0
 10
26.5
 20
33.099999999999852
 30
0.0
 40
0.75
 50
270.0000000000008
 51
90.0
  0
LINE
  5
1ECB2
  8
0
 10
15.0
 20
43.999999999999972
 30
0.0
 11
15.0
 21
38.0
 31
0.0
  0
LINE
  5
1ECB3
  8
0
 10
25.0
 20
38.0
 30
0.0
 11
25.0
 21
43.999999999999972
 31
0.0
  0
LINE
  5
1ECB4
  8
0
 10
17.0
 20
28.199999999999651
 30
0.0
 11
17.0
 21
21.0
 31
0.0
  0
LINE
  5
1ECB5
  8
0
 10
23.0
 20
21.0
 30
0.0
 11
23.0
 21
28.199999999999651
 31
0.0
  0
LINE
  5
1ECB6
  8
0
 10
17.0
 20
21.0
 30
0.0
 11
18.0
 21
20.0
 31
0.0
  0
LINE
  5
1ECB7
  8
0
 10
22.0
 20
20.0
 30
0.0
 11
23.0
 21
21.0
 31
0.0
  0
LINE
  5
1ECB8
  8
0
 10
25.899999999999981
 20
28.199999999999651
 30
0.0
 11
25.899999999999981
 21
29.499999999999769
 31
0.0
  0
LINE
  5
1ECB9
  8
0
 10
14.099999999999991
 20
29.499999999999769
 30
0.0
 11
14.099999999999991
 21
28.199999999999651
 31
0.0
  0
LINE
  5
1ECBA
  8
0
 10
14.099999999999991
 20
38.0
 30
0.0
 11
14.099999999999991
 21
36.699999999999868
 31
0.0
  0
LINE
  5
1ECBB
  8
0
 10
25.899999999999981
 20
36.699999999999868
 30
0.0
 11
25.899999999999981
 21
38.0
 31
0.0
  0
ARC
  5
1ECBC
  8
0
 10
13.49999999999998
 20
33.099999999999852
 30
0.0
 40
0.7500000000000123
 50
91.826727636268018
 51
270.0292866703179
  0
LINE
  5
1ECBF
  8
0
 10
15.0
 20
43.999999999999972
 30
0.0
 11
25.0
 21
43.999999999999972
 31
0.0
  0
LINE
  5
1ECC0
  8
0
 10
17.0
 20
21.0
 30
0.0
 11
23.0
 21
21.0
 31
0.0
  0
LINE
  5
1ECC1
  8
0
 10
22.0
 20
20.0
 30
0.0
 11
18.0
 21
20.0
 31
0.0
  0
LINE
  5
1ECC2
  8
0
 10
20.299999999999841
 20
29.699999999999651
 30
0.0
 11
19.700000000000099
 21
29.699999999999651
 31
0.0
  0
LINE
  5
1ECC3
  8
0
 10
20.299999999999841
 20
31.399999999999689
 30
0.0
 11
19.700000000000099
 21
31.399999999999689
 31
0.0
  0
LINE
  5
1ECC4
  8
0
 10
25.899999999999981
 20
28.199999999999651
 30
0.0
 11
14.099999999999991
 21
28.199999999999651
 31
0.0
  0
LINE
  5
1ECC5
  8
0
 10
14.099999999999991
 20
38.0
 30
0.0
 11
25.899999999999981
 21
38.0
 31
0.0
  0
LINE
  5
1ECC6
  8
0
 10
19.700000000000099
 20
36.5
 30
0.0
 11
20.299999999999841
 21
36.5
 31
0.0
  0
LINE
  5
1ECC7
  8
0
 10
19.69872559641226
 20
34.79999999999999
 30
0.0
 11
20.301261455826701
 21
34.79999999999999
 31
0.0
  0
LINE
  5
1ECC8
  8
0
 10
19.700000000000099
 20
36.699999999999868
 30
0.0
 11
19.700000000000099
 21
33.849999999999859
 31
0.0
  0
LINE
  5
1ECCA
  8
0
 10
17.72487113059648
 20
36.699999999999868
 30
0.0
 11
17.724871130596451
 21
33.849999999999859
 31
0.0
  0
LINE
  5
1ECCC
  8
0
 10
27.5
 20
33.849999999999859
 30
0.0
 11
12.499999999999959
 21
33.849999999999859
 31
0.0
  0
LINE
  5
1ECCD
  8
0
 10
12.499999999999959
 20
33.849999999999859
 30
0.0
 11
12.499999999999959
 21
36.699999999999868
 31
0.0
  0
LINE
  5
1ECCE
  8
0
 10
12.499999999999959
 20
36.699999999999868
 30
0.0
 11
19.700000000000099
 21
36.699999999999868
 31
0.0
  0
LINE
  5
1ECCF
  8
0
 10
19.700000000000099
 20
32.349999999999852
 30
0.0
 11
19.700000000000099
 21
29.499999999999769
 31
0.0
  0
LINE
  5
1ECD1
  8
0
 10
17.724871130596512
 20
32.349999999999852
 30
0.0
 11
17.724871130596512
 21
29.499999999999769
 31
0.0
  0
LINE
  5
1ECD3
  8
0
 10
19.700000000000099
 20
29.499999999999769
 30
0.0
 11
12.499999999999959
 21
29.499999999999769
 31
0.0
  0
LINE
  5
1ECD4
  8
0
 10
12.499999999999959
 20
29.499999999999769
 30
0.0
 11
12.499999999999959
 21
32.349999999999831
 31
0.0
  0
LINE
  5
1ECD5
  8
0
 10
12.499999999999959
 20
32.349999999999831
 30
0.0
 11
27.5
 21
32.349999999999909
 31
0.0
  0
LINE
  5
1ECD6
  8
0
 10
27.5
 20
32.349999999999802
 30
0.0
 11
27.5
 21
29.499999999999741
 31
0.0
  0
LINE
  5
1ECD7
  8
0
 10
22.275128869403432
 20
29.499999999999741
 30
0.0
 11
22.275128869403432
 21
32.349999999999802
 31
0.0
  0
LINE
  5
1ECD9
  8
0
 10
27.5
 20
29.499999999999741
 30
0.0
 11
20.299999999999841
 21
29.499999999999741
 31
0.0
  0
LINE
  5
1ECDA
  8
0
 10
20.299999999999841
 20
32.349999999999802
 30
0.0
 11
20.299999999999841
 21
29.499999999999741
 31
0.0
  0
LINE
  5
1ECDD
  8
0
 10
20.299999999999841
 20
36.699999999999868
 30
0.0
 11
20.299999999999841
 21
33.849999999999817
 31
0.0
  0
LINE
  5
1ECDF
  8
0
 10
22.275128869403432
 20
33.849999999999817
 30
0.0
 11
22.275128869403371
 21
36.699999999999868
 31
0.0
  0
LINE
  5
1ECE1
  8
0
 10
27.5
 20
36.699999999999868
 30
0.0
 11
27.5
 21
33.849999999999817
 31
0.0
  0
LINE
  5
1ECE2
  8
0
 10
20.299999999999841
 20
36.699999999999847
 30
0.0
 11
27.5
 21
36.699999999999868
 31
0.0
  0
LINE
  5
1ECE4
  8
0
 10
20.299999999999979
 20
78.547202249831685
 30
0.0
 11
19.699999999999989
 21
78.547202249831685
 31
0.0
  0
LINE
  5
1ECE5
  8
0
 10
19.699999999999989
 20
64.252797750168241
 30
0.0
 11
20.299999999999979
 21
64.252797750168241
 31
0.0
  0
LINE
  5
1ECEA
  8
0
 10
17.5
 20
72.843375672973991
 30
0.0
 11
17.5
 21
69.95662432702585
 31
0.0
  0
LINE
  5
1ECEB
  8
0
 10
20.0
 20
68.513248654051807
 30
0.0
 11
17.5
 21
69.95662432702585
 31
0.0
  0
LINE
  5
1ECEC
  8
0
 10
20.0
 20
68.513248654051807
 30
0.0
 11
22.5
 21
69.95662432702585
 31
0.0
  0
LINE
  5
1ECED
  8
0
 10
22.5
 20
69.95662432702585
 30
0.0
 11
22.5
 21
72.843375672973991
 31
0.0
  0
LINE
  5
1ECEE
  8
0
 10
20.0
 20
74.286751345948062
 30
0.0
 11
22.5
 21
72.843375672973991
 31
0.0
  0
LINE
  5
1ECEF
  8
0
 10
20.0
 20
74.286751345948062
 30
0.0
 11
17.5
 21
72.843375672973991
 31
0.0
  0
CIRCLE
  5
1ECF0
  8
0
 10
20.0
 20
71.399999999999949
 30
0.0
 40
5.0
  0
CIRCLE
  5
1ECF1
  8
0
 10
20.0
 20
71.399999999999949
 30
0.0
 40
5.9000000000000048
  0
LINE
  5
1ECF2
  8
0
 10
17.72487113059665
 20
78.799999999999926
 30
0.0
 11
12.50000000000003
 21
77.399999999999935
 31
0.0
  0
LINE
  5
1ECF3
  8
0
 10
19.700000000000209
 20
78.799999999999926
 30
0.0
 11
17.72487113059665
 21
78.799999999999926
 31
0.0
  0
LINE
  5
1ECF4
  8
0
 10
19.700000000000209
 20
78.799999999999926
 30
0.0
 11
19.700000000000209
 21
77.292367945062466
 31
0.0
  0
ARC
  5
1ECF5
  8
0
 10
19.900000000000151
 20
71.399999999999949
 30
0.0
 40
6.0000000000000417
 50
91.910213171709813
 51
268.08978682829019
  0
LINE
  5
1ECF6
  8
0
 10
19.700000000000099
 20
65.507632054937432
 30
0.0
 11
19.700000000000099
 21
63.999999999999908
 31
0.0
  0
LINE
  5
1ECF7
  8
0
 10
17.72487113059648
 20
63.999999999999908
 30
0.0
 11
19.700000000000099
 21
63.999999999999908
 31
0.0
  0
LINE
  5
1ECF8
  8
0
 10
12.49999999999994
 20
65.399999999999949
 30
0.0
 11
17.72487113059648
 21
63.999999999999908
 31
0.0
  0
LINE
  5
1ECF9
  8
0
 10
12.49999999999998
 20
69.400000000000006
 30
0.0
 11
12.49999999999994
 21
65.399999999999949
 31
0.0
  0
LINE
  5
1ECFA
  8
0
 10
12.49999999999998
 20
69.400000000000006
 30
0.0
 11
12.74999999999998
 21
69.649999999999977
 31
0.0
  0
LINE
  5
1ECFB
  8
0
 10
12.74999999999998
 20
69.649999999999977
 30
0.0
 11
12.75
 21
73.149999999999963
 31
0.0
  0
LINE
  5
1ECFC
  8
0
 10
12.75
 20
73.149999999999963
 30
0.0
 11
12.500000000000011
 21
73.400000000000006
 31
0.0
  0
LINE
  5
1ECFD
  8
0
 10
12.50000000000003
 20
77.399999999999935
 30
0.0
 11
12.500000000000011
 21
73.400000000000006
 31
0.0
  0
LINE
  5
1ED00
  8
0
 10
22.275128869403371
 20
63.999999999999972
 30
0.0
 11
27.5
 21
65.400000000000006
 31
0.0
  0
LINE
  5
1ED01
  8
0
 10
20.299999999999841
 20
63.999999999999972
 30
0.0
 11
22.275128869403371
 21
63.999999999999972
 31
0.0
  0
LINE
  5
1ED02
  8
0
 10
20.299999999999841
 20
63.999999999999972
 30
0.0
 11
20.299999999999841
 21
65.507632054937432
 31
0.0
  0
ARC
  5
1ED03
  8
0
 10
20.09999999999982
 20
71.399999999999963
 30
0.0
 40
6.0000000000000124
 50
271.91021317171061
 51
88.089786828289391
  0
LINE
  5
1ED04
  8
0
 10
20.299999999999841
 20
77.292367945062466
 30
0.0
 11
20.299999999999841
 21
78.799999999999955
 31
0.0
  0
LINE
  5
1ED05
  8
0
 10
22.275128869403432
 20
78.799999999999983
 30
0.0
 11
20.299999999999841
 21
78.799999999999955
 31
0.0
  0
LINE
  5
1ED06
  8
0
 10
27.5
 20
77.400000000000006
 30
0.0
 11
22.275128869403432
 21
78.799999999999983
 31
0.0
  0
LINE
  5
1ED07
  8
0
 10
27.5
 20
73.399999999999949
 30
0.0
 11
27.5
 21
77.400000000000006
 31
0.0
  0
LINE
  5
1ED08
  8
0
 10
27.5
 20
73.399999999999949
 30
0.0
 11
27.25
 21
73.149999999999963
 31
0.0
  0
LINE
  5
1ED09
  8
0
 10
27.25
 20
73.149999999999963
 30
0.0
 11
27.25
 21
69.650000000000006
 31
0.0
  0
LINE
  5
1ED0A
  8
0
 10
27.25
 20
69.650000000000006
 30
0.0
 11
27.5
 21
69.399999999999963
 31
0.0
  0
LINE
  5
1ED0B
  8
0
 10
27.5
 20
65.400000000000006
 30
0.0
 11
27.5
 21
69.399999999999963
 31
0.0
  0
LINE
  5
1ED0E
  8
0
 10
49.899999999999942
 20
43.999999999999972
 30
0.0
 11
49.899999999999942
 21
38.0
 31
0.0
  0
LINE
  5
1ED0F
  8
0
 10
59.899999999999977
 20
38.0
 30
0.0
 11
59.899999999999977
 21
43.999999999999972
 31
0.0
  0
LINE
  5
1ED10
  8
0
 10
51.899999999999949
 20
28.199999999999651
 30
0.0
 11
51.899999999999949
 21
21.0
 31
0.0
  0
LINE
  5
1ED11
  8
0
 10
57.899999999999977
 20
21.0
 30
0.0
 11
57.899999999999977
 21
28.199999999999651
 31
0.0
  0
LINE
  5
1ED12
  8
0
 10
51.899999999999949
 20
21.0
 30
0.0
 11
52.899999999999949
 21
20.0
 31
0.0
  0
LINE
  5
1ED13
  8
0
 10
56.89999999999997
 20
20.0
 30
0.0
 11
57.899999999999977
 21
21.0
 31
0.0
  0
LINE
  5
1ED14
  8
0
 10
60.799999999999947
 20
28.199999999999651
 30
0.0
 11
60.799999999999947
 21
29.499999999999769
 31
0.0
  0
LINE
  5
1ED15
  8
0
 10
48.99999999999995
 20
29.499999999999719
 30
0.0
 11
48.99999999999995
 21
28.199999999999651
 31
0.0
  0
LINE
  5
1ED16
  8
0
 10
48.99999999999995
 20
38.0
 30
0.0
 11
48.99999999999995
 21
36.699999999999868
 31
0.0
  0
LINE
  5
1ED17
  8
0
 10
60.799999999999947
 20
36.69999999999991
 30
0.0
 11
60.799999999999947
 21
38.0
 31
0.0
  0
ARC
  5
1ED18
  8
0
 10
48.502797750168241
 20
33.099999999999852
 30
0.0
 40
0.75
 50
90.00000000000081
 51
270.0
  0
ARC
  5
1ED19
  8
0
 10
61.297202249831678
 20
33.099999999999852
 30
0.0
 40
0.75
 50
270.0000000000008
 51
90.0
  0
LINE
  5
1ED1B
  8
0
 10
49.899999999999942
 20
43.999999999999972
 30
0.0
 11
59.899999999999977
 21
43.999999999999943
 31
0.0
  0
LINE
  5
1ED1C
  8
0
 10
51.899999999999949
 20
21.0
 30
0.0
 11
57.899999999999977
 21
21.0
 31
0.0
  0
LINE
  5
1ED1D
  8
0
 10
56.89999999999997
 20
20.0
 30
0.0
 11
52.899999999999949
 21
20.0
 31
0.0
  0
LINE
  5
1ED1E
  8
0
 10
60.799999999999947
 20
28.199999999999651
 30
0.0
 11
48.99999999999995
 21
28.199999999999651
 31
0.0
  0
LINE
  5
1ED1F
  8
0
 10
48.99999999999995
 20
38.0
 30
0.0
 11
60.799999999999947
 21
38.0
 31
0.0
  0
LINE
  5
1ED20
  8
0
 10
62.299999999999983
 20
36.69999999999991
 30
0.0
 11
62.299999999999947
 21
33.849999999999859
 31
0.0
  0
LINE
  5
1ED21
  8
0
 10
60.899999999999977
 20
33.849999999999859
 30
0.0
 11
60.899999999999977
 21
36.69999999999991
 31
0.0
  0
LINE
  5
1ED24
  8
0
 10
62.299999999999947
 20
32.349999999999852
 30
0.0
 11
62.299999999999947
 21
29.499999999999769
 31
0.0
  0
LINE
  5
1ED26
  8
0
 10
60.899999999999949
 20
29.499999999999769
 30
0.0
 11
60.899999999999949
 21
32.349999999999831
 31
0.0
  0
LINE
  5
1ED28
  8
0
 10
56.89999999999992
 20
36.69999999999991
 30
0.0
 11
56.89999999999992
 21
33.849999999999859
 31
0.0
  0
LINE
  5
1ED2B
  8
0
 10
56.89999999999992
 20
29.499999999999741
 30
0.0
 11
56.89999999999992
 21
32.349999999999831
 31
0.0
  0
LINE
  5
1ED2E
  8
0
 10
56.649999999999949
 20
29.499999999999741
 30
0.0
 11
56.649999999999977
 21
32.349999999999831
 31
0.0
  0
LINE
  5
1ED31
  8
0
 10
56.649999999999977
 20
33.849999999999859
 30
0.0
 11
56.649999999999977
 21
36.69999999999991
 31
0.0
  0
LINE
  5
1ED34
  8
0
 10
48.89999999999997
 20
32.349999999999802
 30
0.0
 11
48.899999999999949
 21
29.499999999999719
 31
0.0
  0
LINE
  5
1ED35
  8
0
 10
52.89999999999992
 20
29.499999999999741
 30
0.0
 11
52.89999999999992
 21
32.349999999999831
 31
0.0
  0
LINE
  5
1ED38
  8
0
 10
48.89999999999997
 20
36.699999999999868
 30
0.0
 11
48.89999999999997
 21
33.849999999999817
 31
0.0
  0
LINE
  5
1ED39
  8
0
 10
52.89999999999992
 20
33.849999999999859
 30
0.0
 11
52.89999999999992
 21
36.69999999999991
 31
0.0
  0
LINE
  5
1ED3C
  8
0
 10
53.149999999999949
 20
33.849999999999859
 30
0.0
 11
53.14999999999997
 21
36.69999999999991
 31
0.0
  0
LINE
  5
1ED3F
  8
0
 10
53.14999999999992
 20
29.499999999999741
 30
0.0
 11
53.149999999999949
 21
32.349999999999831
 31
0.0
  0
LINE
  5
1ED42
  8
0
 10
47.499999999999943
 20
29.499999999999719
 30
0.0
 11
47.499999999999972
 21
32.349999999999802
 31
0.0
  0
LINE
  5
1ED43
  8
0
 10
62.299999999999933
 20
29.499999999999719
 30
0.0
 11
47.499999999999943
 21
29.499999999999719
 31
0.0
  0
LINE
  5
1ED44
  8
0
 10
47.499999999999972
 20
32.349999999999802
 30
0.0
 11
62.299999999999947
 21
32.349999999999767
 31
0.0
  0
LINE
  5
1ED45
  8
0
 10
47.499999999999972
 20
33.849999999999817
 30
0.0
 11
47.5
 21
36.699999999999868
 31
0.0
  0
LINE
  5
1ED46
  8
0
 10
47.5
 20
36.699999999999868
 30
0.0
 11
62.299999999999947
 21
36.699999999999868
 31
0.0
  0
LINE
  5
1ED47
  8
0
 10
62.299999999999947
 20
33.849999999999802
 30
0.0
 11
47.499999999999972
 21
33.849999999999817
 31
0.0
  0
ARC
  5
1ED52
  8
5
 10
27.5
 20
32.099999999999852
 30
0.0
 40
0.75
 50
269.99999999999841
 51
90.000000000002444
  0
ARC
  5
1ED5D
  8
5
 10
12.49999999999997
 20
32.099999999999852
 30
0.0
 40
0.75
 50
90.028122058052404
 51
270.0000000000008
  0
LINE
  5
1ED67
  8
5
 10
12.79289321881342
 20
32.849999999999852
 30
0.0
 11
11.499999999999909
 21
32.849999999999852
 31
0.0
  0
LINE
  5
1ED68
  8
5
 10
11.499999999999909
 20
32.849999999999852
 30
0.0
 11
11.499999999999909
 21
35.699999999999932
 31
0.0
  0
LINE
  5
1ED69
  8
5
 10
11.499999999999909
 20
35.699999999999932
 30
0.0
 11
12.499999999999959
 21
35.699999999999932
 31
0.0
  0
LINE
  5
1ED6E
  8
5
 10
14.099999999999991
 20
28.499999999999769
 30
0.0
 11
11.499999999999909
 21
28.499999999999769
 31
0.0
  0
LINE
  5
1ED6F
  8
5
 10
11.499999999999909
 20
28.499999999999769
 30
0.0
 11
11.499999999999909
 21
31.34999999999982
 31
0.0
  0
LINE
  5
1ED70
  8
5
 10
11.499999999999909
 20
31.34999999999982
 30
0.0
 11
12.49999999999994
 21
31.34999999999982
 31
0.0
  0
LINE
  5
1ED71
  8
5
 10
28.500000000000028
 20
31.349999999999799
 30
0.0
 11
28.500000000000028
 21
28.499999999999719
 31
0.0
  0
LINE
  5
1ED73
  8
5
 10
27.5
 20
31.349999999999799
 30
0.0
 11
28.500000000000028
 21
31.349999999999799
 31
0.0
  0
LINE
  5
1ED74
  8
5
 10
28.500000000000028
 20
28.499999999999719
 30
0.0
 11
25.899999999999981
 21
28.499999999999719
 31
0.0
  0
LINE
  5
1ED7C
  8
5
 10
28.500000000000028
 20
35.699999999999903
 30
0.0
 11
28.500000000000028
 21
32.849999999999817
 31
0.0
  0
LINE
  5
1ED7D
  8
5
 10
27.5
 20
35.699999999999882
 30
0.0
 11
28.500000000000028
 21
35.699999999999903
 31
0.0
  0
LINE
  5
1ED7E
  8
5
 10
28.500000000000028
 20
32.849999999999817
 30
0.0
 11
27.207106781186528
 21
32.849999999999817
 31
0.0
  0
LINE
  5
1ED8D
  8
5
 10
16.724871130596679
 20
78.799999999999926
 30
0.0
 11
11.50000000000003
 21
77.399999999999935
 31
0.0
  0
LINE
  5
1ED8E
  8
5
 10
17.7248711305966
 20
78.799999999999926
 30
0.0
 11
16.724871130596679
 21
78.799999999999926
 31
0.0
  0
LINE
  5
1ED92
  8
5
 10
16.724871130596512
 20
63.999999999999908
 30
0.0
 11
17.72487113059648
 21
63.999999999999908
 31
0.0
  0
LINE
  5
1ED93
  8
5
 10
11.49999999999994
 20
65.399999999999949
 30
0.0
 11
16.724871130596512
 21
63.999999999999908
 31
0.0
  0
LINE
  5
1ED94
  8
5
 10
11.49999999999997
 20
69.400000000000006
 30
0.0
 11
11.49999999999994
 21
65.399999999999949
 31
0.0
  0
LINE
  5
1ED95
  8
5
 10
11.49999999999997
 20
69.400000000000006
 30
0.0
 11
11.74999999999997
 21
69.649999999999977
 31
0.0
  0
LINE
  5
1ED96
  8
5
 10
11.74999999999997
 20
69.649999999999977
 30
0.0
 11
11.75
 21
73.149999999999963
 31
0.0
  0
LINE
  5
1ED97
  8
5
 10
11.75
 20
73.149999999999963
 30
0.0
 11
11.5
 21
73.400000000000006
 31
0.0
  0
LINE
  5
1ED98
  8
5
 10
11.50000000000003
 20
77.399999999999935
 30
0.0
 11
11.5
 21
73.400000000000006
 31
0.0
  0
LINE
  5
1ED9B
  8
5
 10
23.2751288694034
 20
64.000000000000028
 30
0.0
 11
28.50000000000006
 21
65.400000000000034
 31
0.0
  0
LINE
  5
1ED9C
  8
5
 10
22.275128869403542
 20
64.000000000000057
 30
0.0
 11
23.2751288694034
 21
64.000000000000028
 31
0.0
  0
LINE
  5
1EDA0
  8
5
 10
23.27512886940346
 20
78.80000000000004
 30
0.0
 11
22.275128869403289
 21
78.800000000000011
 31
0.0
  0
LINE
  5
1EDA1
  8
5
 10
28.50000000000006
 20
77.400000000000034
 30
0.0
 11
23.27512886940346
 21
78.80000000000004
 31
0.0
  0
LINE
  5
1EDA2
  8
5
 10
28.50000000000006
 20
73.400000000000006
 30
0.0
 11
28.50000000000006
 21
77.400000000000034
 31
0.0
  0
LINE
  5
1EDA3
  8
5
 10
28.50000000000006
 20
73.400000000000006
 30
0.0
 11
28.25000000000006
 21
73.150000000000034
 31
0.0
  0
LINE
  5
1EDA4
  8
5
 10
28.25000000000006
 20
73.150000000000034
 30
0.0
 11
28.25000000000006
 21
69.650000000000034
 31
0.0
  0
LINE
  5
1EDA5
  8
5
 10
28.25000000000006
 20
69.650000000000034
 30
0.0
 11
28.50000000000006
 21
69.400000000000006
 31
0.0
  0
LINE
  5
1EDA6
  8
5
 10
28.50000000000006
 20
65.400000000000034
 30
0.0
 11
28.50000000000006
 21
69.400000000000006
 31
0.0
  0
ARC
  5
1EDB7
  8
5
 10
48.502797750168213
 20
32.099999999999852
 30
0.0
 40
0.75
 50
90.0
 51
270.0000000000008
  0
ARC
  5
1EDB8
  8
5
 10
61.297202249831713
 20
32.099999999999852
 30
0.0
 40
0.75
 50
269.99999999999841
 51
90.000000000002444
  0
LINE
  5
1EDBB
  8
5
 10
62.299999999999983
 20
35.699999999999932
 30
0.0
 11
62.299999999999947
 21
32.849999999999852
 31
0.0
  0
LINE
  5
1EDBD
  8
5
 10
60.899999999999977
 20
35.699999999999932
 30
0.0
 11
62.299999999999983
 21
35.699999999999932
 31
0.0
  0
LINE
  5
1EDBE
  8
5
 10
62.299999999999947
 20
32.849999999999852
 30
0.0
 11
60.899999999999949
 21
32.849999999999852
 31
0.0
  0
LINE
  5
1EDBF
  8
5
 10
62.299999999999947
 20
31.34999999999982
 30
0.0
 11
62.299999999999933
 21
28.499999999999769
 31
0.0
  0
LINE
  5
1EDC0
  8
5
 10
62.299999999999933
 20
28.499999999999769
 30
0.0
 11
60.899999999999949
 21
28.499999999999769
 31
0.0
  0
LINE
  5
1EDC2
  8
5
 10
60.899999999999949
 20
31.34999999999982
 30
0.0
 11
62.299999999999947
 21
31.34999999999982
 31
0.0
  0
LINE
  5
1EDDD
  8
5
 10
47.499999999999943
 20
28.499999999999719
 30
0.0
 11
47.499999999999972
 21
31.34999999999977
 31
0.0
  0
LINE
  5
1EDDE
  8
5
 10
48.899999999999949
 20
28.499999999999719
 30
0.0
 11
47.499999999999943
 21
28.499999999999719
 31
0.0
  0
LINE
  5
1EDDF
  8
5
 10
47.499999999999972
 20
31.34999999999977
 30
0.0
 11
48.899999999999949
 21
31.349999999999799
 31
0.0
  0
LINE
  5
1EDE0
  8
5
 10
47.499999999999972
 20
32.849999999999817
 30
0.0
 11
47.5
 21
35.699999999999903
 31
0.0
  0
LINE
  5
1EDE1
  8
5
 10
47.5
 20
35.699999999999903
 30
0.0
 11
48.89999999999997
 21
35.699999999999903
 31
0.0
  0
LINE
  5
1EDE2
  8
5
 10
48.89999999999997
 20
32.849999999999817
 30
0.0
 11
47.499999999999972
 21
32.849999999999817
 31
0.0
  0
LINE
  5
1F2E3
  8
1
 10
20.0
 20
81.799999999999969
 30
0.0
 11
20.0
 21
60.999999999999972
 31
0.0
  0
LINE
  5
1F2E4
  8
1
 10
30.5
 20
71.39999999999992
 30
0.0
 11
9.5000000000000142
 21
71.39999999999992
 31
0.0
  0
LINE
  5
1F2E5
  8
1
 10
20.0
 20
46.999999999999972
 30
0.0
 11
20.0
 21
14.99999999999965
 31
0.0
  0
LINE
  5
1F2E6
  8
3
 10
22.458500000000068
 20
20.458500000000011
 30
0.0
 11
22.458500000000068
 21
28.199999999999651
 31
0.0
  0
LINE
  5
1F2E7
  8
3
 10
17.541499999999932
 20
20.458500000000068
 30
0.0
 11
17.541499999999932
 21
28.19999999999968
 31
0.0
  0
LINE
  5
1F2E8
  8
1
 10
54.899999999999942
 20
46.999999999999972
 30
0.0
 11
54.899999999999942
 21
14.99999999999965
 31
0.0
  0
LINE
  5
1F2E9
  8
3
 10
57.358500000000021
 20
20.458500000000011
 30
0.0
 11
57.358500000000021
 21
28.199999999999651
 31
0.0
  0
LINE
  5
1F2EA
  8
3
 10
52.44149999999987
 20
20.458500000000068
 30
0.0
 11
52.44149999999987
 21
28.19999999999968
 31
0.0
  0
LINE
  5
1F79E
  8
5
 10
17.0
 20
21.0
 30
0.0
 11
17.0
 21
18.999999999999648
 31
0.0
  0
LINE
  5
1F79F
  8
5
 10
23.0
 20
18.999999999999648
 30
0.0
 11
23.0
 21
21.0
 31
0.0
  0
LINE
  5
1F7A0
  8
5
 10
17.0
 20
18.999999999999648
 30
0.0
 11
18.0
 21
17.999999999999648
 31
0.0
  0
LINE
  5
1F7A1
  8
5
 10
22.0
 20
17.999999999999648
 30
0.0
 11
23.0
 21
18.999999999999648
 31
0.0
  0
LINE
  5
1F7A2
  8
5
 10
17.0
 20
18.999999999999648
 30
0.0
 11
23.0
 21
18.999999999999648
 31
0.0
  0
LINE
  5
1F7A3
  8
5
 10
22.0
 20
17.999999999999648
 30
0.0
 11
18.0
 21
17.999999999999648
 31
0.0
  0
LINE
  5
1F7A4
  8
5
 10
22.458500000000068
 20
18.45849999999966
 30
0.0
 11
22.458500000000068
 21
20.458500000000068
 31
0.0
  0
LINE
  5
1F7A5
  8
5
 10
17.541499999999932
 20
18.45849999999972
 30
0.0
 11
17.541499999999932
 21
20.458500000000068
 31
0.0
  0
LINE
  5
1F7A6
  8
5
 10
51.899999999999949
 20
21.0
 30
0.0
 11
51.899999999999949
 21
18.999999999999648
 31
0.0
  0
LINE
  5
1F7A7
  8
5
 10
57.899999999999949
 20
18.999999999999648
 30
0.0
 11
57.899999999999949
 21
21.0
 31
0.0
  0
LINE
  5
1F7A8
  8
5
 10
51.899999999999949
 20
18.999999999999648
 30
0.0
 11
52.899999999999949
 21
17.999999999999648
 31
0.0
  0
LINE
  5
1F7A9
  8
5
 10
56.899999999999949
 20
17.999999999999648
 30
0.0
 11
57.899999999999949
 21
18.999999999999648
 31
0.0
  0
LINE
  5
1F7AA
  8
5
 10
51.899999999999949
 20
18.999999999999648
 30
0.0
 11
57.899999999999949
 21
18.999999999999648
 31
0.0
  0
LINE
  5
1F7AB
  8
5
 10
56.899999999999949
 20
17.999999999999648
 30
0.0
 11
52.899999999999949
 21
17.999999999999648
 31
0.0
  0
LINE
  5
1F7AC
  8
5
 10
57.358500000000021
 20
18.45849999999966
 30
0.0
 11
57.358500000000021
 21
20.458500000000068
 31
0.0
  0
LINE
  5
1F7AD
  8
5
 10
52.44149999999987
 20
18.45849999999972
 30
0.0
 11
52.44149999999987
 21
20.458500000000068
 31
0.0
  0
ENDSEC
  0
EOF
