  0
SECTION
  2
HEADER
  9
$ACADVER
  1
AC1009
  9
$INSBASE
 10
0.0
 20
0.0
 30
0.0
  9
$EXTMIN
 10
0.0
 20
-2.960436562073669
 30
0.0
  9
$EXTMAX
 10
285.3999969214201
 20
378.3999986787743
 30
0.0
  9
$LIMMIN
 10
0.0
 20
0.0
  9
$LIMMAX
 10
375.0
 20
270.0
  9
$ORTHOMODE
 70
     0
  9
$REGENMODE
 70
     1
  9
$FILLMODE
 70
     1
  9
$QTEXTMODE
 70
     0
  9
$MIRRTEXT
 70
     0
  9
$DRAGMODE
 70
     2
  9
$LTSCALE
 40
10.0
  9
$OSMODE
 70
    37
  9
$ATTMODE
 70
     1
  9
$TEXTSIZE
 40
6.0
  9
$TRACEWID
 40
0.05
  9
$TEXTSTYLE
  7
STANDARD
  9
$CLAYER
  8
0
  9
$CELTYPE
  6
BYLAYER
  9
$CECOLOR
 62
   256
  9
$DIMSCALE
 40
1.0
  9
$DIMASZ
 40
3.0
  9
$DIMEXO
 40
2.0
  9
$DIMDLI
 40
0.3799999999999999
  9
$DIMRND
 40
0.0
  9
$DIMDLE
 40
0.0
  9
$DIMEXE
 40
2.0
  9
$DIMTP
 40
0.0
  9
$DIMTM
 40
0.0
  9
$DIMTXT
 40
3.2000000000000002
  9
$DIMCEN
 40
0.09
  9
$DIMTSZ
 40
0.0
  9
$DIMTOL
 70
     0
  9
$DIMLIM
 70
     0
  9
$DIMTIH
 70
     0
  9
$DIMTOH
 70
     0
  9
$DIMSE1
 70
     0
  9
$DIMSE2
 70
     0
  9
$DIMTAD
 70
     1
  9
$DIMZIN
 70
     9
  9
$DIMBLK
  1

  9
$DIMASO
 70
     0
  9
$DIMSHO
 70
     0
  9
$DIMPOST
  1

  9
$DIMAPOST
  1

  9
$DIMALT
 70
     0
  9
$DIMALTD
 70
     2
  9
$DIMALTF
 40
25.399999999999999
  9
$DIMLFAC
 40
1.0
  9
$DIMTOFL
 70
     0
  9
$DIMTVP
 40
0.0
  9
$DIMTIX
 70
     0
  9
$DIMSOXD
 70
     0
  9
$DIMSAH
 70
     0
  9
$DIMBLK1
  1

  9
$DIMBLK2
  1

  9
$DIMSTYLE
  2
STANDARD
  9
$DIMCLRD
 70
     0
  9
$DIMCLRE
 70
     0
  9
$DIMCLRT
 70
     0
  9
$DIMTFAC
 40
1.0
  9
$DIMGAP
 40
0.09
  9
$LUNITS
 70
     2
  9
$LUPREC
 70
     4
  9
$SKETCHINC
 40
0.1
  9
$FILLETRAD
 40
20.0
  9
$AUNITS
 70
     0
  9
$AUPREC
 70
     3
  9
$MENU
  1
E:\r13\win\SUPPORT\ACAD
  9
$ELEVATION
 40
0.0
  9
$PELEVATION
 40
0.0
  9
$THICKNESS
 40
0.0
  9
$LIMCHECK
 70
     0
  9
$BLIPMODE
 70
     0
  9
$CHAMFERA
 40
0.0
  9
$CHAMFERB
 40
0.0
  9
$SKPOLY
 70
     0
  9
$TDCREATE
 40
2449840.6320370371
  9
$TDUPDATE
 40
2456927.6948285419
  9
$TDINDWG
 40
1.9881346412000001
  9
$TDUSRTIMER
 40
1.9881346412000001
  9
$USRTIMER
 70
     1
  9
$ANGBASE
 50
0.0
  9
$ANGDIR
 70
     0
  9
$PDMODE
 70
     0
  9
$PDSIZE
 40
0.0
  9
$PLINEWID
 40
0.0
  9
$COORDS
 70
     1
  9
$SPLFRAME
 70
     0
  9
$SPLINETYPE
 70
     6
  9
$SPLINESEGS
 70
     8
  9
$ATTDIA
 70
     0
  9
$ATTREQ
 70
     1
  9
$HANDLING
 70
     1
  9
$HANDSEED
  5
1B959
  9
$SURFTAB1
 70
     6
  9
$SURFTAB2
 70
     6
  9
$SURFTYPE
 70
     6
  9
$SURFU
 70
     6
  9
$SURFV
 70
     6
  9
$UCSNAME
  2

  9
$UCSORG
 10
0.0
 20
0.0
 30
0.0
  9
$UCSXDIR
 10
1.0
 20
0.0
 30
0.0
  9
$UCSYDIR
 10
0.0
 20
1.0
 30
0.0
  9
$PUCSNAME
  2

  9
$PUCSORG
 10
0.0
 20
0.0
 30
0.0
  9
$PUCSXDIR
 10
1.0
 20
0.0
 30
0.0
  9
$PUCSYDIR
 10
0.0
 20
1.0
 30
0.0
  9
$USERI1
 70
     0
  9
$USERI2
 70
     1
  9
$USERI3
 70
     0
  9
$USERI4
 70
     0
  9
$USERI5
 70
     0
  9
$USERR1
 40
0.0
  9
$USERR2
 40
0.0
  9
$USERR3
 40
0.0
  9
$USERR4
 40
0.0
  9
$USERR5
 40
0.0
  9
$WORLDVIEW
 70
     1
  9
$SHADEDGE
 70
     3
  9
$SHADEDIF
 70
    70
  9
$TILEMODE
 70
     1
  9
$MAXACTVP
 70
    16
  9
$PLIMCHECK
 70
     0
  9
$PEXTMIN
 10
1.0000000000000000E+020
 20
1.0000000000000000E+020
 30
1.0000000000000000E+020
  9
$PEXTMAX
 10
-1.0000000000000000E+020
 20
-1.0000000000000000E+020
 30
-1.0000000000000000E+020
  9
$PLIMMIN
 10
0.0
 20
0.0
  9
$PLIMMAX
 10
12.0
 20
9.0
  9
$UNITMODE
 70
     0
  9
$VISRETAIN
 70
     0
  9
$PLINEGEN
 70
     0
  9
$PSLTSCALE
 70
     0
  0
ENDSEC
  0
SECTION
  2
TABLES
  0
TABLE
  2
VPORT
 70
     1
  0
VPORT
  2
*ACTIVE
 70
     0
 10
0.0
 20
0.0
 11
1.0
 21
1.0
 12
187.5
 22
211.0889587647645
 13
0.0
 23
0.0
 14
10.0
 24
10.0
 15
10.0
 25
10.0
 16
0.0
 26
0.0
 36
1.0
 17
0.0
 27
0.0
 37
0.0
 40
431.44405762947309
 41
1.74547983310153
 42
50.0
 43
0.0
 44
0.0
 50
0.0
 51
0.0
 71
     0
 72
   500
 73
     1
 74
     0
 75
     0
 76
     0
 77
     0
 78
     0
  0
ENDTAB
  0
TABLE
  2
LTYPE
 70
     4
  0
LTYPE
  2
CONTINUOUS
 70
     0
  3
Solid Line
 72
    65
 73
     0
 40
0.0
  0
LTYPE
  2
CENTER
 70
     0
  3
____ _ ____ _ ____ _ ____ _ ____ _ ____ _ ____
 72
    65
 73
     4
 40
2.0
 49
1.25
 49
-0.25
 49
0.25
 49
-0.25
  0
LTYPE
  2
PHANTOM
 70
     0
  3
_____ _ _ _____ _ _ _____ _ _ _____ _ _ ____
 72
    65
 73
     6
 40
2.5
 49
1.25
 49
-0.25
 49
0.25
 49
-0.25
 49
0.25
 49
-0.25
  0
LTYPE
  2
PHANTOM2
 70
     0
  3
___ _ _ ___ _ _ ___ _ _ ___ _ _
 72
    65
 73
     6
 40
1.25
 49
0.625
 49
-0.125
 49
0.125
 49
-0.125
 49
0.125
 49
-0.125
  0
ENDTAB
  0
TABLE
  2
LAYER
 70
     4
  0
LAYER
  2
0
 70
     0
 62
     7
  6
CONTINUOUS
  0
LAYER
  2
1
 70
     0
 62
     1
  6
CENTER
  0
LAYER
  2
DEFPOINTS
 70
     0
 62
     7
  6
CONTINUOUS
  0
LAYER
  2
5
 70
     0
 62
     3
  6
PHANTOM
  0
ENDTAB
  0
TABLE
  2
STYLE
 70
     2
  0
STYLE
  2
STANDARD
 70
     0
 40
0.0
 41
1.0
 50
0.0
 71
     0
 42
6.0
  3
TXT
  4
BIGFONT
  0
STYLE
  2
STANDARD1
 70
     0
 40
0.0
 41
1.0
 50
0.0
 71
     0
 42
3.0
  3
txt
  4

  0
ENDTAB
  0
TABLE
  2
VIEW
 70
     1
  0
VIEW
  2
ALL
 70
     0
 40
270.0
 10
213.25689075630251
 20
135.0
 41
0.0
 11
0.0
 21
0.0
 31
1.0
 12
0.0
 22
0.0
 32
0.0
 42
0.0
 43
0.0
 44
0.0
 50
0.0
 71
     0
  0
ENDTAB
  0
TABLE
  2
UCS
 70
     0
  0
ENDTAB
  0
TABLE
  2
APPID
 70
    13
  0
APPID
  2
ACAD
 70
     0
  0
APPID
  2
ACAD_EXEMPT_FROM_CAD_STANDARDS
 70
     0
  0
APPID
  2
ACAD_MLEADERVER
 70
     0
  0
APPID
  2
ACAD_DSTYLE_DIMJAG
 70
     0
  0
APPID
  2
ACAD_DSTYLE_DIMTALN
 70
     0
  0
APPID
  2
ACAD_PSEXT
 70
     0
  0
APPID
  2
ACAD_DSTYLE_DIMBREAK
 70
     0
  0
APPID
  2
ACAECLAYERSTANDARD
 70
     0
  0
APPID
  2
ACCMTRANSPARENCY
 70
     0
  0
APPID
  2
GRADIENTCOLOR1ACI
 70
     0
  0
APPID
  2
GRADIENTCOLOR2ACI
 70
     0
  0
APPID
  2
ACAD_DSTYLE_DIMRADIAL_EXTENSION
 70
     0
  0
APPID
  2
ACAD_NAV_VCDISPLAY
 70
     0
  0
ENDTAB
  0
TABLE
  2
DIMSTYLE
 70
     1
  0
DIMSTYLE
  2
STANDARD
 70
     0
  3

  4

  5

  6

  7

 40
1.0
 41
0.18
 42
0.0625
 43
0.38
 44
0.18
 45
0.0
 46
0.0
 47
0.0
 48
0.0
140
0.18
141
0.09
142
0.0
143
25.399999999999999
144
1.0
145
0.0
146
1.0
147
0.09
 71
     0
 72
     0
 73
     1
 74
     1
 75
     0
 76
     0
 77
     0
 78
     0
170
     0
171
     2
172
     0
173
     0
174
     0
175
     0
176
     0
177
     0
178
     0
  0
ENDTAB
  0
ENDSEC
  0
SECTION
  2
BLOCKS
  0
BLOCK
  8
0
  2
$MODEL_SPACE
 70
     0
 10
0.0
 20
0.0
 30
0.0
  3
$MODEL_SPACE
  1

  0
ENDBLK
  5
126
  8
0
  0
BLOCK
 67
     1
  8
0
  2
$PAPER_SPACE
 70
     0
 10
0.0
 20
0.0
 30
0.0
  3
$PAPER_SPACE
  1

  0
ENDBLK
  5
124
 67
     1
  8
0
  0
ENDSEC
  0
SECTION
  2
ENTITIES
  0
TEXT
  5
1B133
  8
0
 62
     3
 10
0.0
 20
0.0
 30
0.0
 40
10.0
  1
CP151-12125
  7
STANDARD1
  0
LINE
  5
1B695
  8
0
 10
129.99999932944769
 20
180.43579083681101
 30
0.0
 11
129.99999932944769
 21
230.0000033974647
 31
0.0
  0
LINE
  5
1B696
  8
0
 10
70.000000670552268
 20
230.0000033974647
 30
0.0
 11
70.000000670552268
 21
180.43579083681101
 31
0.0
  0
ARC
  5
1B697
  8
0
 10
72.000000000000014
 20
230.0
 30
0.0
 40
2.0000000000000142
 50
90.0
 51
180.0
  0
ARC
  5
1B698
  8
0
 10
128.0
 20
230.0
 30
0.0
 40
2.0
 50
0.0
 51
90.0
  0
ARC
  5
1B699
  8
0
 10
71.499999999999943
 20
180.43578965016559
 30
0.0
 40
1.500000000000143
 50
180.0
 51
235.1500954209651
  0
ARC
  5
1B69A
  8
0
 10
128.50000000000011
 20
180.43578965016559
 30
0.0
 40
1.500000000000127
 50
304.84990457903592
 51
0.0
  0
ARC
  5
1B69B
  8
0
 10
128.0
 20
109.0
 30
0.0
 40
2.0
 50
270.0
 51
0.0
  0
ARC
  5
1B69C
  8
0
 10
72.000000000000014
 20
109.0
 30
0.0
 40
2.0000000000000142
 50
180.0
 51
270.0
  0
LINE
  5
1B69D
  8
0
 10
129.99999932944769
 20
109.0000000949949
 30
0.0
 11
129.99999932944769
 21
158.56420916318891
 31
0.0
  0
LINE
  5
1B69E
  8
0
 10
70.000000670552268
 20
158.56420916318891
 30
0.0
 11
70.000000670552268
 21
109.0000000949949
 31
0.0
  0
ARC
  5
1B69F
  8
0
 10
71.499999999999943
 20
158.5642103498345
 30
0.0
 40
1.5000000000001119
 50
124.84990457903589
 51
180.0
  0
ARC
  5
1B6A0
  8
0
 10
128.50000000000011
 20
158.5642103498345
 30
0.0
 40
1.500000000000103
 50
0.0
 51
55.150095420964099
  0
ARC
  5
1B6A1
  8
0
 10
130.49999999999989
 20
177.56350832689631
 30
0.0
 40
2.0
 50
124.8499045790453
 51
180.0
  0
ARC
  5
1B6A2
  8
0
 10
69.500000000000043
 20
177.56350832689631
 30
0.0
 40
1.9999999999999849
 50
0.0
 51
55.150095420954621
  0
ARC
  5
1B6A3
  8
0
 10
130.49999999999989
 20
161.43649167310369
 30
0.0
 40
2.0
 50
180.0
 51
235.15009542095669
  0
ARC
  5
1B6A4
  8
0
 10
69.500000000000043
 20
161.43649167310369
 30
0.0
 40
1.9999999999999849
 50
304.84990457904541
 51
0.0
  0
LINE
  5
1B6A5
  8
0
 10
128.5000000149011
 20
161.43648993968961
 30
0.0
 11
128.5000000149011
 21
177.56351006031031
 31
0.0
  0
LINE
  5
1B6A6
  8
0
 10
71.499999985098853
 20
177.56351006031031
 30
0.0
 11
71.499999985098853
 21
161.43648993968961
 31
0.0
  0
CIRCLE
  5
1B6A7
  8
0
 10
100.0000000000003
 20
117.0
 30
0.0
 40
4.25
  0
CIRCLE
  5
1B6A8
  8
0
 10
100.0000000000003
 20
117.0
 30
0.0
 40
4.0499999999999821
  0
LINE
  5
1B6A9
  8
0
 10
98.267949209548419
 20
116.9999997764826
 30
0.0
 11
99.133974604774153
 21
115.500000461936
 31
0.0
  0
LINE
  5
1B6AA
  8
0
 10
99.133974604774153
 20
115.500000461936
 30
0.0
 11
100.86602539522561
 21
115.500000461936
 31
0.0
  0
LINE
  5
1B6AB
  8
0
 10
100.86602539522561
 20
115.500000461936
 30
0.0
 11
101.7320507904513
 21
116.9999997764826
 31
0.0
  0
LINE
  5
1B6AC
  8
0
 10
101.7320507904513
 20
116.9999997764826
 30
0.0
 11
100.86602539522561
 21
118.5000000223517
 31
0.0
  0
LINE
  5
1B6AD
  8
0
 10
100.86602539522561
 20
118.5000000223517
 30
0.0
 11
99.133974604774153
 21
118.5000000223517
 31
0.0
  0
LINE
  5
1B6AE
  8
0
 10
99.133974604774153
 20
118.5000000223517
 30
0.0
 11
98.267949209548419
 21
116.9999997764826
 31
0.0
  0
CIRCLE
  5
1B6AF
  8
0
 10
99.999999999999886
 20
222.0
 30
0.0
 40
4.25
  0
CIRCLE
  5
1B6B0
  8
0
 10
99.999999999999886
 20
222.0
 30
0.0
 40
4.0500000000000114
  0
LINE
  5
1B6B1
  8
0
 10
101.7320507904513
 20
222.00000208616251
 30
0.0
 11
100.86602539522561
 21
223.4999976754188
 31
0.0
  0
LINE
  5
1B6B2
  8
0
 10
100.86602539522561
 20
223.4999976754188
 30
0.0
 11
99.133974604774153
 21
223.4999976754188
 31
0.0
  0
LINE
  5
1B6B3
  8
0
 10
99.133974604774153
 20
223.4999976754188
 30
0.0
 11
98.267949209548419
 21
222.00000208616251
 31
0.0
  0
LINE
  5
1B6B4
  8
0
 10
98.267949209548419
 20
222.00000208616251
 30
0.0
 11
99.133974604774153
 21
220.49999904632571
 31
0.0
  0
LINE
  5
1B6B5
  8
0
 10
99.133974604774153
 20
220.49999904632571
 30
0.0
 11
100.86602539522561
 21
220.49999904632571
 31
0.0
  0
LINE
  5
1B6B6
  8
0
 10
100.86602539522561
 20
220.49999904632571
 30
0.0
 11
101.7320507904513
 21
222.00000208616251
 31
0.0
  0
CIRCLE
  5
1B6BB
  8
0
 10
100.0000000000003
 20
117.0
 30
0.0
 40
4.5
  0
CIRCLE
  5
1B6C0
  8
0
 10
99.999999999999886
 20
222.0
 30
0.0
 40
4.5
  0
LINE
  5
1B6C3
  8
0
 10
103.0000000260769
 20
203.73205018043521
 30
0.0
 11
103.0000000260769
 21
200.267947435379
 31
0.0
  0
LINE
  5
1B6C6
  8
0
 10
96.999999973922854
 20
200.267947435379
 30
0.0
 11
96.999999973922854
 21
203.73205018043521
 31
0.0
  0
CIRCLE
  5
1B6C7
  8
0
 10
99.999999999999886
 20
202.0
 30
0.0
 40
3.75
  0
CIRCLE
  5
1B6C8
  8
0
 10
99.999999999999886
 20
202.0
 30
0.0
 40
5.9999999999999707
  0
CIRCLE
  5
1B6C9
  8
0
 10
99.999999999999886
 20
202.0
 30
0.0
 40
4.9999999999999707
  0
LINE
  5
1B6D2
  8
0
 10
96.999999973922854
 20
135.26794981956479
 30
0.0
 11
96.999999973922854
 21
138.732052564621
 31
0.0
  0
LINE
  5
1B6D5
  8
0
 10
103.0000000260769
 20
138.732052564621
 30
0.0
 11
103.0000000260769
 21
135.26794981956479
 31
0.0
  0
CIRCLE
  5
1B6D6
  8
0
 10
100.0000000000001
 20
137.0
 30
0.0
 40
3.75
  0
CIRCLE
  5
1B6D7
  8
0
 10
100.0000000000001
 20
137.0
 30
0.0
 40
5.9999999999999707
  0
CIRCLE
  5
1B6D8
  8
0
 10
100.0000000000001
 20
137.0
 30
0.0
 40
5.0
  0
ARC
  5
1B6DF
  8
0
 10
99.999999999999886
 20
201.99999972816909
 30
0.0
 40
16.000000723458822
 50
104.361511733093
 51
75.63848826690699
  0
CIRCLE
  5
1B6E5
  8
0
 10
99.999999999999886
 20
202.0
 30
0.0
 40
6.7496235190965876
  0
ARC
  5
1B6EA
  8
0
 10
99.999999999999886
 20
137.0000002718308
 30
0.0
 40
16.00000072345879
 50
284.36151173309298
 51
255.63848826690909
  0
CIRCLE
  5
1B6F0
  8
0
 10
100.0000000000001
 20
137.0
 30
0.0
 40
6.7496206084355794
  0
LINE
  5
1B6F7
  8
0
 10
71.999999135732665
 20
232.0
 30
0.0
 11
128.00000086426729
 21
232.0
 31
0.0
  0
LINE
  5
1B6F8
  8
0
 10
128.00000086426729
 20
107.0
 30
0.0
 11
71.999999135732665
 21
107.0
 31
0.0
  0
LINE
  5
1B6FB
  8
0
 10
129.99999932944769
 20
230.0000033974647
 30
0.0
 11
70.000000670552268
 21
230.0000033974647
 31
0.0
  0
LINE
  5
1B6FC
  8
0
 10
70.000000670552268
 20
180.43579083681101
 30
0.0
 11
129.99999932944769
 21
180.43579083681101
 31
0.0
  0
LINE
  5
1B6FD
  8
0
 10
129.35714274644849
 20
179.20481336116791
 30
0.0
 11
70.642857253551497
 21
179.20481336116791
 31
0.0
  0
LINE
  5
1B6FE
  8
0
 10
70.000000670552268
 20
109.0000000949949
 30
0.0
 11
129.99999932944769
 21
109.0000000949949
 31
0.0
  0
LINE
  5
1B6FF
  8
0
 10
129.99999932944769
 20
158.56420916318891
 30
0.0
 11
70.000000670552268
 21
158.56420916318891
 31
0.0
  0
LINE
  5
1B700
  8
0
 10
70.642857253551497
 20
159.79518663883209
 30
0.0
 11
129.35714274644849
 21
159.79518663883209
 31
0.0
  0
LINE
  5
1B701
  8
0
 10
128.5000000149011
 20
177.56351006031031
 30
0.0
 11
71.499999985098853
 21
177.56351006031031
 31
0.0
  0
LINE
  5
1B702
  8
0
 10
128.5000000149011
 20
161.43648993968961
 30
0.0
 11
71.499999985098853
 21
161.43648993968961
 31
0.0
  0
LINE
  5
1B703
  8
0
 10
218.1293457496314
 20
207.743652666923
 30
0.0
 11
217.6999987959862
 21
207.00000149011609
 31
0.0
  0
LINE
  5
1B704
  8
0
 10
217.6999987959862
 20
197.00000357627869
 30
0.0
 11
218.13191384900369
 21
196.2518952601252
 31
0.0
  0
ARC
  5
1B707
  8
0
 10
218.61685654695751
 20
186.98837618803179
 30
0.0
 40
0.9171086138985581
 50
178.65984390171789
 51
221.7845442335946
  0
LINE
  5
1B708
  8
0
 10
217.6999987959862
 20
194.4499976634979
 30
0.0
 11
217.6999987959862
 21
187.009825527668
 31
0.0
  0
LINE
  5
1B709
  8
0
 10
217.6999987959862
 20
216.0058758854866
 30
0.0
 11
217.6999987959862
 21
209.5330722332001
 31
0.0
  0
ARC
  5
1B717
  8
0
 10
276.7996254977395
 20
186.97878898718091
 30
0.0
 40
0.90090672550128
 50
317.92369197165431
 51
1.974249571290674
  0
LINE
  5
1B718
  8
0
 10
277.69999745488172
 20
187.00982552766831
 30
0.0
 11
277.69999745488172
 21
216.0058758854866
 31
0.0
  0
ARC
  5
1B71A
  8
0
 10
219.69999812543401
 20
230.0
 30
0.0
 40
2.0
 50
90.0
 51
180.0
  0
ARC
  5
1B71B
  8
0
 10
275.69999812543392
 20
230.0
 30
0.0
 40
2.0
 50
0.0
 51
89.999999999998366
  0
ARC
  5
1B71C
  8
0
 10
219.19999812543389
 20
180.43578965016559
 30
0.0
 40
1.500000000000143
 50
180.0
 51
235.1500954209651
  0
ARC
  5
1B71D
  8
0
 10
276.19999812543398
 20
180.43578965016559
 30
0.0
 40
1.500000000000143
 50
304.84990457903717
 51
0.0
  0
LINE
  5
1B71E
  8
0
 10
277.69999745488172
 20
227.97955495119089
 30
0.0
 11
277.69999745488172
 21
230.0000033974647
 31
0.0
  0
LINE
  5
1B71F
  8
0
 10
277.69999745488172
 20
180.43579083681101
 30
0.0
 11
277.69999745488172
 21
186.0000036358833
 31
0.0
  0
LINE
  5
1B720
  8
0
 10
217.6999987959862
 20
186.0000036358833
 30
0.0
 11
217.6999987959862
 21
180.43579083681101
 31
0.0
  0
LINE
  5
1B721
  8
0
 10
217.6999987959862
 20
230.0000033974647
 30
0.0
 11
217.6999987959862
 21
227.97955495119089
 31
0.0
  0
LINE
  5
1B722
  8
0
 10
277.69999745488172
 20
153.00000008940691
 30
0.0
 11
277.69999745488172
 21
158.56420916318891
 31
0.0
  0
LINE
  5
1B723
  8
0
 10
277.69999745488172
 20
109.0000000949949
 30
0.0
 11
277.69999745488172
 21
111.0088323876261
 31
0.0
  0
LINE
  5
1B724
  8
0
 10
217.6999987959862
 20
111.0088323876261
 30
0.0
 11
217.6999987959862
 21
109.0000000949949
 31
0.0
  0
LINE
  5
1B725
  8
0
 10
217.6999987959862
 20
158.56420916318891
 30
0.0
 11
217.6999987959862
 21
153.00000008940691
 31
0.0
  0
ARC
  5
1B726
  8
0
 10
219.19999584307379
 20
158.56421235885159
 30
0.0
 40
1.4999970470909709
 50
124.8498768855178
 51
180.00012206556119
  0
ARC
  5
1B727
  8
0
 10
276.19999812543398
 20
158.5642103498345
 30
0.0
 40
1.5000000000001199
 50
0.0
 51
55.150095420962792
  0
ARC
  5
1B728
  8
0
 10
275.69999812543392
 20
109.0
 30
0.0
 40
2.0
 50
270.00000000000171
 51
0.0
  0
ARC
  5
1B729
  8
0
 10
219.69999812543401
 20
109.0
 30
0.0
 40
2.0
 50
180.0
 51
270.0
  0
ARC
  5
1B72A
  8
0
 10
278.19999812543392
 20
161.43649167310369
 30
0.0
 40
2.0
 50
180.0
 51
235.1500954209566
  0
ARC
  5
1B72B
  8
0
 10
217.19999812543401
 20
161.43649167310369
 30
0.0
 40
2.0
 50
304.8499045790453
 51
0.0
  0
ARC
  5
1B72C
  8
0
 10
278.19999812543392
 20
177.56350832689631
 30
0.0
 40
2.0
 50
124.8499045790453
 51
180.0
  0
ARC
  5
1B72D
  8
0
 10
217.19999812543401
 20
177.56350832689631
 30
0.0
 40
2.0
 50
0.0
 51
55.150095420954649
  0
LINE
  5
1B72E
  8
0
 10
276.19999814033508
 20
161.43648993968961
 30
0.0
 11
276.19999814033508
 21
177.56351006031031
 31
0.0
  0
LINE
  5
1B72F
  8
0
 10
219.19999811053279
 20
177.56351006031031
 30
0.0
 11
219.19999811053279
 21
161.43648993968961
 31
0.0
  0
LINE
  5
1B738
  8
0
 10
218.2773480117321
 20
206.9716311588185
 30
0.0
 11
218.2773480117321
 21
197.01143873787959
 31
0.0
  0
LINE
  5
1B739
  8
0
 10
217.6999987959862
 20
197.00000357627869
 30
0.0
 11
217.6999987959862
 21
207.00000149011609
 31
0.0
  0
ARC
  5
1B742
  8
0
 10
185.6929879376076
 20
222.4040121637247
 30
0.0
 40
32.641379472801397
 50
348.6960908971667
 51
350.00487824797881
  0
LINE
  5
1B753
  8
0
 10
219.6999972611666
 20
232.0
 30
0.0
 11
275.69999898970133
 21
232.0
 31
0.0
  0
ARC
  5
1B757
  8
0
 10
307.11938424381549
 20
221.99629214415401
 30
0.0
 40
30.021654732125711
 50
168.50407525179651
 51
188.6134985495402
  0
ARC
  5
1B759
  8
0
 10
188.21200607338361
 20
116.9988027231558
 30
0.0
 40
30.09022199035401
 50
348.51759473501949
 51
8.6031682772234621
  0
LINE
  5
1B75D
  8
0
 10
275.69999898970133
 20
107.0
 30
0.0
 11
219.69999812543401
 21
107.0
 31
0.0
  0
LINE
  5
1B761
  8
0
 10
277.69999745488172
 20
230.0000033974647
 30
0.0
 11
217.6999987959862
 21
230.0000033974647
 31
0.0
  0
LINE
  5
1B763
  8
0
 10
277.05714087188238
 20
179.20481336116791
 30
0.0
 11
218.34285322757481
 21
179.20481336116791
 31
0.0
  0
LINE
  5
1B764
  8
0
 10
217.6999987959862
 20
180.43579083681101
 30
0.0
 11
277.69999745488172
 21
180.43579083681101
 31
0.0
  0
LINE
  5
1B765
  8
0
 10
277.69999745488172
 20
158.56420916318891
 30
0.0
 11
217.6999987959862
 21
158.56420916318891
 31
0.0
  0
LINE
  5
1B766
  8
0
 10
217.69999879598609
 20
109.0000000949949
 30
0.0
 11
277.69999745488172
 21
109.0000000949949
 31
0.0
  0
LINE
  5
1B768
  8
0
 10
218.3428553789854
 20
159.79518663883209
 30
0.0
 11
277.05714087188238
 21
159.79518663883209
 31
0.0
  0
LINE
  5
1B76A
  8
0
 10
276.19999814033508
 20
161.43648993968961
 30
0.0
 11
219.19999812543321
 21
161.43648993968961
 31
0.0
  0
LINE
  5
1B76C
  8
0
 10
276.19999814033508
 20
177.56351006031031
 30
0.0
 11
219.19999812543321
 21
177.56351006031031
 31
0.0
  0
ARC
  5
1B774
  8
5
 10
213.97112005625729
 20
186.97137175427221
 30
0.0
 40
0.9718817617012824
 50
177.73242561675431
 51
271.86286276544507
  0
LINE
  5
1B775
  8
5
 10
212.99999932944769
 20
194.4499976634979
 30
0.0
 11
212.99999932944769
 21
187.009825527668
 31
0.0
  0
LINE
  5
1B776
  8
5
 10
212.99999932944769
 20
216.0058758854866
 30
0.0
 11
212.99999932944769
 21
209.5330722332001
 31
0.0
  0
LINE
  5
1B777
  8
5
 10
214.00271336734301
 20
186.0000036358833
 30
0.0
 11
217.6999987959862
 21
186.0000036358833
 31
0.0
  0
ARC
  5
1B778
  8
5
 10
185.51222124756839
 20
201.99153494834911
 30
0.0
 40
28.50355641840935
 50
344.65786391599579
 51
15.342136084005469
  0
ARC
  5
1B77F
  8
5
 10
281.40290212072648
 20
186.9971630039139
 30
0.0
 40
0.9971752007937013
 50
269.67712767077808
 51
0.7275839470257888
  0
LINE
  5
1B780
  8
5
 10
282.3999969214201
 20
207.18513351678851
 30
0.0
 11
282.3999969214201
 21
216.0058758854866
 31
0.0
  0
LINE
  5
1B781
  8
5
 10
282.3999969214201
 20
187.009825527668
 30
0.0
 11
282.3999969214201
 21
196.76120501756671
 31
0.0
  0
LINE
  5
1B782
  8
5
 10
277.69999745488172
 20
186.0000036358833
 30
0.0
 11
281.39728288352489
 21
186.0000036358833
 31
0.0
  0
ARC
  5
1B788
  8
5
 10
214.19454900496299
 20
216.3888881782826
 30
0.0
 40
1.11202747921828
 50
87.675244832557581
 51
161.66870503648261
  0
ARC
  5
1B789
  8
5
 10
181.00717181631879
 20
222.40134478386111
 30
0.0
 40
32.626946598835701
 50
348.69580140662617
 51
350.0051677385203
  0
LINE
  5
1B78C
  8
5
 10
217.96365621685979
 20
217.50000041723251
 30
0.0
 11
214.23965673148629
 21
217.50000041723251
 31
0.0
  0
ARC
  5
1B793
  8
5
 10
281.23213194473152
 20
216.42746608095769
 30
0.0
 40
1.0749344421062239
 50
16.826544806765991
 51
93.829505324194415
  0
ARC
  5
1B795
  8
5
 10
311.33884906211938
 20
201.9731692671775
 30
0.0
 40
29.404450931117189
 50
169.7903289876441
 51
190.20967101235581
  0
LINE
  5
1B799
  8
5
 10
281.16033951938152
 20
217.50000041723251
 30
0.0
 11
277.43634003400803
 21
217.50000041723251
 31
0.0
  0
LINE
  5
1B7A2
  8
0
 10
106.00000005215379
 20
368.12264945308902
 30
0.0
 11
104.99999988824101
 21
368.69999866883489
 31
0.0
  0
LINE
  5
1B7A3
  8
0
 10
95.000000111758439
 20
368.69999866883489
 30
0.0
 11
93.999999947845666
 21
368.12264945308902
 31
0.0
  0
LINE
  5
1B7A4
  8
0
 10
93.999999947845666
 20
368.12264945308902
 30
0.0
 11
93.999999947845666
 21
368.0938771734688
 31
0.0
  0
LINE
  5
1B7A5
  8
0
 10
106.00000005215379
 20
368.0938771734688
 30
0.0
 11
106.00000005215379
 21
368.12264945308902
 31
0.0
  0
LINE
  5
1B7A6
  8
0
 10
93.999999947845424
 20
309.3061215053055
 30
0.0
 11
93.999999947845424
 21
309.27734922568538
 31
0.0
  0
LINE
  5
1B7A7
  8
0
 10
106.0000000521535
 20
309.27734922568533
 30
0.0
 11
106.0000000521535
 21
309.3061215053055
 31
0.0
  0
LINE
  5
1B7A8
  8
0
 10
93.999999947845424
 20
309.27734922568538
 30
0.0
 11
95.000000111758212
 21
308.7000000099394
 31
0.0
  0
LINE
  5
1B7A9
  8
0
 10
104.99999988824079
 20
308.7000000099394
 30
0.0
 11
106.0000000521535
 21
309.27734922568533
 31
0.0
  0
LINE
  5
1B7AA
  8
0
 10
95.999999810009825
 20
342.43039235423538
 30
0.0
 11
95.999999810009825
 21
334.96960632453897
 31
0.0
  0
LINE
  5
1B7AB
  8
0
 10
104.00000018998939
 20
334.96960632453892
 30
0.0
 11
104.00000018998939
 21
342.43039235423538
 31
0.0
  0
LINE
  5
1B7AD
  8
0
 10
95.000000111758467
 20
368.69999866883489
 30
0.0
 11
104.99999988824101
 21
368.69999866883489
 31
0.0
  0
LINE
  5
1B7AE
  8
0
 10
106.00000005215379
 20
368.12264945308902
 30
0.0
 11
105.85727626457781
 21
368.12264945308902
 31
0.0
  0
LINE
  5
1B7AF
  8
0
 10
94.142723735421626
 20
368.12264945308902
 30
0.0
 11
93.999999947845666
 21
368.12264945308902
 31
0.0
  0
LINE
  5
1B7B0
  8
0
 10
93.999999947845424
 20
309.27734922568538
 30
0.0
 11
94.142723735421384
 21
309.27734922568538
 31
0.0
  0
LINE
  5
1B7B1
  8
0
 10
105.85727626457761
 20
309.27734922568533
 30
0.0
 11
106.0000000521535
 21
309.27734922568533
 31
0.0
  0
LINE
  5
1B7B3
  8
0
 10
104.99999988824059
 20
308.7000000099394
 30
0.0
 11
95.000000111758212
 21
308.7000000099394
 31
0.0
  0
ARC
  5
1B7B4
  8
0
 10
99.999999999999616
 20
338.70203626404731
 30
0.0
 40
5.501481716418426
 50
226.67280316523281
 51
313.32719683476842
  0
LINE
  5
1B7B5
  8
0
 10
109.165151044726
 20
334.69999914939729
 30
0.0
 11
103.77491721883381
 21
334.69999914939729
 31
0.0
  0
LINE
  5
1B7B6
  8
0
 10
96.225082781165455
 20
334.69999914939729
 30
0.0
 11
90.834848955273245
 21
334.69999914939729
 31
0.0
  0
LINE
  5
1B7B8
  8
0
 10
104.60977200418669
 20
335.69999931331012
 30
0.0
 11
109.53939184546429
 21
335.69999931331012
 31
0.0
  0
LINE
  5
1B7B9
  8
0
 10
103.77491721883381
 20
334.69999914939729
 30
0.0
 11
104.60977200418669
 21
335.69999931331012
 31
0.0
  0
LINE
  5
1B7BA
  8
0
 10
90.460608154534924
 20
335.69999931331012
 30
0.0
 11
95.390227995812509
 21
335.69999931331012
 31
0.0
  0
LINE
  5
1B7BB
  8
0
 10
95.390227995812509
 20
335.69999931331012
 30
0.0
 11
96.225082781165455
 21
334.69999914939729
 31
0.0
  0
ARC
  5
1B7C0
  8
0
 10
99.999999999999645
 20
338.69796241472699
 30
0.0
 40
5.501481716418426
 50
46.672803165231613
 51
133.3271968347681
  0
LINE
  5
1B7C1
  8
0
 10
90.834848955273273
 20
342.6999995293769
 30
0.0
 11
96.225082781165483
 21
342.6999995293769
 31
0.0
  0
LINE
  5
1B7C2
  8
0
 10
103.77491721883381
 20
342.6999995293769
 30
0.0
 11
109.165151044726
 21
342.6999995293769
 31
0.0
  0
LINE
  5
1B7C5
  8
0
 10
95.390227995812523
 20
341.69999936546418
 30
0.0
 11
90.446353331207874
 21
341.69999936546418
 31
0.0
  0
LINE
  5
1B7C6
  8
0
 10
96.225082781165483
 20
342.6999995293769
 30
0.0
 11
95.390227995812523
 21
341.69999936546418
 31
0.0
  0
LINE
  5
1B7C7
  8
0
 10
109.54739842563831
 20
341.69999936546418
 30
0.0
 11
104.60977200418669
 21
341.69999936546418
 31
0.0
  0
LINE
  5
1B7C8
  8
0
 10
104.60977200418669
 20
341.69999936546418
 30
0.0
 11
103.77491721883381
 21
342.6999995293769
 31
0.0
  0
CIRCLE
  5
1B7C9
  8
0
 10
99.999999999999616
 20
338.69999933938709
 30
0.0
 40
29.999999999999989
  0
CIRCLE
  5
1B7CA
  8
0
 10
99.999999999999616
 20
338.69999933938709
 30
0.0
 40
27.999999999999989
  0
CIRCLE
  5
1B7CB
  8
0
 10
99.999999999999616
 20
338.69999933938709
 30
0.0
 40
22.5
  0
CIRCLE
  5
1B7CC
  8
0
 10
99.999999999999616
 20
338.69999933938709
 30
0.0
 40
16.5
  0
CIRCLE
  5
1B7CE
  8
0
 10
99.999999999999616
 20
338.69999933938709
 30
0.0
 40
13.633196075154171
  0
CIRCLE
  5
1B7CF
  8
0
 10
99.999999999999616
 20
338.69999933938709
 30
0.0
 40
12.1913035312467
  0
CIRCLE
  5
1B7D1
  8
0
 10
99.999999999999616
 20
338.69999933938709
 30
0.0
 40
10.0
  0
ARC
  5
1B7D2
  8
0
 10
99.999999999999616
 20
338.69999933938732
 30
0.0
 40
6.0000000000000142
 50
330.00000000000023
 51
0.0
  0
ARC
  5
1B7D3
  8
0
 10
99.999999999999616
 20
338.69999933938732
 30
0.0
 40
6.0000000000000027
 50
149.99999999999949
 51
210.14940304350611
  0
ARC
  5
1B7D4
  8
0
 10
99.999999999999616
 20
338.69999933938732
 30
0.0
 40
6.0000000000000213
 50
0.0
 51
29.999999999999758
  0
LINE
  5
1B7DD
  8
5
 10
116.00000075995889
 20
364.07715368966791
 30
0.0
 11
116.00000075995889
 21
368.21934681336609
 31
0.0
  0
LINE
  5
1B7DE
  8
5
 10
83.999999240040509
 20
368.21934681336597
 30
0.0
 11
83.999999240040509
 21
364.07715368966802
 31
0.0
  0
ARC
  5
1B7DF
  8
5
 10
114.9984493305184
 20
368.21866028969788
 30
0.0
 40
1.001551664732377
 50
0.0392739717871292
 51
59.897287603405637
  0
LINE
  5
1B7E4
  8
5
 10
96.031372807919482
 20
305.23965794543949
 30
0.0
 11
96.031372807919482
 21
308.96365743081299
 31
0.0
  0
LINE
  5
1B7E5
  8
5
 10
103.9686271920795
 20
308.96365743081299
 30
0.0
 11
103.9686271920795
 21
305.23965794543949
 31
0.0
  0
ARC
  5
1B7E6
  8
5
 10
97.141757341989816
 20
305.249077352695
 30
0.0
 40
1.110424485832181
 50
180.48602922641541
 51
259.97451383831759
  0
ARC
  5
1B7E9
  8
5
 10
102.8651620429992
 20
305.24225963571979
 30
0.0
 40
1.1034682161381619
 50
280.40104792849769
 51
359.86491136891459
  0
ARC
  5
1B7EA
  8
5
 10
99.999999999999503
 20
334.00030810798438
 30
0.0
 40
30.000308107984399
 50
264.48331902741057
 51
275.51668097259102
  0
LINE
  5
1B7EE
  8
5
 10
103.96862719207969
 20
372.16034073333469
 30
0.0
 11
103.96862719207969
 21
368.4363412479612
 31
0.0
  0
LINE
  5
1B7EF
  8
5
 10
96.031372807919709
 20
368.4363412479612
 30
0.0
 11
96.031372807919738
 21
372.16034073333469
 31
0.0
  0
ARC
  5
1B7F0
  8
5
 10
102.8582426580094
 20
372.15092132607941
 30
0.0
 40
1.1104244858321679
 50
0.4860292264105283
 51
79.974513838275655
  0
ARC
  5
1B7F1
  8
5
 10
99.998224316365096
 20
343.39462645477022
 30
0.0
 40
30.005519501937851
 50
58.891739414232809
 51
84.480873677940096
  0
ARC
  5
1B7F3
  8
5
 10
97.134837957000045
 20
372.15773904305451
 30
0.0
 40
1.1034682161381759
 50
100.40104792857031
 51
179.864911368913
  0
ARC
  5
1B7F4
  8
5
 10
99.999999999999758
 20
343.39969057078991
 30
0.0
 40
30.00030810798437
 50
84.48331902741063
 51
95.516680972589384
  0
ARC
  5
1B7F8
  8
5
 10
100.1559411175692
 20
340.18502066888851
 30
0.0
 40
32.201827096091037
 50
60.526324545295559
 51
83.20024735119307
  0
LINE
  5
1B800
  8
1
 10
80.999999276541075
 20
137.0
 30
0.0
 11
119.0000007234586
 21
137.0
 31
0.0
  0
LINE
  5
1B801
  8
1
 10
80.999999276541075
 20
202.0
 30
0.0
 11
119.0000007234586
 21
202.0
 31
0.0
  0
CIRCLE
  5
1B80F
  8
0
 10
99.999999999999886
 20
222.0
 30
0.0
 40
6.0
  0
CIRCLE
  5
1B810
  8
0
 10
100.0000000000003
 20
117.0
 30
0.0
 40
6.0
  0
LINE
  5
1B815
  8
1
 10
209.99999932944769
 20
202.0
 30
0.0
 11
285.3999969214201
 21
202.0
 31
0.0
  0
LINE
  5
1B816
  8
1
 10
209.99999932944769
 20
137.0
 30
0.0
 11
285.3999969214201
 21
137.0
 31
0.0
  0
LINE
  5
1B81F
  8
1
 10
100.0
 20
239.0
 30
0.0
 11
100.0
 21
100.0
 31
0.0
  0
LINE
  5
1B820
  8
1
 10
247.69999856396959
 20
100.0
 30
0.0
 11
247.69999811903199
 21
239.0
 31
0.0
  0
LINE
  5
1B821
  8
1
 10
64.999999999999631
 20
338.69999933938709
 30
0.0
 11
134.9999999999996
 21
338.69999933938709
 31
0.0
  0
LINE
  5
1B822
  8
1
 10
99.999999999999744
 20
378.3999986787743
 30
0.0
 11
99.999999999999943
 21
299.0
 31
0.0
  0
ARC
  5
1B838
  8
5
 10
85.001550669481105
 20
368.21866028969782
 30
0.0
 40
1.001551664732377
 50
120.10271239659539
 51
179.9607260282132
  0
ARC
  5
1B839
  8
5
 10
100.00177568363451
 20
343.39462645477022
 30
0.0
 40
30.005519501937851
 50
95.519126322059876
 51
121.1082605857676
  0
ARC
  5
1B83A
  8
5
 10
99.844058882430403
 20
340.18502066888851
 30
0.0
 40
32.201827096091037
 50
96.799752648806944
 51
119.47367545470441
  0
LINE
  5
1B83B
  8
5
 10
116.00000075995889
 20
313.32284498910627
 30
0.0
 11
116.00000075995889
 21
309.18065186540809
 31
0.0
  0
LINE
  5
1B83C
  8
5
 10
83.999999240040509
 20
309.18065186540821
 30
0.0
 11
83.999999240040509
 21
313.32284498910622
 31
0.0
  0
ARC
  5
1B83D
  8
5
 10
114.9984493305184
 20
309.18133838907642
 30
0.0
 40
1.001551664732377
 50
300.10271239659511
 51
359.96072602821272
  0
ARC
  5
1B83E
  8
5
 10
99.998224316365096
 20
334.00537222400402
 30
0.0
 40
30.005519501937851
 50
275.51912632205989
 51
301.1082605857668
  0
ARC
  5
1B83F
  8
5
 10
100.1559411175692
 20
337.21497800988573
 30
0.0
 40
32.201827096091037
 50
276.79975264880687
 51
299.47367545470439
  0
ARC
  5
1B840
  8
5
 10
85.001550669481105
 20
309.18133838907647
 30
0.0
 40
1.001551664732377
 50
180.03927397178731
 51
239.8972876034041
  0
ARC
  5
1B841
  8
5
 10
100.00177568363451
 20
334.00537222400402
 30
0.0
 40
30.005519501937851
 50
238.8917394142328
 51
264.48087367793988
  0
ARC
  5
1B842
  8
5
 10
99.844058882430403
 20
337.21497800988573
 30
0.0
 40
32.201827096091037
 50
240.52632454529549
 51
263.20024735119313
  0
LINE
  5
1B843
  8
0
 10
96.999999973922854
 20
200.267947435379
 30
0.0
 11
100.0
 21
198.53589606285101
 31
0.0
  0
LINE
  5
1B844
  8
0
 10
100.0
 20
198.53589606285101
 30
0.0
 11
103.0000000260769
 21
200.267947435379
 31
0.0
  0
LINE
  5
1B845
  8
0
 10
96.999998597412144
 20
203.73205018043461
 30
0.0
 11
99.999997246977628
 21
205.4641039371478
 31
0.0
  0
LINE
  5
1B846
  8
0
 10
99.999997246977628
 20
205.4641039371478
 30
0.0
 11
102.9999986495643
 21
203.73205494880611
 31
0.0
  0
LINE
  5
1B847
  8
0
 10
96.999999973922854
 20
138.732052564621
 30
0.0
 11
100.0000000000001
 21
140.46410021185869
 31
0.0
  0
LINE
  5
1B848
  8
0
 10
100.0000000000001
 20
140.46410021185869
 30
0.0
 11
103.0000000260769
 21
138.732052564621
 31
0.0
  0
LINE
  5
1B849
  8
0
 10
96.999999973922854
 20
135.267947435379
 30
0.0
 11
100.0000000000001
 21
133.53589978814119
 31
0.0
  0
LINE
  5
1B84A
  8
0
 10
100.0000000000001
 20
133.53589978814119
 30
0.0
 11
103.0000000260769
 21
135.267947435379
 31
0.0
  0
ARC
  5
1B87D
  8
0
 10
190.21222071410679
 20
201.99153494834911
 30
0.0
 40
28.50355641840935
 50
344.65786391599579
 51
15.342136084005469
  0
ARC
  5
1B87F
  8
0
 10
188.2806139486575
 20
221.99629164808081
 30
0.0
 40
30.021652890065809
 50
351.38650150801863
 51
11.49592605532002
  0
LINE
  5
1B880
  8
0
 10
218.1293457496314
 20
131.256347333077
 30
0.0
 11
217.6999987959862
 21
131.99999850988391
 31
0.0
  0
LINE
  5
1B881
  8
0
 10
217.6999987959862
 20
141.99999642372131
 30
0.0
 11
218.13191384900369
 21
142.74810473987469
 31
0.0
  0
ARC
  5
1B882
  8
0
 10
218.61685654695751
 20
152.01162381196821
 30
0.0
 40
0.9171086138985581
 50
138.21545576640671
 51
181.3401560982827
  0
LINE
  5
1B883
  8
0
 10
217.6999987959862
 20
144.5500023365021
 30
0.0
 11
217.6999987959862
 21
151.990174472332
 31
0.0
  0
LINE
  5
1B884
  8
0
 10
217.6999987959862
 20
122.9941241145134
 30
0.0
 11
217.6999987959862
 21
129.4669277667999
 31
0.0
  0
LINE
  5
1B885
  8
0
 10
218.2773480117321
 20
132.02836884118139
 30
0.0
 11
218.2773480117321
 21
141.98856126212041
 31
0.0
  0
LINE
  5
1B886
  8
0
 10
217.6999987959862
 20
141.99999642372131
 30
0.0
 11
217.6999987959862
 21
131.99999850988391
 31
0.0
  0
ARC
  5
1B888
  8
0
 10
192.494765243659
 20
117.83481748088261
 30
0.0
 40
25.727849567485869
 50
9.9071967776885295
 51
11.56818319226603
  0
ARC
  5
1B88B
  8
5
 10
213.97112005625729
 20
152.02862824572779
 30
0.0
 40
0.9718817617012824
 50
88.137137234554899
 51
182.26757438324589
  0
LINE
  5
1B88C
  8
5
 10
212.99999932944769
 20
144.5500023365021
 30
0.0
 11
212.99999932944769
 21
151.990174472332
 31
0.0
  0
LINE
  5
1B88D
  8
5
 10
212.99999932944769
 20
122.9941241145134
 30
0.0
 11
212.99999932944769
 21
129.4669277667999
 31
0.0
  0
LINE
  5
1B88E
  8
5
 10
214.00271336734301
 20
152.99999636411661
 30
0.0
 11
217.6999987959862
 21
152.99999636411661
 31
0.0
  0
ARC
  5
1B88F
  8
5
 10
185.51222124756839
 20
137.008465051651
 30
0.0
 40
28.50355641840935
 50
344.65786391599522
 51
15.34213608400481
  0
ARC
  5
1B890
  8
5
 10
214.19454900496299
 20
122.6111118217174
 30
0.0
 40
1.11202747921828
 50
198.33129496351759
 51
272.32475516744239
  0
ARC
  5
1B891
  8
5
 10
181.00717181631879
 20
116.59865521613889
 30
0.0
 40
32.626946598835701
 50
9.9948322614796243
 51
11.30419859337356
  0
LINE
  5
1B892
  8
5
 10
217.96365621685979
 20
121.4999995827675
 30
0.0
 11
214.23965673148629
 21
121.4999995827675
 31
0.0
  0
ARC
  5
1B895
  8
0
 10
190.21222071410679
 20
137.008465051651
 30
0.0
 40
28.50355641840935
 50
344.65786391599522
 51
15.34213608400481
  0
ARC
  5
1B897
  8
0
 10
276.7996254977395
 20
152.02121101281909
 30
0.0
 40
0.90090672550128
 50
358.02575042870973
 51
42.076308028345721
  0
LINE
  5
1B898
  8
0
 10
277.69999745488172
 20
151.9901744723316
 30
0.0
 11
277.69999745488172
 21
122.9941241145134
 31
0.0
  0
ARC
  5
1B89D
  8
0
 10
307.11938424381549
 20
117.003707855846
 30
0.0
 40
30.021654732125711
 50
171.38650145045989
 51
191.49592474820321
  0
ARC
  5
1B89E
  8
5
 10
281.40290212072648
 20
152.00283699608599
 30
0.0
 40
0.9971752007937013
 50
359.27241605297411
 51
90.32287232922188
  0
LINE
  5
1B89F
  8
5
 10
282.3999969214201
 20
131.81486648321149
 30
0.0
 11
282.3999969214201
 21
122.9941241145134
 31
0.0
  0
LINE
  5
1B8A0
  8
5
 10
282.3999969214201
 20
151.990174472332
 30
0.0
 11
282.3999969214201
 21
142.23879498243329
 31
0.0
  0
LINE
  5
1B8A1
  8
5
 10
277.69999745488172
 20
152.99999636411661
 30
0.0
 11
281.39728288352489
 21
152.99999636411661
 31
0.0
  0
ARC
  5
1B8A2
  8
5
 10
281.23213194473152
 20
122.5725339190423
 30
0.0
 40
1.0749344421062239
 50
266.17049467580563
 51
343.17345519323402
  0
ARC
  5
1B8A4
  8
5
 10
311.33884906211938
 20
137.02683073282259
 30
0.0
 40
29.404450931117189
 50
169.7903289876443
 51
190.20967101235561
  0
LINE
  5
1B8A6
  8
5
 10
281.16033951938152
 20
121.4999995827675
 30
0.0
 11
277.43634003400803
 21
121.4999995827675
 31
0.0
  0
ARC
  5
1B8A8
  8
0
 10
218.8871832008393
 20
122.6073939127765
 30
0.0
 40
1.103865542058923
 50
198.2683763685105
 51
227.3848471042154
  0
ARC
  5
1B8A9
  8
0
 10
218.8871832008393
 20
216.39260608722361
 30
0.0
 40
1.103865542058923
 50
132.61515289578509
 51
161.73162363148941
  0
ARC
  5
1B8AA
  8
0
 10
276.51282220342438
 20
122.60738722580869
 30
0.0
 40
1.1038547538592489
 50
312.6150339942705
 51
341.73180429448621
  0
CIRCLE
  5
1B8BD
  8
0
 10
99.999999999999886
 20
202.0
 30
0.0
 40
3.0
  0
CIRCLE
  5
1B8BE
  8
0
 10
99.999999999999886
 20
137.0
 30
0.0
 40
3.0
  0
ARC
  5
1B8E6
  8
5
 10
189.1591929681143
 20
201.98598665427551
 30
0.0
 40
28.15438598244867
 50
327.86405325286842
 51
31.60034630141887
  0
ARC
  5
1B8E7
  8
5
 10
185.5026276271127
 20
201.96527116831899
 30
0.0
 40
32.667180083114943
 50
330.74318618298457
 51
28.394870953441249
  0
ARC
  5
1B8E8
  8
0
 10
193.85918974196349
 20
201.98598816927131
 30
0.0
 40
28.15438906845835
 50
327.86405355698952
 51
31.60033881782299
  0
ARC
  5
1B8E9
  8
0
 10
192.2742633082305
 20
201.96392082493369
 30
0.0
 40
30.021903289301608
 50
327.87674633333188
 51
31.16413581050001
  0
ARC
  5
1B8EA
  8
5
 10
306.24080326994959
 20
201.98598665427551
 30
0.0
 40
28.15438598244867
 50
148.3996536985818
 51
212.1359467471317
  0
ARC
  5
1B8EB
  8
5
 10
309.89736861095128
 20
201.96527116831911
 30
0.0
 40
32.667180083114943
 50
151.60512904655869
 51
209.256813817016
  0
ARC
  5
1B8EC
  8
0
 10
301.54080649610052
 20
201.98598816927139
 30
0.0
 40
28.15438906845835
 50
148.399661182177
 51
212.13594644301139
  0
ARC
  5
1B8ED
  8
0
 10
303.12573292983348
 20
201.96392082493381
 30
0.0
 40
30.021903289301608
 50
148.8358641894996
 51
212.12325366666849
  0
ARC
  5
1B8EE
  8
5
 10
189.1591929681143
 20
137.01401334572449
 30
0.0
 40
28.15438598244867
 50
328.39965369857993
 51
32.135946747132081
  0
ARC
  5
1B8EF
  8
5
 10
185.5026276271127
 20
137.03472883168089
 30
0.0
 40
32.667180083114943
 50
331.60512904655741
 51
29.25681381701672
  0
ARC
  5
1B8F0
  8
0
 10
193.85918974196349
 20
137.01401183072861
 30
0.0
 40
28.15438906845835
 50
328.39966118217671
 51
32.135946443011662
  0
ARC
  5
1B8F1
  8
0
 10
192.2742633082305
 20
137.03607917506631
 30
0.0
 40
30.021903289301608
 50
328.8358641894996
 51
32.123253666668177
  0
ARC
  5
1B8F2
  8
5
 10
306.24080326994959
 20
137.01401334572441
 30
0.0
 40
28.15438598244867
 50
147.8640532528679
 51
211.60034630141709
  0
ARC
  5
1B8F3
  8
5
 10
309.89736861095128
 20
137.03472883168081
 30
0.0
 40
32.667180083114943
 50
150.7431861829831
 51
208.39487095344259
  0
ARC
  5
1B8F4
  8
0
 10
301.54080649610052
 20
137.01401183072861
 30
0.0
 40
28.15438906845835
 50
147.8640535569881
 51
211.60033881782331
  0
ARC
  5
1B8F5
  8
0
 10
303.12573292983348
 20
137.03607917506619
 30
0.0
 40
30.021903289301608
 50
147.87674633333171
 51
211.1641358105004
  0
ARC
  5
1B8F6
  8
0
 10
276.51282220342438
 20
216.39261277419129
 30
0.0
 40
1.1038547538592489
 50
18.268196445861189
 51
47.384966005729503
  0
ARC
  5
1B8FD
  8
0
 10
309.7070058528634
 20
222.4040139500793
 30
0.0
 40
32.64137947280139
 50
189.99512340265051
 51
191.3039107534627
  0
ARC
  5
1B8FE
  8
0
 10
302.90523155933693
 20
117.83481907128539
 30
0.0
 40
25.727849567485869
 50
168.43181845836301
 51
170.09280487294089
  0
ARC
  5
1B8FF
  8
5
 10
307.60878464744411
 20
221.16576328613701
 30
0.0
 40
25.73144800828608
 50
189.9071100805852
 51
191.56786307843191
  0
ARC
  5
1B900
  8
5
 10
307.6087846475545
 20
117.8342367138417
 30
0.0
 40
25.731448008398502
 50
168.43213692157099
 51
170.0928899194104
  0
ENDSEC
  0
EOF
