  0
SECTION
  2
HEADER
  9
$ACADVER
  1
AC1009
  9
$INSBASE
 10
0.0
 20
0.0
 30
0.0
  9
$EXTMIN
 10
0.0
 20
-1.4802182810368341
 30
0.0
  9
$EXTMAX
 10
111.0
 20
60.750000000000071
 30
0.0
  9
$LIMMIN
 10
0.0
 20
0.0
  9
$LIMMAX
 10
12.0
 20
9.0
  9
$ORTHOMODE
 70
     1
  9
$REGENMODE
 70
     1
  9
$FILLMODE
 70
     1
  9
$QTEXTMODE
 70
     0
  9
$MIRRTEXT
 70
     0
  9
$DRAGMODE
 70
     2
  9
$LTSCALE
 40
5.0
  9
$OSMODE
 70
    37
  9
$ATTMODE
 70
     1
  9
$TEXTSIZE
 40
0.2
  9
$TRACEWID
 40
0.05
  9
$TEXTSTYLE
  7
STANDARD
  9
$CLAYER
  8
0
  9
$CELTYPE
  6
BYLAYER
  9
$CECOLOR
 62
   256
  9
$DIMSCALE
 40
1.0
  9
$DIMASZ
 40
0.18
  9
$DIMEXO
 40
0.0625
  9
$DIMDLI
 40
0.38
  9
$DIMRND
 40
0.0
  9
$DIMDLE
 40
0.0
  9
$DIMEXE
 40
0.18
  9
$DIMTP
 40
0.0
  9
$DIMTM
 40
0.0
  9
$DIMTXT
 40
2.6000000000000001
  9
$DIMCEN
 40
0.09
  9
$DIMTSZ
 40
0.0
  9
$DIMTOL
 70
     0
  9
$DIMLIM
 70
     0
  9
$DIMTIH
 70
     0
  9
$DIMTOH
 70
     0
  9
$DIMSE1
 70
     0
  9
$DIMSE2
 70
     0
  9
$DIMTAD
 70
     1
  9
$DIMZIN
 70
     8
  9
$DIMBLK
  1

  9
$DIMASO
 70
     1
  9
$DIMSHO
 70
     1
  9
$DIMPOST
  1

  9
$DIMAPOST
  1

  9
$DIMALT
 70
     0
  9
$DIMALTD
 70
     2
  9
$DIMALTF
 40
25.399999999999999
  9
$DIMLFAC
 40
1.0
  9
$DIMTOFL
 70
     0
  9
$DIMTVP
 40
0.0
  9
$DIMTIX
 70
     0
  9
$DIMSOXD
 70
     0
  9
$DIMSAH
 70
     0
  9
$DIMBLK1
  1

  9
$DIMBLK2
  1

  9
$DIMSTYLE
  2
STANDARD
  9
$DIMCLRD
 70
     0
  9
$DIMCLRE
 70
     0
  9
$DIMCLRT
 70
     0
  9
$DIMTFAC
 40
1.0
  9
$DIMGAP
 40
0.09
  9
$LUNITS
 70
     2
  9
$LUPREC
 70
     4
  9
$SKETCHINC
 40
0.1
  9
$FILLETRAD
 40
0.0
  9
$AUNITS
 70
     0
  9
$AUPREC
 70
     0
  9
$MENU
  1
.
  9
$ELEVATION
 40
0.0
  9
$PELEVATION
 40
0.0
  9
$THICKNESS
 40
0.0
  9
$LIMCHECK
 70
     0
  9
$BLIPMODE
 70
     0
  9
$CHAMFERA
 40
0.0
  9
$CHAMFERB
 40
0.0
  9
$SKPOLY
 70
     0
  9
$TDCREATE
 40
2453083.4120647679
  9
$TDUPDATE
 40
2456923.496956829
  9
$TDINDWG
 40
0.6990667940000001
  9
$TDUSRTIMER
 40
0.6990666782
  9
$USRTIMER
 70
     1
  9
$ANGBASE
 50
0.0
  9
$ANGDIR
 70
     0
  9
$PDMODE
 70
     0
  9
$PDSIZE
 40
0.0
  9
$PLINEWID
 40
0.0
  9
$COORDS
 70
     1
  9
$SPLFRAME
 70
     0
  9
$SPLINETYPE
 70
     6
  9
$SPLINESEGS
 70
     8
  9
$ATTDIA
 70
     0
  9
$ATTREQ
 70
     1
  9
$HANDLING
 70
     1
  9
$HANDSEED
  5
7586
  9
$SURFTAB1
 70
     6
  9
$SURFTAB2
 70
     6
  9
$SURFTYPE
 70
     6
  9
$SURFU
 70
     6
  9
$SURFV
 70
     6
  9
$UCSNAME
  2

  9
$UCSORG
 10
0.0
 20
0.0
 30
0.0
  9
$UCSXDIR
 10
1.0
 20
0.0
 30
0.0
  9
$UCSYDIR
 10
0.0
 20
1.0
 30
0.0
  9
$PUCSNAME
  2

  9
$PUCSORG
 10
0.0
 20
0.0
 30
0.0
  9
$PUCSXDIR
 10
1.0
 20
0.0
 30
0.0
  9
$PUCSYDIR
 10
0.0
 20
1.0
 30
0.0
  9
$USERI1
 70
     0
  9
$USERI2
 70
     1
  9
$USERI3
 70
     0
  9
$USERI4
 70
     0
  9
$USERI5
 70
     0
  9
$USERR1
 40
0.0
  9
$USERR2
 40
0.0
  9
$USERR3
 40
0.0
  9
$USERR4
 40
0.0
  9
$USERR5
 40
0.0
  9
$WORLDVIEW
 70
     1
  9
$SHADEDGE
 70
     3
  9
$SHADEDIF
 70
    70
  9
$TILEMODE
 70
     1
  9
$MAXACTVP
 70
    64
  9
$PLIMCHECK
 70
     0
  9
$PEXTMIN
 10
0.0
 20
0.0
 30
0.0
  9
$PEXTMAX
 10
0.0
 20
0.0
 30
0.0
  9
$PLIMMIN
 10
0.0
 20
0.0
  9
$PLIMMAX
 10
12.0
 20
9.0
  9
$UNITMODE
 70
     0
  9
$VISRETAIN
 70
     1
  9
$PLINEGEN
 70
     0
  9
$PSLTSCALE
 70
     1
  0
ENDSEC
  0
SECTION
  2
TABLES
  0
TABLE
  2
VPORT
 70
     1
  0
VPORT
  2
*ACTIVE
 70
     0
 10
0.0
 20
0.0
 11
1.0
 21
1.0
 12
55.499278581149738
 22
33.448243031305552
 13
0.0
 23
0.0
 14
0.5
 24
0.5
 15
0.5
 25
0.5
 16
0.0
 26
0.0
 36
1.0
 17
0.0
 27
0.0
 37
0.0
 40
70.410839852043324
 41
1.7454798331015291
 42
50.0
 43
0.0
 44
0.0
 50
0.0
 51
0.0
 71
     0
 72
  1000
 73
     1
 74
     2
 75
     0
 76
     0
 77
     0
 78
     0
  0
ENDTAB
  0
TABLE
  2
LTYPE
 70
     3
  0
LTYPE
  2
CONTINUOUS
 70
     0
  3
Solid Line
 72
    65
 73
     0
 40
0.0
  0
LTYPE
  2
CENTER
 70
     0
  3
____ _ ____ _ ____ _ ____ _ ____ _ ____ _ ____
 72
    65
 73
     4
 40
2.0
 49
1.25
 49
-0.25
 49
0.25
 49
-0.25
  0
LTYPE
  2
PHANTOM2
 70
     0
  3
___ _ _ ___ _ _ ___ _ _ ___ _ _
 72
    65
 73
     6
 40
1.25
 49
0.625
 49
-0.125
 49
0.125
 49
-0.125
 49
0.125
 49
-0.125
  0
ENDTAB
  0
TABLE
  2
LAYER
 70
     4
  0
LAYER
  2
0
 70
     0
 62
     7
  6
CONTINUOUS
  0
LAYER
  2
1
 70
     0
 62
     1
  6
CENTER
  0
LAYER
  2
DEFPOINTS
 70
     0
 62
     7
  6
CONTINUOUS
  0
LAYER
  2
3
 70
     0
 62
     3
  6
CONTINUOUS
  0
ENDTAB
  0
TABLE
  2
STYLE
 70
     2
  0
STYLE
  2
STANDARD
 70
     0
 40
0.0
 41
1.0
 50
0.0
 71
     0
 42
0.2
  3
simplex.shx
  4
bigfont.shx
  0
STYLE
  2
STANDARD1
 70
     0
 40
0.0
 41
1.0
 50
0.0
 71
     0
 42
3.0
  3
txt
  4

  0
ENDTAB
  0
TABLE
  2
VIEW
 70
     0
  0
ENDTAB
  0
TABLE
  2
UCS
 70
     0
  0
ENDTAB
  0
TABLE
  2
APPID
 70
     5
  0
APPID
  2
ACAD
 70
     0
  0
APPID
  2
ACAD_MLEADERVER
 70
     0
  0
APPID
  2
ACAD_NAV_VCDISPLAY
 70
     0
  0
APPID
  2
ACAD_EXEMPT_FROM_CAD_STANDARDS
 70
     0
  0
APPID
  2
ACAD_DSTYLE_DIMRADIAL_EXTENSION
 70
     0
  0
ENDTAB
  0
TABLE
  2
DIMSTYLE
 70
     1
  0
DIMSTYLE
  2
STANDARD
 70
     0
  3

  4

  5

  6

  7

 40
1.0
 41
0.18
 42
0.0625
 43
0.38
 44
0.18
 45
0.0
 46
0.0
 47
0.0
 48
0.0
140
2.6000000000000001
141
0.09
142
0.0
143
25.399999999999999
144
1.0
145
0.0
146
1.0
147
0.09
 71
     0
 72
     0
 73
     0
 74
     0
 75
     0
 76
     0
 77
     1
 78
     8
170
     0
171
     2
172
     0
173
     0
174
     0
175
     0
176
     0
177
     0
178
     0
  0
ENDTAB
  0
ENDSEC
  0
SECTION
  2
BLOCKS
  0
BLOCK
  8
0
  2
$MODEL_SPACE
 70
     0
 10
0.0
 20
0.0
 30
0.0
  3
$MODEL_SPACE
  1

  0
ENDBLK
  5
21
  8
0
  0
BLOCK
 67
     1
  8
0
  2
$PAPER_SPACE
 70
     0
 10
0.0
 20
0.0
 30
0.0
  3
$PAPER_SPACE
  1

  0
ENDBLK
  5
5B
 67
     1
  8
0
  0
ENDSEC
  0
SECTION
  2
ENTITIES
  0
TEXT
  5
1F01
  8
0
 62
     3
 10
0.0
 20
0.0
 30
0.0
 40
5.0
  1
CP155-08001L
  7
STANDARD1
  0
LINE
  5
7419
  8
0
 10
50.871853610960301
 20
42.250000000000071
 30
0.0
 11
53.91345603372551
 21
43.122165460040762
 31
0.0
  0
LINE
  5
741A
  8
0
 10
53.913456033725453
 20
56.877834539959402
 30
0.0
 11
50.871853610960237
 21
57.750000000000071
 31
0.0
  0
LINE
  5
741B
  8
0
 10
50.871853610960237
 20
57.750000000000071
 30
0.0
 11
50.19999999999996
 21
57.750000000000071
 31
0.0
  0
LINE
  5
741C
  8
0
 10
50.200000000000017
 20
42.250000000000071
 30
0.0
 11
50.871853610960301
 21
42.250000000000071
 31
0.0
  0
LINE
  5
741D
  8
0
 10
50.19999999999996
 20
57.750000000000071
 30
0.0
 11
49.999999999999972
 21
57.550000000000061
 31
0.0
  0
LINE
  5
741E
  8
0
 10
50.000000000000028
 20
42.450000000000067
 30
0.0
 11
50.200000000000017
 21
42.250000000000071
 31
0.0
  0
ARC
  5
741F
  8
0
 10
53.5
 20
55.435941996051923
 30
0.0
 40
1.5
 50
0.0
 51
74.000000000001791
  0
ARC
  5
7420
  8
0
 10
53.500000000000028
 20
44.564058003948247
 30
0.0
 40
1.5
 50
285.99999999999989
 51
0.0
  0
POLYLINE
  5
7421
  8
0
 66
     1
 10
0.0
 20
0.0
 30
0.0
 70
   128
  0
VERTEX
  5
757E
  8
0
 10
50.0
 20
55.712701665379321
 30
0.0
  0
VERTEX
  5
757F
  8
0
 10
49.978036128806451
 20
55.707685887838771
 30
0.0
  0
VERTEX
  5
7580
  8
0
 10
49.899999999999977
 20
55.70000000000006
 30
0.0
  0
SEQEND
  5
7581
  8
0
  0
POLYLINE
  5
7422
  8
0
 66
     1
 10
0.0
 20
0.0
 30
0.0
 70
   128
  0
VERTEX
  5
7582
  8
0
 10
49.900000000000027
 20
44.300000000000061
 30
0.0
  0
VERTEX
  5
7583
  8
0
 10
49.97803612880648
 20
44.292314112161357
 30
0.0
  0
VERTEX
  5
7584
  8
0
 10
50.000000000000028
 20
44.287298334620807
 30
0.0
  0
SEQEND
  5
7585
  8
0
  0
LINE
  5
7423
  8
0
 10
49.000000000000028
 20
44.000000000000057
 30
0.0
 11
49.300000000000011
 21
44.300000000000061
 31
0.0
  0
LINE
  5
7424
  8
0
 10
49.299999999999983
 20
55.70000000000006
 30
0.0
 11
49.0
 21
56.00000000000005
 31
0.0
  0
LINE
  5
7425
  8
0
 10
49.0
 20
56.00000000000005
 30
0.0
 11
46.0
 21
56.00000000000005
 31
0.0
  0
LINE
  5
7426
  8
0
 10
46.00000000000005
 20
44.000000000000043
 30
0.0
 11
49.000000000000028
 21
44.000000000000057
 31
0.0
  0
LINE
  5
7427
  8
0
 10
46.0
 20
56.00000000000005
 30
0.0
 11
45.0
 21
55.42264973081042
 31
0.0
  0
LINE
  5
7428
  8
0
 10
45.000000000000021
 20
44.577350269189672
 30
0.0
 11
46.00000000000005
 21
44.000000000000043
 31
0.0
  0
LINE
  5
7429
  8
0
 10
49.899999999999977
 20
55.70000000000006
 30
0.0
 11
49.299999999999983
 21
55.70000000000006
 31
0.0
  0
LINE
  5
742A
  8
0
 10
49.300000000000011
 20
44.300000000000061
 30
0.0
 11
49.900000000000027
 21
44.300000000000061
 31
0.0
  0
ARC
  5
742B
  8
0
 10
56.211324865405167
 20
55.500000000000099
 30
0.0
 40
0.5000000000000041
 50
29.999999999999272
 51
90.0
  0
ARC
  5
742C
  8
0
 10
56.211324865405231
 20
44.500000000000092
 30
0.0
 40
0.5000000000000041
 50
270.0
 51
330.00000000000102
  0
LINE
  5
742D
  8
0
 10
56.211324865405167
 20
56.000000000000099
 30
0.0
 11
55.199999999999989
 21
56.000000000000078
 31
0.0
  0
LINE
  5
742E
  8
0
 10
55.200000000000038
 20
44.000000000000078
 30
0.0
 11
56.211324865405231
 21
44.000000000000078
 31
0.0
  0
LINE
  5
742F
  8
0
 10
55.199999999999989
 20
56.000000000000078
 30
0.0
 11
55.0
 21
55.80000000000009
 31
0.0
  0
LINE
  5
7430
  8
0
 10
55.000000000000028
 20
44.200000000000067
 30
0.0
 11
55.200000000000038
 21
44.000000000000078
 31
0.0
  0
LINE
  5
7431
  8
0
 10
56.644337567297441
 20
44.250000000000078
 30
0.0
 11
57.914508159514611
 21
46.450000000000088
 31
0.0
  0
LINE
  5
7432
  8
0
 10
57.914508159514583
 20
53.550000000000097
 30
0.0
 11
56.644337567297391
 21
55.750000000000092
 31
0.0
  0
ARC
  5
7433
  8
0
 10
65.492893218813435
 20
55.000000000000128
 30
0.0
 40
0.5
 50
44.999999999999581
 51
90.0
  0
ARC
  5
7434
  8
0
 10
65.492893218813492
 20
45.000000000000121
 30
0.0
 40
0.5
 50
270.0
 51
315.00000000000063
  0
LINE
  5
7435
  8
0
 10
63.587713240271512
 20
44.500000000000107
 30
0.0
 11
65.492893218813492
 21
44.500000000000121
 31
0.0
  0
LINE
  5
7436
  8
0
 10
65.492893218813435
 20
55.500000000000128
 30
0.0
 11
63.587713240271448
 21
55.500000000000128
 31
0.0
  0
ARC
  5
7437
  8
0
 10
63.587713240271448
 20
55.000000000000128
 30
0.0
 40
0.5
 50
90.0
 51
150.00000000000091
  0
ARC
  5
7438
  8
0
 10
63.587713240271512
 20
45.000000000000107
 30
0.0
 40
0.5
 50
210.00000000000159
 51
270.0
  0
LINE
  5
7439
  8
0
 10
65.846446609406769
 20
44.646446609406851
 30
0.0
 11
66.207106781186553
 21
45.007106781186671
 31
0.0
  0
LINE
  5
743A
  8
0
 10
66.207106781186553
 20
54.992893218813592
 30
0.0
 11
65.846446609406712
 21
55.35355339059339
 31
0.0
  0
LINE
  5
743B
  8
0
 10
63.154700538379238
 20
55.250000000000121
 30
0.0
 11
62.173205080756873
 21
53.550000000000111
 31
0.0
  0
LINE
  5
743C
  8
0
 10
62.173205080756901
 20
46.450000000000109
 30
0.0
 11
63.154700538379302
 21
44.750000000000107
 31
0.0
  0
ARC
  5
743D
  8
0
 10
65.5
 20
54.285786437627017
 30
0.0
 40
1.000000000000018
 50
0.0000000000008142
 51
44.999999999999581
  0
ARC
  5
743E
  8
0
 10
65.5
 20
45.71421356237321
 30
0.0
 40
1.0
 50
315.00000000000063
 51
0.0
  0
LINE
  5
743F
  8
0
 10
44.999999999999972
 20
54.00000000000005
 30
0.0
 11
34.199999999999989
 21
54.000000000000021
 31
0.0
  0
LINE
  5
7440
  8
0
 10
34.200000000000017
 20
46.0
 30
0.0
 11
45.0
 21
46.000000000000043
 31
0.0
  0
LINE
  5
7441
  8
0
 10
34.199999999999989
 20
54.000000000000021
 30
0.0
 11
33.0
 21
52.800000000000011
 31
0.0
  0
LINE
  5
7442
  8
0
 10
33.0
 20
47.199999999999989
 30
0.0
 11
34.200000000000017
 21
46.0
 31
0.0
  0
ARC
  5
7443
  8
0
 10
61.653589838486262
 20
46.150000000000098
 30
0.0
 40
0.6000000000000086
 50
30.000000000001641
 51
90.000000000001606
  0
ARC
  5
7444
  8
0
 10
61.653589838486234
 20
53.850000000000108
 30
0.0
 40
0.5999999999999944
 50
270.0
 51
330.00000000000068
  0
ARC
  5
7445
  8
0
 10
58.434123401785257
 20
46.150000000000091
 30
0.0
 40
0.6000000000000015
 50
90.0
 51
149.99999999999881
  0
ARC
  5
7446
  8
0
 10
58.434123401785257
 20
53.850000000000087
 30
0.0
 40
0.5999999999999962
 50
210.00000000000159
 51
270.00000000000171
  0
LINE
  5
7447
  8
0
 10
58.434123401785257
 20
46.750000000000099
 30
0.0
 11
61.653589838486262
 21
46.750000000000107
 31
0.0
  0
LINE
  5
7448
  8
0
 10
61.653589838486234
 20
53.250000000000107
 30
0.0
 11
58.434123401785257
 21
53.250000000000092
 31
0.0
  0
LINE
  5
7449
  8
0
 10
50.871853610960237
 20
57.750000000000071
 30
0.0
 11
50.871853610960301
 21
42.250000000000071
 31
0.0
  0
LINE
  5
744A
  8
0
 10
50.199999999999932
 20
57.750000000000078
 30
0.0
 11
50.200000000000017
 21
42.250000000000071
 31
0.0
  0
LINE
  5
744B
  8
0
 10
50.000000000000028
 20
42.450000000000067
 30
0.0
 11
49.999999999999943
 21
57.550000000000018
 31
0.0
  0
LINE
  5
744C
  8
0
 10
49.0
 20
56.000000000000071
 30
0.0
 11
49.000000000000028
 21
44.00000000000005
 31
0.0
  0
LINE
  5
744D
  8
0
 10
49.299999999999983
 20
55.70000000000006
 30
0.0
 11
49.300000000000011
 21
44.300000000000061
 31
0.0
  0
LINE
  5
744E
  8
0
 10
46.0
 20
56.00000000000005
 30
0.0
 11
46.0
 21
44.000000000000078
 31
0.0
  0
LINE
  5
744F
  8
0
 10
44.999999999999972
 20
44.577350269189701
 30
0.0
 11
45.0
 21
55.42264973081042
 31
0.0
  0
LINE
  5
7450
  8
0
 10
55.199999999999989
 20
56.000000000000078
 30
0.0
 11
55.200000000000038
 21
44.000000000000078
 31
0.0
  0
LINE
  5
7451
  8
0
 10
55.000000000000028
 20
44.200000000000067
 30
0.0
 11
55.0
 21
55.80000000000009
 31
0.0
  0
LINE
  5
7452
  8
0
 10
66.499999999999943
 20
54.285786437627031
 30
0.0
 11
66.5
 21
45.714213562373217
 31
0.0
  0
LINE
  5
7453
  8
0
 10
34.199999999999989
 20
54.000000000000021
 30
0.0
 11
34.200000000000017
 21
46.0
 31
0.0
  0
LINE
  5
7454
  8
0
 10
33.0
 20
47.199999999999989
 30
0.0
 11
33.0
 21
52.800000000000011
 31
0.0
  0
LINE
  5
7455
  8
0
 10
53.91345603372551
 20
43.122165460040762
 30
0.0
 11
53.913456033725453
 21
56.877834539959402
 31
0.0
  0
LINE
  5
7457
  8
0
 10
56.211324865405231
 20
44.000000000000078
 30
0.0
 11
56.211324865405118
 21
56.000000000000107
 31
0.0
  0
LINE
  5
745A
  8
0
 10
65.492893218813435
 20
44.500000000000121
 30
0.0
 11
65.492893218813435
 21
55.500000000000128
 31
0.0
  0
LINE
  5
745C
  8
0
 10
63.587713240271448
 20
55.500000000000128
 30
0.0
 11
63.587713240271448
 21
44.500000000000121
 31
0.0
  0
LINE
  5
7460
  8
0
 10
61.653589838486262
 20
46.750000000000099
 30
0.0
 11
61.653589838486234
 21
53.250000000000128
 31
0.0
  0
LINE
  5
7461
  8
0
 10
58.434123401785257
 20
53.250000000000092
 30
0.0
 11
58.434123401785257
 21
46.750000000000092
 31
0.0
  0
CIRCLE
  5
7464
  8
0
 10
100.25
 20
50.000000000000071
 30
0.0
 40
7.7500000000000142
  0
LINE
  5
7465
  8
0
 10
101.7499999999999
 20
50.866025403784569
 30
0.0
 11
101.7499999999999
 21
49.133974596215687
 31
0.0
  0
LINE
  5
7466
  8
0
 10
100.2499999999999
 20
51.732050807569003
 30
0.0
 11
101.7499999999999
 21
50.866025403784569
 31
0.0
  0
LINE
  5
7467
  8
0
 10
98.749999999999886
 20
50.866025403785152
 30
0.0
 11
100.2499999999999
 21
51.732050807569003
 31
0.0
  0
LINE
  5
7468
  8
0
 10
98.749999999999886
 20
49.13397459621568
 30
0.0
 11
98.749999999999886
 21
50.866025403785152
 31
0.0
  0
LINE
  5
7469
  8
0
 10
100.2499999999999
 20
48.267949192431239
 30
0.0
 11
98.749999999999886
 21
49.13397459621568
 31
0.0
  0
LINE
  5
746A
  8
0
 10
101.7499999999999
 20
49.133974596215687
 30
0.0
 11
100.2499999999999
 21
48.267949192431239
 31
0.0
  0
CIRCLE
  5
746B
  8
0
 10
100.2499999999999
 20
50.000000000000128
 30
0.0
 40
2.0
  0
CIRCLE
  5
746C
  8
0
 10
100.2499999999999
 20
50.000000000000128
 30
0.0
 40
5.5
  0
ARC
  5
746D
  8
0
 10
100.2499999999999
 20
50.000000000000121
 30
0.0
 40
1.5
 50
300.0
 51
0.0
  0
ARC
  5
746E
  8
0
 10
100.2499999999999
 20
50.000000000000121
 30
0.0
 40
1.500000000000006
 50
239.99999999999989
 51
300.0
  0
ARC
  5
746F
  8
0
 10
100.2499999999999
 20
50.000000000000121
 30
0.0
 40
1.5
 50
0.0
 51
59.999999999999943
  0
ARC
  5
7470
  8
0
 10
100.2499999999999
 20
50.000000000000121
 30
0.0
 40
1.5
 50
59.999999999999943
 51
120.0
  0
ARC
  5
7471
  8
0
 10
100.2499999999999
 20
50.000000000000121
 30
0.0
 40
1.500000000000006
 50
180.0000000000008
 51
239.99999999999989
  0
ARC
  5
7472
  8
0
 10
100.2499999999999
 20
50.000000000000121
 30
0.0
 40
1.5
 50
120.0
 51
180.0000000000008
  0
CIRCLE
  5
7473
  8
0
 10
100.2499999999999
 20
50.000000000000092
 30
0.0
 40
6.0
  0
LINE
  5
7476
  8
1
 10
100.25
 20
39.250000000000057
 30
0.0
 11
100.25
 21
60.750000000000071
 31
0.0
  0
LINE
  5
7477
  8
1
 10
89.500000000000014
 20
50.000000000000071
 30
0.0
 11
111.0
 21
50.000000000000071
 31
0.0
  0
LINE
  5
7478
  8
1
 10
30.0
 20
50.0
 30
0.0
 11
69.5
 21
50.000000000000107
 31
0.0
  0
LINE
  5
748E
  8
3
 10
44.999999999999972
 20
46.676499999999891
 30
0.0
 11
33.523500000000112
 21
46.676499999999898
 31
0.0
  0
LINE
  5
748F
  8
3
 10
45.0
 20
53.323500000000102
 30
0.0
 11
33.523500000000098
 21
53.323500000000116
 31
0.0
  0
CIRCLE
  5
74CB
  8
0
 10
100.2499999999999
 20
50.000000000000121
 30
0.0
 40
4.2857864376269097
  0
CIRCLE
  5
750A
  8
0
 10
100.25
 20
50.000000000000071
 30
0.0
 40
6.877834539959351
  0
ENDSEC
  0
EOF
