  0
SECTION
  2
HEADER
  9
$ACADVER
  1
AC1009
  9
$INSBASE
 10
0.0
 20
0.0
 30
0.0
  9
$EXTMIN
 10
0.0
 20
-1.4802182810368341
 30
0.0
  9
$EXTMAX
 10
128.50000061089989
 20
64.5
 30
0.0
  9
$LIMMIN
 10
0.0
 20
0.0
  9
$LIMMAX
 10
12.0
 20
9.0
  9
$ORTHOMODE
 70
     1
  9
$REGENMODE
 70
     1
  9
$FILLMODE
 70
     1
  9
$QTEXTMODE
 70
     0
  9
$MIRRTEXT
 70
     0
  9
$DRAGMODE
 70
     2
  9
$LTSCALE
 40
5.0
  9
$OSMODE
 70
    37
  9
$ATTMODE
 70
     1
  9
$TEXTSIZE
 40
0.2
  9
$TRACEWID
 40
0.05
  9
$TEXTSTYLE
  7
STANDARD
  9
$CLAYER
  8
0
  9
$CELTYPE
  6
BYLAYER
  9
$CECOLOR
 62
   256
  9
$DIMSCALE
 40
1.0
  9
$DIMASZ
 40
0.18
  9
$DIMEXO
 40
0.0625
  9
$DIMDLI
 40
0.38
  9
$DIMRND
 40
0.0
  9
$DIMDLE
 40
0.0
  9
$DIMEXE
 40
0.18
  9
$DIMTP
 40
0.0
  9
$DIMTM
 40
0.0
  9
$DIMTXT
 40
2.6000000000000001
  9
$DIMCEN
 40
0.09
  9
$DIMTSZ
 40
0.0
  9
$DIMTOL
 70
     0
  9
$DIMLIM
 70
     0
  9
$DIMTIH
 70
     0
  9
$DIMTOH
 70
     0
  9
$DIMSE1
 70
     0
  9
$DIMSE2
 70
     0
  9
$DIMTAD
 70
     1
  9
$DIMZIN
 70
     8
  9
$DIMBLK
  1

  9
$DIMASO
 70
     1
  9
$DIMSHO
 70
     1
  9
$DIMPOST
  1

  9
$DIMAPOST
  1

  9
$DIMALT
 70
     0
  9
$DIMALTD
 70
     2
  9
$DIMALTF
 40
25.399999999999999
  9
$DIMLFAC
 40
1.0
  9
$DIMTOFL
 70
     0
  9
$DIMTVP
 40
0.0
  9
$DIMTIX
 70
     0
  9
$DIMSOXD
 70
     0
  9
$DIMSAH
 70
     0
  9
$DIMBLK1
  1

  9
$DIMBLK2
  1

  9
$DIMSTYLE
  2
STANDARD
  9
$DIMCLRD
 70
     0
  9
$DIMCLRE
 70
     0
  9
$DIMCLRT
 70
     0
  9
$DIMTFAC
 40
1.0
  9
$DIMGAP
 40
0.09
  9
$LUNITS
 70
     2
  9
$LUPREC
 70
     4
  9
$SKETCHINC
 40
0.1
  9
$FILLETRAD
 40
0.0
  9
$AUNITS
 70
     0
  9
$AUPREC
 70
     0
  9
$MENU
  1
.
  9
$ELEVATION
 40
0.0
  9
$PELEVATION
 40
0.0
  9
$THICKNESS
 40
0.0
  9
$LIMCHECK
 70
     0
  9
$BLIPMODE
 70
     0
  9
$CHAMFERA
 40
0.0
  9
$CHAMFERB
 40
0.0
  9
$SKPOLY
 70
     0
  9
$TDCREATE
 40
2453083.4120647679
  9
$TDUPDATE
 40
2459604.6595700001
  9
$TDINDWG
 40
0.7130469792
  9
$TDUSRTIMER
 40
0.7130468634
  9
$USRTIMER
 70
     1
  9
$ANGBASE
 50
0.0
  9
$ANGDIR
 70
     0
  9
$PDMODE
 70
     0
  9
$PDSIZE
 40
0.0
  9
$PLINEWID
 40
0.0
  9
$COORDS
 70
     1
  9
$SPLFRAME
 70
     0
  9
$SPLINETYPE
 70
     6
  9
$SPLINESEGS
 70
     8
  9
$ATTDIA
 70
     0
  9
$ATTREQ
 70
     1
  9
$HANDLING
 70
     1
  9
$HANDSEED
  5
7908
  9
$SURFTAB1
 70
     6
  9
$SURFTAB2
 70
     6
  9
$SURFTYPE
 70
     6
  9
$SURFU
 70
     6
  9
$SURFV
 70
     6
  9
$UCSNAME
  2

  9
$UCSORG
 10
0.0
 20
0.0
 30
0.0
  9
$UCSXDIR
 10
1.0
 20
0.0
 30
0.0
  9
$UCSYDIR
 10
0.0
 20
1.0
 30
0.0
  9
$PUCSNAME
  2

  9
$PUCSORG
 10
0.0
 20
0.0
 30
0.0
  9
$PUCSXDIR
 10
1.0
 20
0.0
 30
0.0
  9
$PUCSYDIR
 10
0.0
 20
1.0
 30
0.0
  9
$USERI1
 70
     0
  9
$USERI2
 70
     1
  9
$USERI3
 70
     0
  9
$USERI4
 70
     0
  9
$USERI5
 70
     0
  9
$USERR1
 40
0.0
  9
$USERR2
 40
0.0
  9
$USERR3
 40
0.0
  9
$USERR4
 40
0.0
  9
$USERR5
 40
0.0
  9
$WORLDVIEW
 70
     1
  9
$SHADEDGE
 70
     3
  9
$SHADEDIF
 70
    70
  9
$TILEMODE
 70
     1
  9
$MAXACTVP
 70
    64
  9
$PLIMCHECK
 70
     0
  9
$PEXTMIN
 10
0.0
 20
0.0
 30
0.0
  9
$PEXTMAX
 10
0.0
 20
0.0
 30
0.0
  9
$PLIMMIN
 10
0.0
 20
0.0
  9
$PLIMMAX
 10
12.0
 20
9.0
  9
$UNITMODE
 70
     0
  9
$VISRETAIN
 70
     1
  9
$PLINEGEN
 70
     0
  9
$PSLTSCALE
 70
     1
  0
ENDSEC
  0
SECTION
  2
TABLES
  0
TABLE
  2
VPORT
 70
     1
  0
VPORT
  2
*ACTIVE
 70
     0
 10
0.0
 20
0.0
 11
1.0
 21
1.0
 12
110.8822489035479
 22
31.508587011789459
 13
0.0
 23
0.0
 14
0.5
 24
0.5
 15
0.5
 25
0.5
 16
0.0
 26
0.0
 36
1.0
 17
0.0
 27
0.0
 37
0.0
 40
93.507350495819608
 41
2.3805970149253728
 42
50.0
 43
0.0
 44
0.0
 50
0.0
 51
0.0
 71
     0
 72
  1000
 73
     1
 74
     2
 75
     0
 76
     0
 77
     0
 78
     0
  0
ENDTAB
  0
TABLE
  2
LTYPE
 70
     3
  0
LTYPE
  2
CONTINUOUS
 70
     0
  3
Solid Line
 72
    65
 73
     0
 40
0.0
  0
LTYPE
  2
CENTER
 70
     0
  3
____ _ ____ _ ____ _ ____ _ ____ _ ____ _ ____
 72
    65
 73
     4
 40
2.0
 49
1.25
 49
-0.25
 49
0.25
 49
-0.25
  0
LTYPE
  2
PHANTOM2
 70
     0
  3
___ _ _ ___ _ _ ___ _ _ ___ _ _
 72
    65
 73
     6
 40
1.25
 49
0.625
 49
-0.125
 49
0.125
 49
-0.125
 49
0.125
 49
-0.125
  0
ENDTAB
  0
TABLE
  2
LAYER
 70
     4
  0
LAYER
  2
0
 70
     0
 62
     7
  6
CONTINUOUS
  0
LAYER
  2
1
 70
     0
 62
     1
  6
CENTER
  0
LAYER
  2
DEFPOINTS
 70
     0
 62
     7
  6
CONTINUOUS
  0
LAYER
  2
3
 70
     0
 62
     3
  6
CONTINUOUS
  0
ENDTAB
  0
TABLE
  2
STYLE
 70
     2
  0
STYLE
  2
STANDARD
 70
     0
 40
0.0
 41
1.0
 50
0.0
 71
     0
 42
0.2
  3
simplex.shx
  4
bigfont.shx
  0
STYLE
  2
STANDARD1
 70
     0
 40
0.0
 41
1.0
 50
0.0
 71
     0
 42
3.0
  3
txt
  4

  0
ENDTAB
  0
TABLE
  2
VIEW
 70
     0
  0
ENDTAB
  0
TABLE
  2
UCS
 70
     0
  0
ENDTAB
  0
TABLE
  2
APPID
 70
     5
  0
APPID
  2
ACAD
 70
     0
  0
APPID
  2
ACAD_MLEADERVER
 70
     0
  0
APPID
  2
ACAD_NAV_VCDISPLAY
 70
     0
  0
APPID
  2
ACAD_EXEMPT_FROM_CAD_STANDARDS
 70
     0
  0
APPID
  2
ACAD_DSTYLE_DIMRADIAL_EXTENSION
 70
     0
  0
ENDTAB
  0
TABLE
  2
DIMSTYLE
 70
     1
  0
DIMSTYLE
  2
STANDARD
 70
     0
  3

  4

  5

  6

  7

 40
1.0
 41
0.18
 42
0.0625
 43
0.38
 44
0.18
 45
0.0
 46
0.0
 47
0.0
 48
0.0
140
2.6000000000000001
141
0.09
142
0.0
143
25.399999999999999
144
1.0
145
0.0
146
1.0
147
0.09
 71
     0
 72
     0
 73
     0
 74
     0
 75
     0
 76
     0
 77
     1
 78
     8
170
     0
171
     2
172
     0
173
     0
174
     0
175
     0
176
     0
177
     0
178
     0
  0
ENDTAB
  0
ENDSEC
  0
SECTION
  2
BLOCKS
  0
BLOCK
  8
0
  2
$MODEL_SPACE
 70
     0
 10
0.0
 20
0.0
 30
0.0
  3
$MODEL_SPACE
  1

  0
ENDBLK
  5
21
  8
0
  0
BLOCK
 67
     1
  8
0
  2
$PAPER_SPACE
 70
     0
 10
0.0
 20
0.0
 30
0.0
  3
$PAPER_SPACE
  1

  0
ENDBLK
  5
5B
 67
     1
  8
0
  0
ENDSEC
  0
SECTION
  2
ENTITIES
  0
TEXT
  5
1F01
  8
0
 62
     3
 10
0.0
 20
0.0
 30
0.0
 40
5.0
  1
CP155-08001LS
  7
STANDARD1
  0
LINE
  5
7774
  8
0
 10
51.000001087800008
 20
61.500000022400002
 30
0.0
 11
50.000000923900018
 21
60.49999985849999
 31
0.0
  0
LINE
  5
7775
  8
0
 10
50.000000923900018
 20
39.500000141600012
 30
0.0
 11
51.000001087800008
 21
38.4999999777
 31
0.0
  0
LINE
  5
7776
  8
0
 10
59.000000652800011
 20
61.500000022400002
 30
0.0
 11
51.000001087800008
 21
61.500000022400002
 31
0.0
  0
LINE
  5
7777
  8
0
 10
51.000001087800008
 20
38.4999999777
 30
0.0
 11
59.000000652800011
 21
38.4999999777
 31
0.0
  0
LINE
  5
7778
  8
0
 10
59.000000652800011
 20
38.4999999777
 30
0.0
 11
60.000000700300014
 21
39.500000141600012
 31
0.0
  0
LINE
  5
7779
  8
0
 10
60.000000700300014
 20
60.49999985849999
 30
0.0
 11
59.000000652800011
 21
61.500000022400002
 31
0.0
  0
LINE
  5
777A
  8
0
 10
60.200000695299998
 20
57.749999873400007
 30
0.0
 11
60.000000700300014
 21
57.55000021310002
 31
0.0
  0
LINE
  5
777B
  8
0
 10
60.000000700300014
 20
42.449999786900008
 30
0.0
 11
60.200000695299998
 21
42.250000126700009
 31
0.0
  0
LINE
  5
777C
  8
0
 10
60.871854312200007
 20
57.749999873400007
 30
0.0
 11
60.200000695299998
 21
57.749999873400007
 31
0.0
  0
LINE
  5
777D
  8
0
 10
60.200000695299998
 20
42.250000126700009
 30
0.0
 11
60.871854312200007
 21
42.250000126700009
 31
0.0
  0
LINE
  5
777E
  8
0
 10
60.871854312200007
 20
42.250000126700009
 30
0.0
 11
63.913456808799999
 21
43.122165557000002
 31
0.0
  0
LINE
  5
777F
  8
0
 10
63.913456808799999
 20
56.877834443000012
 30
0.0
 11
60.871854312200007
 21
57.749999873400007
 31
0.0
  0
ARC
  5
7780
  8
0
 10
63.500000700299999
 20
55.435941996099999
 30
0.0
 40
1.5
 50
0.0
 51
74.000000000000114
  0
ARC
  5
7781
  8
0
 10
63.500000700299999
 20
44.56405800400001
 30
0.0
 40
1.5000000000000151
 50
285.99999999999989
 51
0.0
  0
LINE
  5
7782
  8
0
 10
46.000000268199997
 20
56.000000052200001
 30
0.0
 11
45.000001035600022
 21
55.422649905100023
 31
0.0
  0
LINE
  5
7783
  8
0
 10
45.000001035600022
 20
44.577350094900012
 30
0.0
 11
46.000000268199997
 21
43.999999947900001
 31
0.0
  0
LINE
  5
7784
  8
0
 10
50.000000923900018
 20
56.000000052200001
 30
0.0
 11
46.000000268199997
 21
56.000000052200001
 31
0.0
  0
LINE
  5
7785
  8
0
 10
46.000000268199997
 20
43.999999947900001
 30
0.0
 11
50.000000923900018
 21
43.999999947900001
 31
0.0
  0
LINE
  5
7786
  8
0
 10
65.200000714500007
 20
56.000000052200001
 30
0.0
 11
65.000000588600003
 21
55.799999926300003
 31
0.0
  0
LINE
  5
7787
  8
0
 10
65.000000588600003
 20
44.200000073800013
 30
0.0
 11
65.200000714500007
 21
43.999999947900001
 31
0.0
  0
LINE
  5
7788
  8
0
 10
66.21132576090001
 20
56.000000052200001
 30
0.0
 11
65.200000714500007
 21
56.000000052200001
 31
0.0
  0
LINE
  5
7789
  8
0
 10
65.200000714500007
 20
43.999999947900001
 30
0.0
 11
66.21132576090001
 21
43.999999947900001
 31
0.0
  0
ARC
  5
778A
  8
0
 10
66.211325565699994
 20
55.500000000000007
 30
0.0
 40
0.5
 50
29.999999999999581
 51
90.0
  0
ARC
  5
778B
  8
0
 10
66.211325565699994
 20
44.500000000000007
 30
0.0
 40
0.5
 50
270.0
 51
330.00000000000051
  0
LINE
  5
778C
  8
0
 10
66.644338138400002
 20
44.249999988900008
 30
0.0
 11
67.914508461900013
 21
46.449999976900003
 31
0.0
  0
LINE
  5
778D
  8
0
 10
67.914508461900013
 20
53.550000023100012
 30
0.0
 11
66.644338138400002
 21
55.750000011200001
 31
0.0
  0
ARC
  5
778E
  8
0
 10
73.587713940600011
 20
55.000000000000007
 30
0.0
 40
0.5
 50
90.0
 51
150.0000000000004
  0
ARC
  5
778F
  8
0
 10
73.587713940600011
 20
45.000000000000007
 30
0.0
 40
0.4999999999999886
 50
209.9999999999996
 51
270.0
  0
LINE
  5
7790
  8
0
 10
73.587713941900006
 20
44.500000029799999
 30
0.0
 11
75.492893524500005
 21
44.500000029799999
 31
0.0
  0
LINE
  5
7791
  8
0
 10
75.492893524500005
 20
55.499999970199987
 30
0.0
 11
73.587713941900006
 21
55.499999970199987
 31
0.0
  0
ARC
  5
7792
  8
0
 10
75.4928939192
 20
55.000000000000007
 30
0.0
 40
0.500000000000004
 50
44.999999999999922
 51
90.0
  0
ARC
  5
7793
  8
0
 10
75.4928939192
 20
45.000000000000007
 30
0.0
 40
0.500000000000004
 50
270.0
 51
315.00000000000011
  0
LINE
  5
7794
  8
0
 10
75.8464468568
 20
44.646446779400002
 30
0.0
 11
76.207107111799999
 21
45.007106568700003
 31
0.0
  0
LINE
  5
7795
  8
0
 10
76.207107111799999
 20
54.992893431399999
 30
0.0
 11
75.8464468568
 21
55.3535532207
 31
0.0
  0
LINE
  5
7796
  8
0
 10
73.154701098800018
 20
55.249999929300017
 30
0.0
 11
72.173205383100012
 21
53.550000023100012
 31
0.0
  0
LINE
  5
7797
  8
0
 10
72.173205383100012
 20
46.449999976900003
 30
0.0
 11
73.154701098800018
 21
44.750000070800013
 31
0.0
  0
ARC
  5
7798
  8
0
 10
75.500000700300006
 20
54.28578643769999
 30
0.0
 40
1.0000000000000071
 50
0.0
 51
44.999999999999922
  0
ARC
  5
7799
  8
0
 10
75.500000700300006
 20
45.714213562400012
 30
0.0
 40
1.0
 50
315.00000000000011
 51
0.0
  0
LINE
  5
779A
  8
0
 10
34.199999824200013
 20
54.000000190000009
 30
0.0
 11
33.0
 21
52.799999900200007
 31
0.0
  0
LINE
  5
779B
  8
0
 10
33.0
 20
47.200000099900009
 30
0.0
 11
34.199999824200013
 21
45.99999981000002
 31
0.0
  0
LINE
  5
779C
  8
0
 10
45.000001035600022
 20
54.000000190000009
 30
0.0
 11
34.199999824200013
 21
54.000000190000009
 31
0.0
  0
LINE
  5
779D
  8
0
 10
34.199999824200013
 20
45.99999981000002
 30
0.0
 11
45.000001035600022
 21
45.99999981000002
 31
0.0
  0
ARC
  5
779E
  8
0
 10
68.434124102100014
 20
46.150000000000013
 30
0.0
 40
0.6000000000000066
 50
90.0
 51
150.0000000000004
  0
ARC
  5
779F
  8
0
 10
68.434124102100014
 20
53.850000000000009
 30
0.0
 40
0.6000000000000086
 50
209.9999999999996
 51
270.0
  0
ARC
  5
77A0
  8
0
 10
71.653590538800017
 20
46.150000000000013
 30
0.0
 40
0.6000000000000066
 50
29.999999999999581
 51
90.0
  0
ARC
  5
77A1
  8
0
 10
71.653590538800017
 20
53.850000000000009
 30
0.0
 40
0.6000000000000086
 50
270.0
 51
330.00000000000051
  0
LINE
  5
77A2
  8
0
 10
68.434124060000002
 20
46.749999933000012
 30
0.0
 11
71.653590716400004
 21
46.749999933000012
 31
0.0
  0
LINE
  5
77A3
  8
0
 10
71.653590716400004
 20
53.250000067099997
 30
0.0
 11
68.434124060000002
 21
53.250000067099997
 31
0.0
  0
LINE
  5
77A4
  8
0
 10
51.000001087800008
 20
61.500000022400002
 30
0.0
 11
51.000001087800008
 21
38.4999999777
 31
0.0
  0
LINE
  5
77A5
  8
0
 10
50.000000923900018
 20
39.500000141600012
 30
0.0
 11
50.000000923900018
 21
60.49999985849999
 31
0.0
  0
LINE
  5
77A6
  8
0
 10
59.000000652800011
 20
38.4999999777
 30
0.0
 11
59.000000652800011
 21
61.500000022400002
 31
0.0
  0
LINE
  5
77A7
  8
0
 10
60.000000700300014
 20
60.49999985849999
 30
0.0
 11
60.000000700300014
 21
39.500000141600012
 31
0.0
  0
LINE
  5
77A8
  8
0
 10
60.200000695299998
 20
57.749999873400007
 30
0.0
 11
60.200000695299998
 21
42.250000126700009
 31
0.0
  0
LINE
  5
77A9
  8
0
 10
60.871854312200007
 20
57.749999873400007
 30
0.0
 11
60.871854312200007
 21
42.250000126700009
 31
0.0
  0
LINE
  5
77AA
  8
0
 10
46.000000268199997
 20
56.000000052200001
 30
0.0
 11
46.000000268199997
 21
43.999999947900001
 31
0.0
  0
LINE
  5
77AB
  8
0
 10
45.000001035600022
 20
44.577350094900012
 30
0.0
 11
45.000001035600022
 21
55.422649905100023
 31
0.0
  0
LINE
  5
77AC
  8
0
 10
65.200000714500007
 20
56.000000052200001
 30
0.0
 11
65.200000714500007
 21
43.999999947900001
 31
0.0
  0
LINE
  5
77AD
  8
0
 10
65.000000588600003
 20
44.200000073800013
 30
0.0
 11
65.000000588600003
 21
55.799999926300003
 31
0.0
  0
LINE
  5
77AE
  8
0
 10
76.500000610900003
 20
54.285786300900007
 30
0.0
 11
76.500000610900003
 21
45.714213699100007
 31
0.0
  0
LINE
  5
77AF
  8
0
 10
34.199999824200013
 20
54.000000190000009
 30
0.0
 11
34.199999824200013
 21
45.99999981000002
 31
0.0
  0
LINE
  5
77B0
  8
0
 10
33.0
 20
47.200000099900009
 30
0.0
 11
33.0
 21
52.799999900200007
 31
0.0
  0
LINE
  5
77B1
  8
0
 10
63.913456808799999
 20
43.122165557000002
 30
0.0
 11
63.913456808799999
 21
56.877834443000012
 31
0.0
  0
LINE
  5
77B2
  8
0
 10
66.21132576090001
 20
43.999999947900001
 30
0.0
 11
66.21132576090001
 21
56.000000052200001
 31
0.0
  0
LINE
  5
77B3
  8
0
 10
73.587713941900006
 20
55.499999970199987
 30
0.0
 11
73.587713941900006
 21
44.500000029799999
 31
0.0
  0
LINE
  5
77B4
  8
0
 10
75.492893524500005
 20
44.500000029799999
 30
0.0
 11
75.492893524500005
 21
55.499999970199987
 31
0.0
  0
LINE
  5
77B5
  8
0
 10
68.434124060000002
 20
53.250000067099997
 30
0.0
 11
68.434124060000002
 21
46.749999933000012
 31
0.0
  0
LINE
  5
77B6
  8
0
 10
71.653590716400004
 20
46.749999933000012
 30
0.0
 11
71.653590716400004
 21
53.250000067099997
 31
0.0
  0
LINE
  5
77B7
  8
1
 10
79.500000610900003
 20
50.000000000000007
 30
0.0
 11
30.0
 21
50.0
 31
0.0
  0
CIRCLE
  5
77B8
  8
0
 10
114.0000006109
 20
50.000000000000007
 30
0.0
 40
10.499999999999989
  0
CIRCLE
  5
77B9
  8
0
 10
114.0000006109
 20
50.000000000000007
 30
0.0
 40
11.499999999999989
  0
CIRCLE
  5
77BA
  8
0
 10
114.0000006109
 20
50.000000000000007
 30
0.0
 40
6.8778345399593093
  0
CIRCLE
  5
77BB
  8
0
 10
114.0000006109
 20
50.000000000000007
 30
0.0
 40
7.7499999999999858
  0
LINE
  5
77BC
  8
0
 10
112.5000006117843
 20
50.866025419421597
 30
0.0
 11
114.0000005969156
 21
51.732050814621587
 31
0.0
  0
LINE
  5
77BF
  8
0
 10
115.5000006099656
 20
49.133974580665019
 30
0.0
 11
114.0000006248343
 21
48.267949185465007
 31
0.0
  0
CIRCLE
  5
77C2
  8
0
 10
114.0000006109
 20
50.000000000000007
 30
0.0
 40
2.0000000000000142
  0
CIRCLE
  5
77C4
  8
0
 10
114.0000006109
 20
50.000000000000007
 30
0.0
 40
4.2857864376269239
  0
CIRCLE
  5
77C6
  8
0
 10
114.0000006109
 20
50.000000000000007
 30
0.0
 40
5.5000000000000284
  0
CIRCLE
  5
77CE
  8
0
 10
114.0000006109
 20
50.000000000000007
 30
0.0
 40
6.0000000000000417
  0
LINE
  5
77DB
  8
1
 10
114.0000006109
 20
64.5
 30
0.0
 11
114.0000006109
 21
35.500000000000028
 31
0.0
  0
LINE
  5
77DC
  8
1
 10
99.500000610900017
 20
50.000000000000007
 30
0.0
 11
128.50000061089989
 21
50.000000000000007
 31
0.0
  0
LINE
  5
77DD
  8
3
 10
33.523500000000077
 20
53.323500000000109
 30
0.0
 11
44.999999999999993
 21
53.323500000000109
 31
0.0
  0
LINE
  5
77DE
  8
3
 10
33.523500000000112
 20
46.676499999999898
 30
0.0
 11
44.999999999999993
 21
46.676499999999898
 31
0.0
  0
LINE
  5
782A
  8
0
 10
115.5000006100156
 20
50.866025419421597
 30
0.0
 11
114.00000062488429
 21
51.732050814621587
 31
0.0
  0
LINE
  5
7831
  8
0
 10
115.5000005961179
 20
50.86602539525002
 30
0.0
 11
115.5000006099656
 21
49.133974580665019
 31
0.0
  0
LINE
  5
7832
  8
0
 10
112.50000062576871
 20
49.133974604800031
 30
0.0
 11
112.5000006117843
 21
50.866025419421597
 31
0.0
  0
LINE
  5
7833
  8
0
 10
112.50000061183439
 20
49.133974580664912
 30
0.0
 11
114.00000059696571
 21
48.267949185465007
 31
0.0
  0
ENDSEC
  0
EOF
